  0
SECTION
  2
HEADER
  9
$ACADVER
  1
AC1018
  9
$ACADMAINTVER
 70
     2
  9
$DWGCODEPAGE
  3
ANSI_1252
  9
$INSBASE
 10
0.0
 20
0.0
 30
0.0
  9
$EXTMIN
 10
-0.0128164049386896
 20
-0.0090630292066862
 30
-0.0015258207003583
  9
$EXTMAX
 10
420.0128183607161
 20
297.0090644122207
 30
0.0000000349246037
  9
$LIMMIN
 10
0.0
 20
0.0
  9
$LIMMAX
 10
420.0
 20
297.0
  9
$ORTHOMODE
 70
     1
  9
$REGENMODE
 70
     1
  9
$FILLMODE
 70
     1
  9
$QTEXTMODE
 70
     0
  9
$MIRRTEXT
 70
     1
  9
$LTSCALE
 40
10.0
  9
$ATTMODE
 70
     1
  9
$TEXTSIZE
 40
3.5
  9
$TRACEWID
 40
1.0
  9
$TEXTSTYLE
  7
STANDARD
  9
$CLAYER
  8
VOLL
  9
$CELTYPE
  6
ByLayer
  9
$CECOLOR
 62
   256
  9
$CELTSCALE
 40
1.0
  9
$DISPSILH
 70
     0
  9
$DIMSCALE
 40
1.0
  9
$DIMASZ
 40
3.5
  9
$DIMEXO
 40
1.0
  9
$DIMDLI
 40
7.0
  9
$DIMRND
 40
0.0
  9
$DIMDLE
 40
0.0
  9
$DIMEXE
 40
1.0
  9
$DIMTP
 40
0.0
  9
$DIMTM
 40
0.0
  9
$DIMTXT
 40
3.5
  9
$DIMCEN
 40
1.5
  9
$DIMTSZ
 40
0.0
  9
$DIMTOL
 70
     0
  9
$DIMLIM
 70
     0
  9
$DIMTIH
 70
     0
  9
$DIMTOH
 70
     0
  9
$DIMSE1
 70
     0
  9
$DIMSE2
 70
     0
  9
$DIMTAD
 70
     1
  9
$DIMZIN
 70
     8
  9
$DIMBLK
  1

  9
$DIMASO
 70
     1
  9
$DIMSHO
 70
     0
  9
$DIMPOST
  1

  9
$DIMAPOST
  1

  9
$DIMALT
 70
     0
  9
$DIMALTD
 70
     2
  9
$DIMALTF
 40
25.4
  9
$DIMLFAC
 40
1.0
  9
$DIMTOFL
 70
     1
  9
$DIMTVP
 40
0.0
  9
$DIMTIX
 70
     0
  9
$DIMSOXD
 70
     0
  9
$DIMSAH
 70
     0
  9
$DIMBLK1
  1

  9
$DIMBLK2
  1

  9
$DIMSTYLE
  2
Standard
  9
$DIMCLRD
 70
     0
  9
$DIMCLRE
 70
     0
  9
$DIMCLRT
 70
     1
  9
$DIMTFAC
 40
0.5142857142857144
  9
$DIMGAP
 40
1.5
  9
$DIMJUST
 70
     0
  9
$DIMSD1
 70
     0
  9
$DIMSD2
 70
     0
  9
$DIMTOLJ
 70
     1
  9
$DIMTZIN
 70
     8
  9
$DIMALTZ
 70
     8
  9
$DIMALTTZ
 70
     8
  9
$DIMUPT
 70
     0
  9
$DIMDEC
 70
     2
  9
$DIMTDEC
 70
     2
  9
$DIMALTU
 70
     2
  9
$DIMALTTD
 70
     2
  9
$DIMTXSTY
  7
STANDARD
  9
$DIMAUNIT
 70
     0
  9
$DIMADEC
 70
     2
  9
$DIMALTRND
 40
0.0
  9
$DIMAZIN
 70
     2
  9
$DIMDSEP
 70
    46
  9
$DIMATFIT
 70
     3
  9
$DIMFRAC
 70
     0
  9
$DIMLDRBLK
  1

  9
$DIMLUNIT
 70
     2
  9
$DIMLWD
 70
    -2
  9
$DIMLWE
 70
    -2
  9
$DIMTMOVE
 70
     0
  9
$LUNITS
 70
     2
  9
$LUPREC
 70
     2
  9
$SKETCHINC
 40
1.0
  9
$FILLETRAD
 40
2.0
  9
$AUNITS
 70
     0
  9
$AUPREC
 70
     0
  9
$MENU
  1
ACAD
  9
$ELEVATION
 40
0.0
  9
$PELEVATION
 40
0.0
  9
$THICKNESS
 40
0.0
  9
$LIMCHECK
 70
     0
  9
$CHAMFERA
 40
0.0
  9
$CHAMFERB
 40
0.0
  9
$CHAMFERC
 40
0.0
  9
$CHAMFERD
 40
0.0
  9
$SKPOLY
 70
     0
  9
$TDCREATE
 40
2455397.867059838
  9
$TDUCREATE
 40
2455397.783726505
  9
$TDUPDATE
 40
2455693.340372523
  9
$TDUUPDATE
 40
2455693.257039190
  9
$TDINDWG
 40
0.1738024421
  9
$TDUSRTIMER
 40
0.1738024421
  9
$USRTIMER
 70
     1
  9
$ANGBASE
 50
0.0
  9
$ANGDIR
 70
     0
  9
$PDMODE
 70
     0
  9
$PDSIZE
 40
0.0
  9
$PLINEWID
 40
0.0
  9
$SPLFRAME
 70
     0
  9
$SPLINETYPE
 70
     6
  9
$SPLINESEGS
 70
     8
  9
$HANDSEED
  5
258
  9
$SURFTAB1
 70
     6
  9
$SURFTAB2
 70
     6
  9
$SURFTYPE
 70
     6
  9
$SURFU
 70
     6
  9
$SURFV
 70
     6
  9
$UCSBASE
  2

  9
$UCSNAME
  2

  9
$UCSORG
 10
0.0
 20
0.0
 30
0.0
  9
$UCSXDIR
 10
1.0
 20
0.0
 30
0.0
  9
$UCSYDIR
 10
0.0
 20
1.0
 30
0.0
  9
$UCSORTHOREF
  2

  9
$UCSORTHOVIEW
 70
     0
  9
$UCSORGTOP
 10
0.0
 20
0.0
 30
0.0
  9
$UCSORGBOTTOM
 10
0.0
 20
0.0
 30
0.0
  9
$UCSORGLEFT
 10
0.0
 20
0.0
 30
0.0
  9
$UCSORGRIGHT
 10
0.0
 20
0.0
 30
0.0
  9
$UCSORGFRONT
 10
0.0
 20
0.0
 30
0.0
  9
$UCSORGBACK
 10
0.0
 20
0.0
 30
0.0
  9
$PUCSBASE
  2

  9
$PUCSNAME
  2

  9
$PUCSORG
 10
0.0
 20
0.0
 30
0.0
  9
$PUCSXDIR
 10
1.0
 20
0.0
 30
0.0
  9
$PUCSYDIR
 10
0.0
 20
1.0
 30
0.0
  9
$PUCSORTHOREF
  2

  9
$PUCSORTHOVIEW
 70
     0
  9
$PUCSORGTOP
 10
0.0
 20
0.0
 30
0.0
  9
$PUCSORGBOTTOM
 10
0.0
 20
0.0
 30
0.0
  9
$PUCSORGLEFT
 10
0.0
 20
0.0
 30
0.0
  9
$PUCSORGRIGHT
 10
0.0
 20
0.0
 30
0.0
  9
$PUCSORGFRONT
 10
0.0
 20
0.0
 30
0.0
  9
$PUCSORGBACK
 10
0.0
 20
0.0
 30
0.0
  9
$USERI1
 70
     0
  9
$USERI2
 70
     0
  9
$USERI3
 70
     0
  9
$USERI4
 70
     0
  9
$USERI5
 70
     0
  9
$USERR1
 40
0.0
  9
$USERR2
 40
0.0
  9
$USERR3
 40
0.0
  9
$USERR4
 40
0.0
  9
$USERR5
 40
0.0
  9
$WORLDVIEW
 70
     1
  9
$SHADEDGE
 70
     3
  9
$SHADEDIF
 70
    70
  9
$TILEMODE
 70
     1
  9
$MAXACTVP
 70
    16
  9
$PINSBASE
 10
0.0
 20
0.0
 30
0.0
  9
$PLIMCHECK
 70
     0
  9
$PEXTMIN
 10
1.000000000000000E+20
 20
1.000000000000000E+20
 30
1.000000000000000E+20
  9
$PEXTMAX
 10
-1.000000000000000E+20
 20
-1.000000000000000E+20
 30
-1.000000000000000E+20
  9
$PLIMMIN
 10
0.0
 20
0.0
  9
$PLIMMAX
 10
12.0
 20
9.0
  9
$UNITMODE
 70
     0
  9
$VISRETAIN
 70
     0
  9
$PLINEGEN
 70
     0
  9
$PSLTSCALE
 70
     0
  9
$TREEDEPTH
 70
  3020
  9
$CMLSTYLE
  2
Standard
  9
$CMLJUST
 70
     0
  9
$CMLSCALE
 40
1.0
  9
$PROXYGRAPHICS
 70
     1
  9
$MEASUREMENT
 70
     0
  9
$CELWEIGHT
370
    -1
  9
$ENDCAPS
280
     0
  9
$JOINSTYLE
280
     0
  9
$LWDISPLAY
290
     0
  9
$INSUNITS
 70
     0
  9
$HYPERLINKBASE
  1

  9
$STYLESHEET
  1
monochrome 1.ctb
  9
$XEDIT
290
     1
  9
$CEPSNTYPE
380
     0
  9
$PSTYLEMODE
290
     1
  9
$FINGERPRINTGUID
  2
{D68B0D0D-A558-11D7-B632-000102183313}
  9
$VERSIONGUID
  2
{3BBEF74C-939C-4626-8157-C2D28F93177D}
  9
$EXTNAMES
290
     1
  9
$PSVPSCALE
 40
0.0
  9
$OLESTARTUP
290
     0
  9
$SORTENTS
280
   127
  9
$INDEXCTL
280
     0
  9
$HIDETEXT
280
     0
  9
$XCLIPFRAME
290
     0
  9
$HALOGAP
280
     0
  9
$OBSCOLOR
 70
   257
  9
$OBSLTYPE
280
     0
  9
$INTERSECTIONDISPLAY
280
     0
  9
$INTERSECTIONCOLOR
 70
   257
  9
$DIMASSOC
280
     1
  9
$PROJECTNAME
  1

  0
ENDSEC
  0
SECTION
  2
CLASSES
  0
CLASS
  1
ACDBDICTIONARYWDFLT
  2
AcDbDictionaryWithDefault
  3
ObjectDBX Classes
 90
        0
 91
        1
280
     0
281
     0
  0
CLASS
  1
DICTIONARYVAR
  2
AcDbDictionaryVar
  3
ObjectDBX Classes
 90
        0
 91
        2
280
     0
281
     0
  0
ENDSEC
  0
SECTION
  2
TABLES
  0
TABLE
  2
VPORT
  5
8
330
0
100
AcDbSymbolTable
 70
     3
  0
VPORT
  5
257
330
8
100
AcDbSymbolTableRecord
100
AcDbViewportTableRecord
  2
*Active
 70
     0
 10
0.0
 20
0.0
 11
1.0
 21
1.0
 12
210.0
 22
148.5
 13
0.0
 23
0.0
 14
1.0
 24
1.0
 15
10.0
 25
10.0
 16
0.0
 26
0.0
 36
1.0
 17
0.0
 27
0.0
 37
0.0
 40
314.7878787878787
 41
1.334231805929919
 42
50.0
 43
0.0
 44
0.0
 50
0.0
 51
0.0
 71
     0
 72
  1500
 73
     1
 74
     0
 75
     0
 76
     0
 77
     0
 78
     0
281
     0
 65
     1
110
0.0
120
0.0
130
0.0
111
1.0
121
0.0
131
0.0
112
0.0
122
1.0
132
0.0
 79
     0
146
0.0
  0
ENDTAB
  0
TABLE
  2
LTYPE
  5
5
330
0
100
AcDbSymbolTable
 70
     1
  0
LTYPE
  5
13
330
5
100
AcDbSymbolTableRecord
100
AcDbLinetypeTableRecord
  2
ByBlock
 70
     0
  3

 72
    65
 73
     0
 40
0.0
  0
LTYPE
  5
14
330
5
100
AcDbSymbolTableRecord
100
AcDbLinetypeTableRecord
  2
ByLayer
 70
     0
  3

 72
    65
 73
     0
 40
0.0
  0
LTYPE
  5
15
330
5
100
AcDbSymbolTableRecord
100
AcDbLinetypeTableRecord
  2
Continuous
 70
     0
  3
Solid line
 72
    65
 73
     0
 40
0.0
  0
ENDTAB
  0
TABLE
  2
LAYER
  5
2
330
0
100
AcDbSymbolTable
 70
     6
  0
LAYER
  5
10
330
2
100
AcDbSymbolTableRecord
100
AcDbLayerTableRecord
  2
0
 70
     0
 62
     7
  6
Continuous
370
    -3
390
F
  0
LAYER
  5
2B
330
2
100
AcDbSymbolTableRecord
100
AcDbLayerTableRecord
  2
VOLL
 70
     0
 62
     1
  6
Continuous
370
    -3
390
F
  0
LAYER
  5
2C
330
2
100
AcDbSymbolTableRecord
100
AcDbLayerTableRecord
  2
HILF
 70
     0
 62
     2
  6
Continuous
370
    -3
390
F
  0
LAYER
  5
2F
330
2
100
AcDbSymbolTableRecord
100
AcDbLayerTableRecord
  2
BEM
 70
     0
 62
     7
  6
Continuous
370
    -3
390
F
  0
LAYER
  5
30
330
2
100
AcDbSymbolTableRecord
100
AcDbLayerTableRecord
  2
STEMPEL
 70
     0
 62
     3
  6
Continuous
370
    -3
390
F
  0
LAYER
  5
33
330
2
100
AcDbSymbolTableRecord
100
AcDbLayerTableRecord
  2
TEXT
 70
     0
 62
     7
  6
Continuous
370
    -3
390
F
  0
ENDTAB
  0
TABLE
  2
STYLE
  5
3
330
0
100
AcDbSymbolTable
 70
     2
  0
STYLE
  5
11
330
3
100
AcDbSymbolTableRecord
100
AcDbTextStyleTableRecord
  2
STANDARD
 70
     0
 40
0.0
 41
0.8
 50
0.0
 71
     0
 42
3.5
  3
simplex.shx
  4

  0
STYLE
  5
24
330
3
100
AcDbSymbolTableRecord
100
AcDbTextStyleTableRecord
  2
GREEKS
 70
     0
 40
0.0
 41
0.8
 50
0.0
 71
     0
 42
2.5
  3
SIMPLEX.shx
  4

  0
ENDTAB
  0
TABLE
  2
VIEW
  5
6
330
0
100
AcDbSymbolTable
 70
     0
  0
ENDTAB
  0
TABLE
  2
UCS
  5
7
330
0
100
AcDbSymbolTable
 70
     0
  0
ENDTAB
  0
TABLE
  2
APPID
  5
9
330
0
100
AcDbSymbolTable
 70
     1
  0
APPID
  5
12
330
9
100
AcDbSymbolTableRecord
100
AcDbRegAppTableRecord
  2
ACAD
 70
     0
  0
ENDTAB
  0
TABLE
  2
DIMSTYLE
  5
A
330
0
100
AcDbSymbolTable
 70
     1
100
AcDbDimStyleTable
 71
     1
340
A2
  0
DIMSTYLE
105
A2
330
A
100
AcDbSymbolTableRecord
100
AcDbDimStyleTableRecord
  2
Standard
 70
     0
340
11
  0
ENDTAB
  0
TABLE
  2
BLOCK_RECORD
  5
1
330
0
100
AcDbSymbolTable
 70
     2
  0
BLOCK_RECORD
  5
1E
102
{ACAD_XDICTIONARY
360
DB
102
}
330
1
100
AcDbSymbolTableRecord
100
AcDbBlockTableRecord
  2
*Model_Space
340
21
  0
BLOCK_RECORD
  5
1A
102
{ACAD_XDICTIONARY
360
DD
102
}
330
1
100
AcDbSymbolTableRecord
100
AcDbBlockTableRecord
  2
*Paper_Space
340
1D
  0
BLOCK_RECORD
  5
22
330
1
100
AcDbSymbolTableRecord
100
AcDbBlockTableRecord
  2
LOGO
340
0
102
{BLKREFS
331
56
102
}
  0
BLOCK_RECORD
  5
23
330
1
100
AcDbSymbolTableRecord
100
AcDbBlockTableRecord
  2
LORO
340
0
102
{BLKREFS
331
9B
102
}
  0
ENDTAB
  0
ENDSEC
  0
SECTION
  2
BLOCKS
  0
BLOCK
  5
37
330
1E
100
AcDbEntity
  8
0
100
AcDbBlockBegin
  2
*Model_Space
 70
     0
 10
0.0
 20
0.0
 30
0.0
  3
*Model_Space
  1

  0
ENDBLK
  5
38
330
1E
100
AcDbEntity
  8
0
100
AcDbBlockEnd
  0
BLOCK
  5
35
330
1A
100
AcDbEntity
 67
     1
  8
0
100
AcDbBlockBegin
  2
*Paper_Space
 70
     0
 10
0.0
 20
0.0
 30
0.0
  3
*Paper_Space
  1

  0
ENDBLK
  5
36
330
1A
100
AcDbEntity
 67
     1
  8
0
100
AcDbBlockEnd
  0
BLOCK
  5
39
330
22
100
AcDbEntity
  8
0
100
AcDbBlockBegin
  2
LOGO
 70
     0
 10
0.0
 20
0.0
 30
0.0
  3
LOGO
  1

  0
ARC
  5
3A
330
22
100
AcDbEntity
  8
0
100
AcDbCircle
 10
11.59973089678112
 20
-9.271599258481501
 30
0.0
 40
4.5
100
AcDbArc
 50
270.0
 51
231.0575587310159
  0
LINE
  5
3B
330
22
100
AcDbEntity
  8
0
100
AcDbLine
 10
3.599730896781125
 20
-4.771599258481529
 30
0.0
 11
3.599730896781153
 21
-11.77159925848133
 31
0.0
  0
LINE
  5
3C
330
22
100
AcDbEntity
  8
0
100
AcDbLine
 10
2.599730896781125
 20
-4.771599258481529
 30
0.0
 11
2.599730896781153
 21
-11.77159925848133
 31
0.0
  0
CIRCLE
  5
3D
330
22
100
AcDbEntity
  8
0
100
AcDbCircle
 10
11.59973089678112
 20
-9.271599258481501
 30
0.0
 40
3.5
  0
ARC
  5
3E
330
22
100
AcDbEntity
  8
0
100
AcDbCircle
 10
31.59973089678115
 20
-9.271599258481472
 30
0.0
 40
4.5
100
AcDbArc
 50
270.0
 51
231.0575587310182
  0
LINE
  5
3F
330
22
100
AcDbEntity
  8
0
100
AcDbLine
 10
17.59973089678112
 20
-4.771599258481472
 30
0.0
 11
17.59973089678115
 21
-13.77159925848147
 31
0.0
  0
ARC
  5
40
330
22
100
AcDbEntity
  8
0
100
AcDbCircle
 10
22.59973089678116
 20
-7.271599258481472
 30
0.0
 40
2.5
100
AcDbArc
 50
293.1161887722295
 51
90.0
  0
CIRCLE
  5
41
330
22
100
AcDbEntity
  8
0
100
AcDbCircle
 10
31.59973089678115
 20
-9.271599258481472
 30
0.0
 40
3.5
  0
ARC
  5
42
330
22
100
AcDbEntity
  8
0
100
AcDbCircle
 10
4.599730896781153
 20
-11.77159925848133
 30
0.0
 40
1.0
100
AcDbArc
 50
180.0
 51
270.0
  0
ARC
  5
43
330
22
100
AcDbEntity
  8
0
100
AcDbCircle
 10
4.599730896781153
 20
-11.77159925848133
 30
0.0
 40
2.0
100
AcDbArc
 50
179.9999999999992
 51
270.0
  0
LINE
  5
44
330
22
100
AcDbEntity
  8
0
100
AcDbLine
 10
11.59973089678115
 20
-13.77159925848144
 30
0.0
 11
4.599730896781153
 21
-13.77159925848147
 31
0.0
  0
LINE
  5
45
330
22
100
AcDbEntity
  8
0
100
AcDbLine
 10
8.771303772034769
 20
-12.77159925848136
 30
0.0
 11
4.599730896781153
 21
-12.77159925848133
 31
0.0
  0
LINE
  5
46
330
22
100
AcDbEntity
  8
0
100
AcDbLine
 10
31.59973089678115
 20
-13.77159925848147
 30
0.0
 11
23.6715276665056
 21
-13.77159925848144
 31
0.0
  0
LINE
  5
47
330
22
100
AcDbEntity
  8
0
100
AcDbLine
 10
23.56565672307022
 20
-9.51278021337896
 30
0.0
 11
24.4388546544846
 21
-12.77159925848144
 31
0.0
  0
LINE
  5
48
330
22
100
AcDbEntity
  8
0
100
AcDbLine
 10
22.59973089678116
 20
-9.771599258481472
 30
0.0
 11
18.59973089678112
 21
-9.771599258481472
 31
0.0
  0
LINE
  5
49
330
22
100
AcDbEntity
  8
0
100
AcDbLine
 10
18.59973089678115
 20
-13.77159925848144
 30
0.0
 11
17.59973089678115
 21
-13.77159925848144
 31
0.0
  0
LINE
  5
4A
330
22
100
AcDbEntity
  8
0
100
AcDbLine
 10
18.59973089678115
 20
-9.771599258481472
 30
0.0
 11
18.59973089678115
 21
-13.77159925848144
 31
0.0
  0
LINE
  5
4B
330
22
100
AcDbEntity
  8
0
100
AcDbLine
 10
22.59973089678116
 20
-9.771599258481472
 30
0.0
 11
23.67152766650562
 21
-13.77159925848147
 31
0.0
  0
ARC
  5
4C
330
22
100
AcDbEntity
  8
0
100
AcDbCircle
 10
22.59973089678116
 20
-7.271599258481472
 30
0.0
 40
2.5
100
AcDbArc
 50
270.0
 51
270.0000000000007
  0
LINE
  5
4D
330
22
100
AcDbEntity
  8
0
100
AcDbLine
 10
28.77130377203494
 20
-12.77159925848147
 30
0.0
 11
24.43885465448463
 21
-12.77159925848144
 31
0.0
  0
LINE
  5
4E
330
22
100
AcDbEntity
  8
0
100
AcDbLine
 10
3.599730896781125
 20
-4.771599258481472
 30
0.0
 11
2.599730896781125
 21
-4.771599258481472
 31
0.0
  0
LINE
  5
4F
330
22
100
AcDbEntity
  8
0
100
AcDbLine
 10
22.59973089678116
 20
-8.771599258481472
 30
0.0
 11
18.59973089678115
 21
-8.771599258481472
 31
0.0
  0
LINE
  5
50
330
22
100
AcDbEntity
  8
0
100
AcDbLine
 10
22.59973089678116
 20
-5.771599258481472
 30
0.0
 11
18.59973089678115
 21
-5.771599258481472
 31
0.0
  0
LINE
  5
51
330
22
100
AcDbEntity
  8
0
100
AcDbLine
 10
22.59973089678116
 20
-4.771599258481472
 30
0.0
 11
17.59973089678115
 21
-4.771599258481472
 31
0.0
  0
LINE
  5
52
330
22
100
AcDbEntity
  8
0
100
AcDbLine
 10
18.59973089678115
 20
-5.771599258481472
 30
0.0
 11
18.59973089678115
 21
-8.771599258481472
 31
0.0
  0
ARC
  5
53
330
22
100
AcDbEntity
  8
0
100
AcDbCircle
 10
22.59973089678116
 20
-7.271599258481472
 30
0.0
 40
1.5
100
AcDbArc
 50
270.0
 51
90.0
  0
ENDBLK
  5
54
330
22
100
AcDbEntity
  8
0
100
AcDbBlockEnd
  0
BLOCK
  5
55
330
23
100
AcDbEntity
  8
0
100
AcDbBlockBegin
  2
LORO
 70
     0
 10
0.0
 20
0.0
 30
0.0
  3
LORO
  1

  0
INSERT
  5
56
330
23
100
AcDbEntity
  8
STEMPEL
100
AcDbBlockReference
  2
LOGO
 10
-1.748032802467321
 20
3.771489518552062
 30
0.0
  0
ENDBLK
  5
57
330
23
100
AcDbEntity
  8
0
100
AcDbBlockEnd
  0
ENDSEC
  0
SECTION
  2
ENTITIES
  0
LINE
  5
58
330
1E
100
AcDbEntity
  8
STEMPEL
100
AcDbLine
 10
415.0000000000001
 20
55.0
 30
0.0
 11
235.0000000000001
 21
55.0
 31
0.0
  0
LINE
  5
59
330
1E
100
AcDbEntity
  8
STEMPEL
100
AcDbLine
 10
235.0000000000001
 20
55.0
 30
0.0
 11
235.0
 21
5.0
 31
0.0
  0
LINE
  5
5A
330
1E
100
AcDbEntity
  8
STEMPEL
100
AcDbLine
 10
283.0000000000001
 20
54.99999999999994
 30
0.0
 11
283.0
 21
4.999999999999943
 31
0.0
  0
LINE
  5
5B
330
1E
100
AcDbEntity
  8
STEMPEL
100
AcDbLine
 10
325.0
 20
55.0
 30
0.0
 11
325.0
 21
5.0
 31
0.0
  0
LINE
  5
5C
330
1E
100
AcDbEntity
  8
STEMPEL
100
AcDbLine
 10
376.0000000000001
 20
54.99999999999984
 30
0.0
 11
376.0000000000001
 21
20.0
 31
0.0
  0
LINE
  5
5D
330
1E
100
AcDbEntity
  8
STEMPEL
100
AcDbLine
 10
283.0
 20
15.0
 30
0.0
 11
235.0
 21
15.0
 31
0.0
  0
LINE
  5
5E
330
1E
100
AcDbEntity
  8
STEMPEL
100
AcDbLine
 10
415.0000000000001
 20
20.0
 30
0.0
 11
283.0
 21
20.0
 31
0.0
  0
LINE
  5
5F
330
1E
100
AcDbEntity
  8
STEMPEL
100
AcDbLine
 10
415.0000000000001
 20
40.0
 30
0.0
 11
283.0000000000001
 21
40.0
 31
0.0
  0
LINE
  5
60
330
1E
100
AcDbEntity
  8
VOLL
100
AcDbLine
 10
242.0000000000001
 20
55.0
 30
0.0
 11
242.0000000000001
 21
4.999999999999992
 31
0.0
  0
LINE
  5
61
330
1E
100
AcDbEntity
  8
VOLL
100
AcDbLine
 10
262.0000000000001
 20
54.99999999999997
 30
0.0
 11
262.0
 21
4.999999999999971
 31
0.0
  0
LINE
  5
62
330
1E
100
AcDbEntity
  8
VOLL
100
AcDbLine
 10
272.0000000000001
 20
54.99999999999996
 30
0.0
 11
272.0000000000001
 21
4.999999999999957
 31
0.0
  0
LINE
  5
63
330
1E
100
AcDbEntity
  8
VOLL
100
AcDbLine
 10
292.0000000000001
 20
40.0
 30
0.0
 11
292.0000000000001
 21
20.0
 31
0.0
  0
LINE
  5
64
330
1E
100
AcDbEntity
  8
VOLL
100
AcDbLine
 10
305.0000000000001
 20
54.99999999999992
 30
0.0
 11
305.0000000000001
 21
20.0
 31
0.0
  0
LINE
  5
65
330
1E
100
AcDbEntity
  8
HILF
100
AcDbLine
 10
235.0000000000001
 20
50.0
 30
0.0
 11
283.0000000000001
 21
50.0
 31
0.0
  0
LINE
  5
66
330
1E
100
AcDbEntity
  8
HILF
100
AcDbLine
 10
235.0000000000001
 20
45.0
 30
0.0
 11
283.0000000000001
 21
45.0
 31
0.0
  0
LINE
  5
67
330
1E
100
AcDbEntity
  8
HILF
100
AcDbLine
 10
235.0000000000001
 20
40.0
 30
0.0
 11
283.0000000000001
 21
40.0
 31
0.0
  0
LINE
  5
68
330
1E
100
AcDbEntity
  8
HILF
100
AcDbLine
 10
235.0000000000001
 20
35.0
 30
0.0
 11
283.0000000000001
 21
35.0
 31
0.0
  0
LINE
  5
69
330
1E
100
AcDbEntity
  8
HILF
100
AcDbLine
 10
235.0000000000001
 20
30.0
 30
0.0
 11
283.0000000000001
 21
30.0
 31
0.0
  0
LINE
  5
6A
330
1E
100
AcDbEntity
  8
HILF
100
AcDbLine
 10
235.0000000000001
 20
25.0
 30
0.0
 11
283.0000000000001
 21
25.0
 31
0.0
  0
LINE
  5
6B
330
1E
100
AcDbEntity
  8
HILF
100
AcDbLine
 10
235.0000000000001
 20
20.0
 30
0.0
 11
283.0000000000001
 21
20.0
 31
0.0
  0
LINE
  5
6C
330
1E
100
AcDbEntity
  8
HILF
100
AcDbLine
 10
283.0000000000001
 20
35.0
 30
0.0
 11
325.0
 21
35.0
 31
0.0
  0
LINE
  5
6D
330
1E
100
AcDbEntity
  8
HILF
100
AcDbLine
 10
283.0000000000001
 20
30.0
 30
0.0
 11
325.0
 21
30.0
 31
0.0
  0
LINE
  5
6E
330
1E
100
AcDbEntity
  8
HILF
100
AcDbLine
 10
283.0000000000001
 20
25.0
 30
0.0
 11
325.0
 21
25.0
 31
0.0
  0
LINE
  5
6F
330
1E
100
AcDbEntity
  8
HILF
100
AcDbLine
 10
327.3868400548474
 20
42.01879123782068
 30
0.0
 11
373.3148921257406
 21
42.01879123782068
 31
0.0
  0
LINE
  5
70
330
1E
100
AcDbEntity
  8
HILF
100
AcDbLine
 10
327.3868400548474
 20
35.0
 30
0.0
 11
373.3148921257406
 21
35.0
 31
0.0
  0
LINE
  5
71
330
1E
100
AcDbEntity
  8
HILF
100
AcDbLine
 10
327.3868400548474
 20
30.0
 30
0.0
 11
373.3148921257406
 21
30.0
 31
0.0
  0
LINE
  5
72
330
1E
100
AcDbEntity
  8
HILF
100
AcDbLine
 10
327.3868400548474
 20
25.0
 30
0.0
 11
373.3148921257406
 21
25.0
 31
0.0
  0
LINE
  5
73
330
1E
100
AcDbEntity
  8
VOLL
100
AcDbLine
 10
376.0000000000001
 20
30.0
 30
0.0
 11
415.0000000000001
 21
30.0
 31
0.0
  0
LINE
  5
74
330
1E
100
AcDbEntity
  8
HILF
100
AcDbLine
 10
378.3619308148498
 20
41.88991818477911
 30
0.0
 11
412.4294419663365
 21
41.88991818477911
 31
0.0
  0
LINE
  5
75
330
1E
100
AcDbEntity
  8
HILF
100
AcDbLine
 10
327.3868400548474
 20
7.446991290141525
 30
0.0
 11
412.4294419663365
 21
7.446991290141525
 31
0.0
  0
TEXT
  5
76
330
1E
100
AcDbEntity
  8
TEXT
100
AcDbText
 10
246.1999119631649
 20
9.336909474920645
 30
0.0
 40
2.0
  1
Änderung
 41
0.8
  7
GREEKS
 72
     1
 11
251.5713405345934
 21
9.336909474920645
 31
0.0
100
AcDbText
  0
TEXT
  5
78
330
1E
100
AcDbEntity
  8
TEXT
100
AcDbText
 10
286.7581786075189
 20
51.2310447543544
 30
0.0
 40
2.5
  1
Maßstab
 41
0.8
  7
GREEKS
100
AcDbText
  0
TEXT
  5
79
330
1E
100
AcDbEntity
  8
TEXT
100
AcDbText
 10
327.4389701904506
 20
51.27446640058896
 30
0.0
 40
2.5
  1
Benennung
 41
0.8
  7
GREEKS
100
AcDbText
  0
TEXT
  5
7A
330
1E
100
AcDbEntity
  8
TEXT
100
AcDbText
 10
378.0893774788172
 20
51.15660172685679
 30
0.0
 40
2.5
  1
Zeichnungs Nr.
 41
0.8
  7
GREEKS
100
AcDbText
  0
TEXT
  5
7B
330
1E
100
AcDbEntity
  8
TEXT
100
AcDbText
 10
327.371119195568
 20
15.42280285096527
 30
0.0
 40
2.5
  1
Bauvorhaben
 41
0.8
  7
GREEKS
100
AcDbText
  0
TEXT
  5
7C
330
1E
100
AcDbEntity
  8
TEXT
100
AcDbText
 10
378.3619308148498
 20
36.59059118549983
 30
0.0
 40
2.5
  1
Ersatz für:
 41
0.8
  7
GREEKS
100
AcDbText
  0
TEXT
  5
7D
330
1E
100
AcDbEntity
  8
TEXT
100
AcDbText
 10
239.1332055352289
 20
6.827329230135937
 30
0.0
 40
2.0
  1
Index
 50
90.0
 41
0.8
  7
GREEKS
100
AcDbText
  0
TEXT
  5
7E
330
1E
100
AcDbEntity
  8
TEXT
100
AcDbText
 10
264.949505659349
 20
9.33578134669904
 30
0.0
 40
2.0
  1
Tag
 41
0.8
  7
GREEKS
 72
     1
 11
266.8161723260157
 21
9.33578134669904
 31
0.0
100
AcDbText
  0
TEXT
  5
7F
330
1E
100
AcDbEntity
  8
TEXT
100
AcDbText
 10
274.4897839069147
 20
9.296621084832022
 30
0.0
 40
2.0
  1
Name
 41
0.8
  7
GREEKS
 72
     1
 11
277.6516886688194
 21
9.296621084832022
 31
0.0
100
AcDbText
  0
TEXT
  5
80
330
1E
100
AcDbEntity
  8
TEXT
100
AcDbText
 10
296.1655836576826
 20
36.6594025061496
 30
0.0
 40
2.0
  1
Tag
 41
0.8
  7
GREEKS
100
AcDbText
  0
TEXT
  5
81
330
1E
100
AcDbEntity
  8
TEXT
100
AcDbText
 10
311.2313292113148
 20
36.6548054595761
 30
0.0
 40
2.0
  1
Name
 41
0.8
  7
GREEKS
100
AcDbText
  0
TEXT
  5
82
330
1E
100
AcDbEntity
  8
TEXT
100
AcDbText
 10
283.7918063583808
 20
31.8149518480898
 30
0.0
 40
2.0
  1
Gez.
 41
0.8
  7
GREEKS
100
AcDbText
  0
TEXT
  5
83
330
1E
100
AcDbEntity
  8
TEXT
100
AcDbText
 10
283.7757543285837
 20
26.84463145714186
 30
0.0
 40
2.0
  1
Gepr.
 41
0.8
  7
GREEKS
100
AcDbText
  0
TEXT
  5
84
330
1E
100
AcDbEntity
  8
TEXT
100
AcDbText
 10
283.8003388693652
 20
21.76473194824902
 30
0.0
 40
2.0
  1
Norm.
 41
0.8
  7
GREEKS
100
AcDbText
  0
TEXT
  5
85
330
1E
100
AcDbEntity
  8
TEXT
100
AcDbText
 10
378.6200430748504
 20
26.03708088939298
 30
0.0
 40
2.5
  1
ersetzt durch:
 41
0.8
  7
GREEKS
100
AcDbText
  0
TEXT
  5
86
330
1E
100
AcDbEntity
  8
TEXT
100
AcDbText
 10
284.4346513903662
 20
36.48341298261862
 30
0.0
 40
2.0
  1
2011
 41
0.8
  7
GREEKS
100
AcDbText
  0
LINE
  5
87
330
1E
100
AcDbEntity
  8
HILF
100
AcDbLine
 10
0.0
 20
0.0
 30
0.0
 11
420.0
 21
0.0
 31
0.0
  0
LINE
  5
88
330
1E
100
AcDbEntity
  8
HILF
100
AcDbLine
 10
420.0
 20
0.0
 30
0.0
 11
420.0
 21
297.0
 31
0.0
  0
LINE
  5
89
330
1E
100
AcDbEntity
  8
HILF
100
AcDbLine
 10
420.0
 20
297.0
 30
0.0
 11
0.0
 21
297.0
 31
0.0
  0
LINE
  5
8B
330
1E
100
AcDbEntity
  8
STEMPEL
100
AcDbLine
 10
415.0
 20
292.0
 30
0.0
 11
20.0
 21
292.0
 31
0.0
  0
LINE
  5
8D
330
1E
100
AcDbEntity
  8
STEMPEL
100
AcDbLine
 10
20.0
 20
5.0
 30
0.0
 11
415.0
 21
5.0
 31
0.0
  0
LINE
  5
8E
330
1E
100
AcDbEntity
  8
STEMPEL
100
AcDbLine
 10
415.0
 20
5.0
 30
0.0
 11
415.0
 21
292.0
 31
0.0
  0
TEXT
  5
8F
330
1E
100
AcDbEntity
  8
TEXT
 62
     1
100
AcDbText
 10
340.2330703199851
 20
43.68671537826272
 30
0.0
 40
3.5
  1
Heizbandkabel
 41
0.8
  7
GREEKS
100
AcDbText
  0
TEXT
  5
90
330
1E
100
AcDbEntity
  8
TEXT
 62
     1
100
AcDbText
 10
383.3314044425401
 20
43.68671537826272
 30
0.0
 40
3.5
  1
19853000W
 41
0.8
  7
GREEKS
 72
     1
 11
395.0647377758735
 21
43.68671537826272
 31
0.0
100
AcDbText
  0
TEXT
  5
91
330
1E
100
AcDbEntity
  8
TEXT
100
AcDbText
 10
309.2545113207915
 20
51.41994805689501
 30
0.0
 40
2.5
  1
Zul.Abw.
 41
0.8
  7
GREEKS
100
AcDbText
  0
TEXT
  5
93
330
1E
100
AcDbEntity
  8
TEXT
100
AcDbText
 10
295.3830237803554
 20
31.5754293806011
 30
0.0
 40
2.0
  1
11.05.
 41
0.8
  7
GREEKS
 72
     1
 11
298.5830237803554
 21
31.5754293806011
 31
0.0
100
AcDbText
  0
TEXT
  5
94
330
1E
100
AcDbEntity
  8
TEXT
100
AcDbText
 10
312.0115876613305
 20
31.47148827582734
 30
0.0
 40
2.0
  1
Koeh
 41
0.8
  7
GREEKS
 72
     1
 11
314.6401590899019
 21
31.47148827582734
 31
0.0
100
AcDbText
  0
TEXT
  5
95
330
1E
100
AcDbEntity
  8
TEXT
100
AcDbText
 10
327.1705470442496
 20
36.05010691553763
 30
0.0
 40
2.5
  1
Fa Eltherm
 41
0.8
  7
GREEKS
100
AcDbText
  0
TEXT
  5
96
330
1E
100
AcDbEntity
  8
TEXT
100
AcDbText
 10
327.1705470442496
 20
31.17279542604518
 30
0.0
 40
2.5
  1

 41
0.8
  7
GREEKS
100
AcDbText
  0
TEXT
  5
97
330
1E
100
AcDbEntity
  8
TEXT
100
AcDbText
 10
327.1705470442496
 20
26.29548668923029
 30
0.0
 40
2.5
  1
EDV-Art.Nr. 19853.000X
 41
0.8
  7
GREEKS
100
AcDbText
  0
TEXT
  5
98
330
1E
100
AcDbEntity
  8
TEXT
100
AcDbText
 10
327.0838025054674
 20
21.65563812395754
 30
0.0
 40
2.0
  1
19853000W.DWG
 41
0.8
  7
GREEKS
100
AcDbText
  0
TEXT
  5
99
330
1E
100
AcDbEntity
  8
TEXT
 62
     1
100
AcDbText
 10
291.3517456017111
 20
43.73538544207488
 30
0.0
 40
3.5
  1
1:1
 41
0.8
  7
GREEKS
100
AcDbText
  0
TEXT
  5
9A
330
1E
100
AcDbEntity
  8
TEXT
100
AcDbText
 10
235.0220569675064
 20
57.05717925255214
 30
0.0
 40
2.5
  1
Erstellt mit AUTOCAD 2004
 41
0.8
  7
GREEKS
100
AcDbText
  0
INSERT
  5
9B
330
1E
100
AcDbEntity
  8
HILF
100
AcDbBlockReference
  2
LORO
 10
286.5312492981177
 20
18.4902965014948
 30
0.0
  0
LINE
  5
9C
330
1E
100
AcDbEntity
  8
BEM
100
AcDbLine
 10
228.0
 20
0.0
 30
0.0
 11
228.0
 21
5.0
 31
0.0
  0
LINE
  5
13E
330
1E
100
AcDbEntity
  8
HILF
100
AcDbLine
 10
0.0
 20
0.0
 30
0.0
 11
0.0
 21
297.0
 31
0.0
  0
LINE
  5
13F
330
1E
100
AcDbEntity
  8
STEMPEL
100
AcDbLine
 10
20.0
 20
5.0
 30
0.0
 11
20.0
 21
292.0
 31
0.0
  0
LINE
  5
14A
330
1E
100
AcDbEntity
  8
HILF
100
AcDbLine
 10
0.0
 20
148.5
 30
0.0
 11
20.0
 21
148.5
 31
0.0
  0
TEXT
  5
15B
330
1E
100
AcDbEntity
  8
BEM
100
AcDbText
 10
418.6511461928582
 20
5.083950539994304
 30
0.0
 40
2.0
  1
Diese Zeichnung ist urheberrechtlich geschützt und bleibt unser Eigentum. Sie darf weder ganz noch teilweise verfielfältigt und nicht an Dritte weitergegeben werden.
 50
90.0
 41
0.8
  7
GREEKS
100
AcDbText
  0
LINE
  5
188
330
1E
100
AcDbEntity
  8
BEM
100
AcDbLine
 10
228.0
 20
297.0
 30
0.0
 11
228.0
 21
292.0
 31
0.0
  0
ARC
  5
1CA
330
1E
100
AcDbEntity
  8
STEMPEL
100
AcDbCircle
 10
83.74176505218844
 20
111.0364352103332
 30
0.0
 40
40.0
100
AcDbArc
 50
149.9999999999999
 51
330.0
  0
ARC
  5
1CB
330
1E
100
AcDbEntity
  8
STEMPEL
100
AcDbCircle
 10
83.74176505218844
 20
111.0364352103332
 30
0.0
 40
45.49999999999999
100
AcDbArc
 50
149.9999999999999
 51
330.0
  0
ARC
  5
1CE
330
1E
100
AcDbEntity
  8
STEMPEL
100
AcDbCircle
 10
101.0622731278772
 20
101.0364352103332
 30
0.0
 40
60.0
100
AcDbArc
 50
240.0
 51
149.9999999999999
  0
ARC
  5
1CF
330
1E
100
AcDbEntity
  8
STEMPEL
100
AcDbCircle
 10
101.0622731278772
 20
101.0364352103332
 30
0.0
 40
65.5
100
AcDbArc
 50
240.0
 51
149.9999999999999
  0
ARC
  5
1D2
330
1E
100
AcDbEntity
  8
STEMPEL
100
AcDbCircle
 10
108.5622731278772
 20
114.0268162670997
 30
0.0
 40
75.0
100
AcDbArc
 50
39.99999999999999
 51
240.0
  0
ARC
  5
1D3
330
1E
100
AcDbEntity
  8
STEMPEL
100
AcDbCircle
 10
108.5622731278772
 20
114.0268162670997
 30
0.0
 40
80.5
100
AcDbArc
 50
40.0
 51
240.0
  0
LINE
  5
1D9
330
1E
100
AcDbEntity
  8
STEMPEL
100
AcDbLine
 10
123.1459209243804
 20
88.28643521033319
 30
0.0
 11
135.4784745669492
 21
109.6470447063309
 31
0.0
  0
LINE
  5
1DA
330
1E
100
AcDbEntity
  8
STEMPEL
100
AcDbLine
 10
118.382781203566
 20
91.03643521033321
 30
0.0
 11
130.7153348461348
 21
112.3970447063309
 31
0.0
  0
ARC
  5
1DB
330
1E
100
AcDbEntity
  8
STEMPEL
100
AcDbCircle
 10
133.096904706542
 20
111.0220447063309
 30
0.0
 40
2.75
100
AcDbArc
 50
330.0
 51
149.9999999999999
  0
ARC
  5
1DF
330
1E
100
AcDbEntity
  8
STEMPEL
100
AcDbCircle
 10
129.3469047065419
 20
104.5268541779476
 30
0.0
 40
2.75
100
AcDbArc
 50
149.9999999999999
 51
330.0
  0
LINE
  5
1E2
330
1E
100
AcDbEntity
  8
STEMPEL
100
AcDbLine
 10
170.228850798955
 20
165.7712188468662
 30
0.0
 11
216.5645612524709
 21
113.2729861454891
 31
0.0
  0
LINE
  5
1E3
330
1E
100
AcDbEntity
  8
STEMPEL
100
AcDbLine
 10
166.0156063618006
 20
162.2358869935902
 30
0.0
 11
209.6701612644
 21
107.4878976583102
 31
0.0
  0
ARC
  5
1E4
330
1E
100
AcDbEntity
  8
STEMPEL
100
AcDbCircle
 10
297.1561839626705
 20
183.0596781247437
 30
0.0
 40
106.6076546429501
100
AcDbArc
 50
220.8902661148972
 51
327.7235171924364
  0
ARC
  5
1E6
330
1E
100
AcDbEntity
  8
STEMPEL
100
AcDbCircle
 10
297.1561839626705
 20
183.0596781247437
 30
0.0
 40
115.6076546429501
100
AcDbArc
 50
220.8902661148972
 51
327.7235171924364
  0
LINE
  5
1E7
330
1E
100
AcDbEntity
  8
STEMPEL
100
AcDbLine
 10
387.2909398248598
 20
126.1306186372196
 30
0.0
 11
394.9002696190159
 21
121.3245703557551
 31
0.0
  0
ARC
  5
1E8
330
1E
100
AcDbEntity
  8
STEMPEL
100
AcDbCircle
 10
371.5347380566033
 20
132.400566111359
 30
0.0
 40
16.9578930144779
100
AcDbArc
 50
338.3006490186226
 51
84.93353207956729
  0
ARC
  5
1E9
330
1E
100
AcDbEntity
  8
STEMPEL
100
AcDbCircle
 10
371.5347380566033
 20
132.400566111359
 30
0.0
 40
19.95789301447791
100
AcDbArc
 50
336.6964050950165
 51
84.93353207956729
  0
LINE
  5
1EA
330
1E
100
AcDbEntity
  8
STEMPEL
100
AcDbLine
 10
373.0323125400328
 20
149.2922032776333
 30
0.0
 11
373.2972466003228
 21
152.2804820370027
 31
0.0
  0
ARC
  5
1EB
330
1E
100
AcDbEntity
  8
STEMPEL
100
AcDbCircle
 10
365.9363432885569
 20
135.9240730933943
 30
0.0
 40
26.51316850983498
100
AcDbArc
 50
334.4887496990955
 51
49.54614428914821
  0
ARC
  5
1EC
330
1E
100
AcDbEntity
  8
STEMPEL
100
AcDbCircle
 10
365.9363432885569
 20
135.9240730933943
 30
0.0
 40
29.51316850983498
100
AcDbArc
 50
333.7983299020314
 51
49.54614428914821
  0
LINE
  5
1ED
330
1E
100
AcDbEntity
  8
STEMPEL
100
AcDbLine
 10
385.0855326631324
 20
158.3814919519043
 30
0.0
 11
383.1390263737592
 21
156.0987056576073
 31
0.0
  0
ARC
  5
1F0
330
1E
100
AcDbEntity
  8
STEMPEL
100
AcDbCircle
 10
368.2167575048825
 20
142.6019010169428
 30
0.0
 40
31.21033763201164
100
AcDbArc
 50
320.8402876164717
 51
35.92068972030155
  0
ARC
  5
1F1
330
1E
100
AcDbEntity
  8
STEMPEL
100
AcDbCircle
 10
368.3739600716612
 20
142.9278595195409
 30
0.0
 40
34.21033763201164
100
AcDbArc
 50
320.8402876164717
 51
35.92068972030155
  0
LINE
  5
1F2
330
1E
100
AcDbEntity
  8
STEMPEL
100
AcDbLine
 10
396.0785125410047
 20
162.997861347384
 30
0.0
 11
393.4918204350681
 21
160.9119083620893
 31
0.0
  0
LINE
  5
1F4
330
1E
100
AcDbEntity
  8
STEMPEL
100
AcDbLine
 10
389.2862304613202
 20
170.3668823924255
 30
0.0
 11
395.5635926202163
 21
162.5826210706263
 31
0.0
  0
LINE
  5
1F5
330
1E
100
AcDbEntity
  8
STEMPEL
100
AcDbLine
 10
387.7293781969603
 20
169.1114099606462
 30
0.0
 11
394.0067403558565
 21
161.327148638847
 31
0.0
  0
LINE
  5
1F6
330
1E
100
AcDbEntity
  8
STEMPEL
100
AcDbLine
 10
389.2862304613202
 20
170.3668823924255
 30
0.0
 11
387.7293781969603
 21
169.1114099606461
 31
0.0
  0
LINE
  5
1F8
330
1E
100
AcDbEntity
  8
STEMPEL
100
AcDbLine
 10
377.1518273005802
 20
164.4893818674323
 30
0.0
 11
384.7611149482369
 21
158.0010275695214
 31
0.0
  0
LINE
  5
1F9
330
1E
100
AcDbEntity
  8
STEMPEL
100
AcDbLine
 10
375.854156440998
 20
162.967524337901
 30
0.0
 11
383.4634440886548
 21
156.4791700399901
 31
0.0
  0
LINE
  5
1FA
330
1E
100
AcDbEntity
  8
STEMPEL
100
AcDbLine
 10
377.1518273005802
 20
164.4893818674323
 30
0.0
 11
375.8541564409979
 21
162.967524337901
 31
0.0
  0
LINE
  5
1FC
330
1E
100
AcDbEntity
  8
STEMPEL
100
AcDbLine
 10
363.1155390188499
 20
150.6733632718282
 30
0.0
 11
363.2921617257098
 21
152.6655491114078
 31
0.0
  0
LINE
  5
1FD
330
1E
100
AcDbEntity
  8
STEMPEL
100
AcDbLine
 10
363.2921617257098
 20
152.6655491114078
 30
0.0
 11
373.2530909236078
 21
151.7824355771078
 31
0.0
  0
LINE
  5
1FE
330
1E
100
AcDbEntity
  8
STEMPEL
100
AcDbLine
 10
363.1155390188498
 20
150.6733632718282
 30
0.0
 11
373.0764682167477
 21
149.7902497375283
 31
0.0
  0
LINE
  5
1FF
330
1E
100
AcDbEntity
  8
HILF
100
AcDbLine
 10
363.2480060489949
 20
152.1675026515129
 30
0.0
 11
373.2089352468928
 21
151.2843891172129
 31
0.0
  0
LINE
  5
200
330
1E
100
AcDbEntity
  8
HILF
100
AcDbLine
 10
363.2038503722799
 20
151.669456191618
 30
0.0
 11
373.1647795701778
 21
150.786342657318
 31
0.0
  0
LINE
  5
201
330
1E
100
AcDbEntity
  8
HILF
100
AcDbLine
 10
363.1596946955649
 20
151.171409731723
 30
0.0
 11
373.1206238934628
 21
150.2882961974231
 31
0.0
  0
LINE
  5
202
330
1E
100
AcDbEntity
  8
HILF
100
AcDbLine
 10
388.8970173952302
 20
170.0530142844806
 30
0.0
 11
395.1743795541263
 21
162.2687529626815
 31
0.0
  0
LINE
  5
203
330
1E
100
AcDbEntity
  8
HILF
100
AcDbLine
 10
388.5078043291403
 20
169.7391461765358
 30
0.0
 11
394.7851664880364
 21
161.9548848547367
 31
0.0
  0
LINE
  5
204
330
1E
100
AcDbEntity
  8
HILF
100
AcDbLine
 10
388.1185912630503
 20
169.425278068591
 30
0.0
 11
394.3959534219465
 21
161.6410167467918
 31
0.0
  0
LINE
  5
205
330
1E
100
AcDbEntity
  8
HILF
100
AcDbLine
 10
376.8274095856846
 20
164.1089174850495
 30
0.0
 11
384.4366972333413
 21
157.6205631871386
 31
0.0
  0
LINE
  5
206
330
1E
100
AcDbEntity
  8
HILF
100
AcDbLine
 10
376.5029918707891
 20
163.7284531026666
 30
0.0
 11
384.1122795184458
 21
157.2400988047558
 31
0.0
  0
LINE
  5
207
330
1E
100
AcDbEntity
  8
HILF
100
AcDbLine
 10
376.1785741558935
 20
163.3479887202838
 30
0.0
 11
383.7878618035502
 21
156.859634422373
 31
0.0
  0
TEXT
  5
209
330
1E
100
AcDbEntity
  8
TEXT
 62
     1
100
AcDbText
 10
237.9854050455111
 20
138.7440757018534
 30
0.0
 40
3.5
  1
Fa.Eltherm ELSR-N-40-2-A0
 41
0.8
  7
GREEKS
100
AcDbText
  0
LINE
  5
20B
330
1E
100
AcDbEntity
  8
STEMPEL
100
AcDbLine
 10
216.5645612524709
 20
113.2729861454891
 30
0.0
 11
209.6701612644
 21
107.4878976583102
 31
0.0
  0
LINE
  5
20C
330
1E
100
AcDbEntity
  8
STEMPEL
100
AcDbLine
 10
170.228850798955
 20
165.7712188468662
 30
0.0
 11
166.0156063618006
 21
162.2358869935902
 31
0.0
  0
ARC
  5
20D
330
1E
100
AcDbEntity
  8
STEMPEL
100
AcDbCircle
 10
247.5672978778164
 20
245.3986363024637
 30
0.0
 40
32.44879546918145
100
AcDbArc
 50
0.0
 51
270.0
  0
LINE
  5
20F
330
1E
100
AcDbEntity
  8
STEMPEL
100
AcDbLine
 10
280.0160933469978
 20
245.3986363024637
 30
0.0
 11
284.0160933469978
 21
245.3986363024637
 31
0.0
  0
LINE
  5
212
330
1E
100
AcDbEntity
  8
STEMPEL
100
AcDbLine
 10
284.0160933469978
 20
245.3986363024637
 30
0.0
 11
284.0160933469978
 21
250.3986363024637
 31
0.0
  0
ARC
  5
213
330
1E
100
AcDbEntity
  8
STEMPEL
100
AcDbCircle
 10
247.5672978778164
 20
245.3986363024637
 30
0.0
 40
33.94879546918145
100
AcDbArc
 50
8.469367840305872
 51
270.0
  0
LINE
  5
214
330
1E
100
AcDbEntity
  8
STEMPEL
100
AcDbLine
 10
281.1458730978628
 20
250.3986363024637
 30
0.0
 11
284.0160933469978
 21
250.3986363024637
 31
0.0
  0
LINE
  5
215
330
1E
100
AcDbEntity
  8
STEMPEL
100
AcDbLine
 10
283.5160933469978
 20
250.3986363024637
 30
0.0
 11
283.5160933469977
 21
260.3203805187878
 31
0.0
  0
LINE
  5
216
330
1E
100
AcDbEntity
  8
STEMPEL
100
AcDbLine
 10
283.5160933469976
 20
260.3203805187878
 30
0.0
 11
282.0160933469977
 21
262.9184567301412
 31
0.0
  0
LINE
  5
218
330
1E
100
AcDbEntity
  8
STEMPEL
100
AcDbLine
 10
282.0160933469978
 20
250.3986363024637
 30
0.0
 11
282.0160933469977
 21
262.9184567301412
 31
0.0
  0
ARC
  5
21B
330
1E
100
AcDbEntity
  8
STEMPEL
100
AcDbCircle
 10
248.6489109350944
 20
246.3119929778924
 30
0.0
 40
33.37968068340062
100
AcDbArc
 50
268.1431004749718
 51
358.4320396705923
  0
ARC
  5
21C
330
1E
100
AcDbEntity
  8
STEMPEL
100
AcDbCircle
 10
248.6489109350944
 20
246.3119929778924
 30
0.0
 40
34.87968068340062
100
AcDbArc
 50
268.1431004749718
 51
358.4320396705923
  0
TEXT
  5
22F
330
1E
100
AcDbEntity
  8
TEXT
 62
     1
100
AcDbText
 10
345.055448115307
 20
48.68671537826273
 30
0.0
 40
3.5
  1
vorkonfektioniertes
 41
0.6
  7
GREEKS
100
AcDbText
  0
TEXT
  5
239
330
1E
100
AcDbEntity
  8
TEXT
 62
     1
100
AcDbText
 10
294.9610864634838
 20
236.1172478222825
 30
0.0
 40
3.5
  1
Kabelbinder 750mm lang
 41
0.8
  7
GREEKS
100
AcDbText
  0
ENDSEC
  0
SECTION
  2
OBJECTS
  0
DICTIONARY
  5
C
330
0
100
AcDbDictionary
281
     1
  3
ACAD_COLOR
350
11A
  3
ACAD_GROUP
350
D
  3
ACAD_LAYOUT
350
19
  3
ACAD_MATERIAL
350
119
  3
ACAD_MLINESTYLE
350
16
  3
ACAD_PLOTSETTINGS
350
18
  3
ACAD_PLOTSTYLENAME
350
E
  3
AcDbVariableDictionary
350
125
  0
DICTIONARY
  5
DB
330
1E
100
AcDbDictionary
280
     1
281
     1
  3
ACAD_LAYOUTSELFREF
360
10F
  0
DICTIONARY
  5
DD
330
1A
100
AcDbDictionary
280
     1
281
     1
  3
ACAD_LAYOUTSELFREF
360
10E
  0
DICTIONARY
  5
11A
102
{ACAD_REACTORS
330
C
102
}
330
C
100
AcDbDictionary
281
     1
  0
DICTIONARY
  5
D
102
{ACAD_REACTORS
330
C
102
}
330
C
100
AcDbDictionary
281
     1
  0
DICTIONARY
  5
19
102
{ACAD_REACTORS
330
C
102
}
330
C
100
AcDbDictionary
281
     1
  3
Layout1
350
1D
  3
Model
350
21
  0
DICTIONARY
  5
119
102
{ACAD_REACTORS
330
C
102
}
330
C
100
AcDbDictionary
281
     1
  0
DICTIONARY
  5
16
102
{ACAD_REACTORS
330
C
102
}
330
C
100
AcDbDictionary
281
     1
  3
Standard
350
17
  0
DICTIONARY
  5
18
102
{ACAD_REACTORS
330
C
102
}
330
C
100
AcDbDictionary
281
     1
  0
ACDBDICTIONARYWDFLT
  5
E
102
{ACAD_REACTORS
330
C
102
}
330
C
100
AcDbDictionary
281
     1
  3
Normal
350
F
100
AcDbDictionaryWithDefault
340
F
  0
DICTIONARY
  5
125
102
{ACAD_REACTORS
330
C
102
}
330
C
100
AcDbDictionary
281
     1
  3
DIMASSOC
350
126
  3
PROJECTNAME
350
127
  0
XRECORD
  5
10F
102
{ACAD_REACTORS
330
DB
102
}
330
DB
100
AcDbXrecord
280
     1
340
1E
  0
XRECORD
  5
10E
102
{ACAD_REACTORS
330
DD
102
}
330
DD
100
AcDbXrecord
280
     1
340
1A
  0
LAYOUT
  5
1D
102
{ACAD_REACTORS
330
19
102
}
330
19
100
AcDbPlotSettings
  1

  2
\\NT_WORK01\HP LaserJet 5000 PCL 6
  4

  6

 40
0.0
 41
0.0
 42
0.0
 43
0.0
 44
0.0
 45
0.0
 46
0.0
 47
0.0
 48
0.0
 49
0.0
140
0.0
141
0.0
142
1.0
143
1.0
 70
   688
 72
     0
 73
     0
 74
     5
  7

 75
    16
147
1.0
 76
     0
 77
     2
 78
   300
148
0.0
149
0.0
100
AcDbLayout
  1
Layout1
 70
     0
 71
     1
 10
0.0
 20
0.0
 11
12.0
 21
9.0
 12
0.0
 22
0.0
 32
0.0
 14
1.000000000000000E+20
 24
1.000000000000000E+20
 34
1.000000000000000E+20
 15
-1.000000000000000E+20
 25
-1.000000000000000E+20
 35
-1.000000000000000E+20
146
0.0
 13
0.0
 23
0.0
 33
0.0
 16
1.0
 26
0.0
 36
0.0
 17
0.0
 27
1.0
 37
0.0
 76
     0
330
1A
  0
LAYOUT
  5
21
102
{ACAD_REACTORS
330
19
102
}
330
19
100
AcDbPlotSettings
  1

  2
none_device
  4
Letter_(8.50_x_11.00_Inches)
  6

 40
6.349999904632568
 41
6.349999904632568
 42
6.350006103515625
 43
6.350006103515625
 44
215.8999938964844
 45
279.3999938964844
 46
0.0
 47
0.0
 48
0.0
 49
0.0
140
0.0
141
0.0
142
1.0
143
1.0
 70
 11952
 72
     0
 73
     1
 74
     0
  7

 75
     0
147
1.0
 76
     0
 77
     2
 78
   300
148
-1560.795685468684
149
1.304314531315605
100
AcDbLayout
  1
Model
 70
     1
 71
     0
 10
0.0
 20
0.0
 11
12.0
 21
9.0
 12
0.0
 22
0.0
 32
0.0
 14
0.0
 24
0.0
 34
0.0
 15
0.0
 25
0.0
 35
0.0
146
0.0
 13
0.0
 23
0.0
 33
0.0
 16
1.0
 26
0.0
 36
0.0
 17
0.0
 27
1.0
 37
0.0
 76
     0
330
1E
  0
MLINESTYLE
  5
17
102
{ACAD_REACTORS
330
16
102
}
330
16
100
AcDbMlineStyle
  2
STANDARD
 70
     0
  3

 62
   256
 51
90.0
 52
90.0
 71
     2
 49
0.5
 62
   256
  6
BYLAYER
 49
-0.5
 62
   256
  6
BYLAYER
  0
ACDBPLACEHOLDER
  5
F
102
{ACAD_REACTORS
330
E
102
}
330
E
  0
DICTIONARYVAR
  5
126
102
{ACAD_REACTORS
330
125
102
}
330
125
100
DictionaryVariables
280
     0
  1
1
  0
DICTIONARYVAR
  5
127
102
{ACAD_REACTORS
330
125
102
}
330
125
100
DictionaryVariables
280
     0
  1

  0
ENDSEC
  0
EOF
