  0
SECTION
  2
HEADER
  9
$ACADVER
  1
AC1009
  9
$INSBASE
 10
0.0
 20
0.0
 30
0.0
  9
$EXTMIN
 10
796.2308114424695304
 20
-144.1808493649407126
 30
-0.0108587802075135
  9
$EXTMAX
 10
891.3176965563275189
 20
153.8487714060802034
 30
0.0017295286984336
  9
$LIMMIN
 10
0.0
 20
0.0
  9
$LIMMAX
 10
419.9999999999998863
 20
594.0
  9
$ORTHOMODE
 70
     1
  9
$REGENMODE
 70
     1
  9
$FILLMODE
 70
     1
  9
$QTEXTMODE
 70
     0
  9
$MIRRTEXT
 70
     1
  9
$DRAGMODE
 70
     2
  9
$LTSCALE
 40
20.0
  9
$OSMODE
 70
  2495
  9
$ATTMODE
 70
     1
  9
$TEXTSIZE
 40
3.5
  9
$TRACEWID
 40
0.5
  9
$TEXTSTYLE
  7
STANDARD
  9
$CLAYER
  8
STEMPEL
  9
$CELTYPE
  6
BYLAYER
  9
$CECOLOR
 62
   256
  9
$DIMSCALE
 40
1.0
  9
$DIMASZ
 40
3.5
  9
$DIMEXO
 40
1.0
  9
$DIMDLI
 40
7.0
  9
$DIMRND
 40
0.0
  9
$DIMDLE
 40
0.0
  9
$DIMEXE
 40
1.0
  9
$DIMTP
 40
0.0
  9
$DIMTM
 40
0.0
  9
$DIMTXT
 40
3.5
  9
$DIMCEN
 40
1.5
  9
$DIMTSZ
 40
0.0
  9
$DIMTOL
 70
     0
  9
$DIMLIM
 70
     0
  9
$DIMTIH
 70
     0
  9
$DIMTOH
 70
     0
  9
$DIMSE1
 70
     0
  9
$DIMSE2
 70
     0
  9
$DIMTAD
 70
     1
  9
$DIMZIN
 70
     8
  9
$DIMBLK
  1

  9
$DIMASO
 70
     1
  9
$DIMSHO
 70
     0
  9
$DIMPOST
  1

  9
$DIMAPOST
  1

  9
$DIMALT
 70
     0
  9
$DIMALTD
 70
     2
  9
$DIMALTF
 40
25.3999999999999986
  9
$DIMLFAC
 40
1.0
  9
$DIMTOFL
 70
     1
  9
$DIMTVP
 40
0.0
  9
$DIMTIX
 70
     0
  9
$DIMSOXD
 70
     0
  9
$DIMSAH
 70
     0
  9
$DIMBLK1
  1

  9
$DIMBLK2
  1

  9
$DIMSTYLE
  2
STANDARD
  9
$DIMCLRD
 70
     0
  9
$DIMCLRE
 70
     0
  9
$DIMCLRT
 70
     1
  9
$DIMTFAC
 40
0.5142857142857143
  9
$DIMGAP
 40
1.5
  9
$LUNITS
 70
     2
  9
$LUPREC
 70
     2
  9
$SKETCHINC
 40
1.0
  9
$FILLETRAD
 40
10.0
  9
$AUNITS
 70
     0
  9
$AUPREC
 70
     0
  9
$MENU
  1
ACAD
  9
$ELEVATION
 40
0.0
  9
$PELEVATION
 40
0.0
  9
$THICKNESS
 40
0.0
  9
$LIMCHECK
 70
     0
  9
$BLIPMODE
 70
     0
  9
$CHAMFERA
 40
0.0
  9
$CHAMFERB
 40
0.0
  9
$SKPOLY
 70
     0
  9
$TDCREATE
 40
2455397.8646990740671754
  9
$TDUPDATE
 40
2459080.3171643521636724
  9
$TDINDWG
 40
0.4100108796
  9
$TDUSRTIMER
 40
0.4100108796
  9
$USRTIMER
 70
     1
  9
$ANGBASE
 50
0.0
  9
$ANGDIR
 70
     0
  9
$PDMODE
 70
     0
  9
$PDSIZE
 40
0.0
  9
$PLINEWID
 40
0.0
  9
$COORDS
 70
     1
  9
$SPLFRAME
 70
     0
  9
$SPLINETYPE
 70
     6
  9
$SPLINESEGS
 70
     8
  9
$ATTDIA
 70
     1
  9
$ATTREQ
 70
     1
  9
$HANDLING
 70
     1
  9
$HANDSEED
  5
3835
  9
$SURFTAB1
 70
     6
  9
$SURFTAB2
 70
     6
  9
$SURFTYPE
 70
     6
  9
$SURFU
 70
     6
  9
$SURFV
 70
     6
  9
$UCSNAME
  2

  9
$UCSORG
 10
0.0
 20
0.0
 30
0.0
  9
$UCSXDIR
 10
1.0
 20
0.0
 30
0.0
  9
$UCSYDIR
 10
0.0
 20
1.0
 30
0.0
  9
$PUCSNAME
  2

  9
$PUCSORG
 10
0.0
 20
0.0
 30
0.0
  9
$PUCSXDIR
 10
1.0
 20
0.0
 30
0.0
  9
$PUCSYDIR
 10
0.0
 20
1.0
 30
0.0
  9
$USERI1
 70
     0
  9
$USERI2
 70
     0
  9
$USERI3
 70
     0
  9
$USERI4
 70
     0
  9
$USERI5
 70
     0
  9
$USERR1
 40
0.0
  9
$USERR2
 40
0.0
  9
$USERR3
 40
0.0
  9
$USERR4
 40
0.0
  9
$USERR5
 40
0.0
  9
$WORLDVIEW
 70
     1
  9
$SHADEDGE
 70
     3
  9
$SHADEDIF
 70
    70
  9
$TILEMODE
 70
     1
  9
$MAXACTVP
 70
    16
  9
$PLIMCHECK
 70
     0
  9
$PEXTMIN
 10
1.0000000000000000E+20
 20
1.0000000000000000E+20
 30
1.0000000000000000E+20
  9
$PEXTMAX
 10
-1.0000000000000000E+20
 20
-1.0000000000000000E+20
 30
-1.0000000000000000E+20
  9
$PLIMMIN
 10
-5.027082920074462
 20
-6.4382776093749987
  9
$PLIMMAX
 10
204.9462447166442871
 20
290.4877172636719251
  9
$UNITMODE
 70
     0
  9
$VISRETAIN
 70
     0
  9
$PLINEGEN
 70
     0
  9
$PSLTSCALE
 70
     0
  0
ENDSEC
  0
SECTION
  2
TABLES
  0
TABLE
  2
VPORT
 70
     1
  0
VPORT
  2
*ACTIVE
 70
     0
 10
0.0
 20
0.0
 11
1.0
 21
1.0
 12
66.8325543868199645
 22
-133.6453476913665952
 13
0.0
 23
0.0
 14
1.0
 24
1.0
 15
10.0
 25
10.0
 16
-0.0000000000002274
 26
0.0
 36
778.3062623364181718
 17
776.9416996125785317
 27
138.4793087119363122
 37
-15.9479001900240807
 40
299.9339633957558817
 41
1.594882729211087
 42
50.0
 43
0.0
 44
0.0
 50
0.0
 51
0.0
 71
     0
 72
  1500
 73
     1
 74
     0
 75
     0
 76
     0
 77
     0
 78
     0
  0
ENDTAB
  0
TABLE
  2
LTYPE
 70
     9
  0
LTYPE
  2
CONTINUOUS
 70
     0
  3
Solid line
 72
    65
 73
     0
 40
0.0
  0
LTYPE
  2
PHANTOM2
 70
     0
  3
Phantom (.5x) ___ _ _ ___ _ _ ___ _ _ ___ _ _
 72
    65
 73
     6
 40
1.25
 49
0.625
 49
-0.125
 49
0.125
 49
-0.125
 49
0.125
 49
-0.125
  0
LTYPE
  2
AUSGEZOGEN
 70
     0
  3
Ausgezogene Linie
 72
    65
 73
     0
 40
0.0
  0
LTYPE
  2
VERDECKT
 70
     0
  3
Verdeckt __ __ __ __ __ __ __ __ __ __ __ __ __
 72
    65
 73
     2
 40
0.375
 49
0.25
 49
-0.125
  0
ENDTAB
  0
TABLE
  2
LAYER
 70
    17
  0
LAYER
  2
0
 70
     0
 62
     7
  6
CONTINUOUS
  0
LAYER
  2
VOLL
 70
     0
 62
     1
  6
CONTINUOUS
  0
LAYER
  2
STEMPEL
 70
     0
 62
     3
  6
CONTINUOUS
  0
LAYER
  2
DEFPOINTS
 70
     0
 62
     7
  6
CONTINUOUS
  0
LAYER
  2
ADSK_ASSOC_ENTITY_BACKUPS
 70
     1
 62
    -7
  6
CONTINUOUS
  0
ENDTAB
  0
TABLE
  2
STYLE
 70
     4
  0
STYLE
  2
STANDARD
 70
     0
 40
0.0
 41
0.8
 50
0.0
 71
     0
 42
3.5
  3
simplex.shx
  4

  0
STYLE
  2
GREEKS
 70
     0
 40
0.0
 41
0.8
 50
0.0
 71
     0
 42
2.5
  3
SIMPLEX.shx
  4

  0
ENDTAB
  0
TABLE
  2
VIEW
 70
     1
  0
ENDTAB
  0
TABLE
  2
UCS
 70
     0
  0
ENDTAB
  0
TABLE
  2
APPID
 70
    34
  0
APPID
  2
ACAD
 70
     0
  0
APPID
  2
ACAD_EXEMPT_FROM_CAD_STANDARDS
 70
     0
  0
APPID
  2
ACAD_NAV_VCDISPLAY
 70
     0
  0
APPID
  2
ACAECLAYERSTANDARD
 70
     0
  0
APPID
  2
ACCMTRANSPARENCY
 70
     0
  0
APPID
  2
ACAD_PSEXT
 70
     0
  0
APPID
  2
GRADIENTCOLOR1ACI
 70
     0
  0
APPID
  2
GRADIENTCOLOR2ACI
 70
     0
  0
APPID
  2
ACAD_MLEADERVER
 70
     0
  0
APPID
  2
ACAD_OBJECT_CHANGE_GUID
 70
     0
  0
APPID
  2
MCAD_NO_VIS
 70
     0
  0
APPID
  2
ACAD_TEMP_GRAPHIC
 70
     0
  0
APPID
  2
ACATTRIBSERVICES
 70
     0
  0
APPID
  2
DESIGNERASSEMBLIES
 70
     0
  0
APPID
  2
ACAD_DSTYLE_DIMJAG
 70
     0
  0
APPID
  2
ACAD_DSTYLE_DIMBREAK
 70
     0
  0
APPID
  2
GENIUS_GENSCREG_15
 70
     0
  0
APPID
  2
GENIUS_GENOBJ-N-SDF_13
 70
     0
  0
APPID
  2
GENIUS_GENODEF_13
 70
     0
  0
APPID
  2
RAK
 70
     0
  0
APPID
  2
ACAUTHENVIRON
 70
     0
  0
APPID
  2
ACDBDYNAMICBLOCKTRUENAME
 70
     0
  0
APPID
  2
ACDBDYNAMICBLOCKGUID
 70
     0
  0
APPID
  2
ACSYNERGY
 70
     0
  0
APPID
  2
SYNERGY_BODY_TBR_ID
 70
     0
  0
APPID
  2
ACAD_VIEW_EDGE_ID
 70
     0
  0
APPID
  2
ACSYNERGYSKETCH
 70
     0
  0
APPID
  2
ACAD_STEPID
 70
     0
  0
APPID
  2
ACAD_MODELDOC_XFORM
 70
     0
  0
APPID
  2
GENIUS_GENDTOL_13
 70
     0
  0
APPID
  2
ACAD_DSTYLE_DIMINSPECT
 70
     0
  0
APPID
  2
ACADANNOMONITORALERTICONDI
 70
     0
  0
APPID
  2
GENIUS_GENDIMSH_14
 70
     0
  0
APPID
  2
AcDbAttr
 70
     0
  0
ENDTAB
  0
TABLE
  2
DIMSTYLE
 70
     4
  0
DIMSTYLE
  2
STANDARD
 70
     0
  3

  4

  5

  6

  7

 40
1.0
 41
0.18
 42
0.0625
 43
0.38
 44
0.18
 45
0.0
 46
0.0
 47
0.0
 48
0.0
140
0.18
141
0.09
142
0.0
143
25.3999999999999986
144
1.0
145
0.0
146
1.0
147
0.09
 71
     0
 72
     0
 73
     1
 74
     1
 75
     0
 76
     0
 77
     0
 78
     0
170
     0
171
     2
172
     0
173
     0
174
     0
175
     0
176
     0
177
     0
178
     0
  0
ENDTAB
  0
ENDSEC
  0
SECTION
  2
BLOCKS
  0
BLOCK
  8
0
  2
$MODEL_SPACE
 70
     0
 10
0.0
 20
0.0
 30
0.0
  3
$MODEL_SPACE
  1

  0
ENDBLK
  5
36
  8
0
  0
BLOCK
 67
     1
  8
0
  2
$PAPER_SPACE
 70
     0
 10
0.0
 20
0.0
 30
0.0
  3
$PAPER_SPACE
  1

  0
ENDBLK
  5
34
 67
     1
  8
0
  0
BLOCK
  8
0
  2
*S0
 70
     1
 10
0.0
 20
0.0
 30
0.0
  3
*S0
  1

  0
ENDBLK
  5
FA2
  8
0
  0
BLOCK
  8
0
  2
A$C50478421
 70
     0
 10
0.0
 20
0.0
 30
0.0
  3
A$C50478421
  1

  0
CIRCLE
  5
3784
  8
0
  6
CONTINUOUS
 10
701.5112652587622506
 20
155.0350682550881061
 30
0.0000000000001563
 40
38.7000000000000028
  0
CIRCLE
  5
3785
  8
0
  6
CONTINUOUS
 10
701.5112652587622506
 20
155.0350682550881061
 30
0.0000000000001563
 40
47.5
  0
CIRCLE
  5
3786
  8
0
  6
CONTINUOUS
 10
701.5112652587622506
 20
155.0350682550881061
 30
0.0000000000001563
 40
24.3000906917927715
  0
CIRCLE
  5
3787
  8
0
  6
CONTINUOUS
 10
701.5112652587622506
 20
155.0350682550881061
 30
0.0000000000001634
 40
31.3000000000001783
  0
CIRCLE
  5
3788
  8
0
  6
CONTINUOUS
 10
701.5112652587622506
 20
155.0350682550881061
 30
0.0000000000001563
 40
29.4070448491913794
  0
CIRCLE
  5
3789
  8
0
  6
CONTINUOUS
 10
701.5112652587622506
 20
155.0350682550881061
 30
0.0000000000001563
 40
27.75197797074782
  0
CIRCLE
  5
378A
  8
0
  6
CONTINUOUS
 10
701.5112652587622506
 20
155.0350682550881061
 30
0.0000000000001634
 40
25.0
  0
CIRCLE
  5
378B
  8
0
  6
VERDECKT
 62
     1
 10
701.5112652587622506
 20
155.0350682550881061
 30
0.0000000000001563
 40
25.8058204481076316
  0
CIRCLE
  5
378C
  8
0
  6
VERDECKT
 62
     1
 10
701.5112652587622506
 20
155.0350682550881061
 30
0.0000000000001634
 40
26.5
  0
CIRCLE
  5
378D
  8
0
  6
VERDECKT
 62
     1
 10
701.5112652587622506
 20
155.0350682550881061
 30
0.0000000000001634
 40
29.2999999999999616
  0
CIRCLE
  5
378E
  8
0
  6
VERDECKT
 62
     1
 10
701.5112652587622506
 20
155.0350682550881061
 30
0.0000000000001634
 40
27.7999999999999616
  0
CIRCLE
  5
378F
  8
0
  6
VERDECKT
 62
     1
 10
701.5112652587622506
 20
155.0350682550881061
 30
0.0000000000001634
 40
29.8000000000001783
  0
CIRCLE
  5
3790
  8
0
  6
VERDECKT
 62
     1
 10
701.5112652587622506
 20
155.0350682550881061
 30
0.0000000000001634
 40
27.7999844621173082
  0
CIRCLE
  5
3791
  8
0
  6
VERDECKT
 62
     1
 10
701.5112652587622506
 20
155.0350682550881061
 30
0.0000000000001634
 40
41.5
  0
CIRCLE
  5
3792
  8
0
  6
VERDECKT
 62
     1
 10
701.5112652587622506
 20
155.0350682550881061
 30
0.0000000000001634
 40
27.0
  0
ENDBLK
  5
3794
  8
0
  0
BLOCK
  8
0
  2
A$C1C2AB4B6
 70
     0
 10
0.0
 20
0.0
 30
0.0
  3
A$C1C2AB4B6
  1

  0
LINE
  5
3798
  8
0
  6
CONTINUOUS
 10
749.0112652587622506
 20
66.5520984846980497
 30
-0.0000000000000148
 11
654.0112652587622506
 21
66.5520984846980497
 31
-0.0000000000000148
210
0.0
220
1.0
230
-0.0000000000000002
  0
LINE
  5
3799
  8
0
  6
CONTINUOUS
 10
749.0112652587622506
 20
-3.447901515301965
 30
0.0000000000000008
 11
654.0112652587622506
 21
-3.447901515301965
 31
0.0000000000000008
210
0.0
220
1.0
230
-0.0000000000000002
  0
LINE
  5
379A
  8
0
  6
CONTINUOUS
 10
654.0112652587622506
 20
-3.447901515301965
 30
0.0000000000000008
 11
654.0112652587622506
 21
66.5520984846980497
 31
-0.0000000000000148
210
0.0
220
1.0
230
-0.0000000000000002
  0
LINE
  5
379B
  8
0
  6
CONTINUOUS
 10
749.0112652587622506
 20
-3.447901515301965
 30
0.0000000000000008
 11
749.0112652587622506
 21
66.5520984846980497
 31
-0.0000000000000148
210
0.0
220
1.0
230
-0.0000000000000002
  0
LINE
  5
379C
  8
0
  6
CONTINUOUS
 10
675.7054448106546261
 20
-98.4479015153021209
 30
0.0000000000000219
 11
727.3170857068698751
 21
-98.4479015153021209
 31
0.0000000000000219
210
0.0
220
1.0
230
-0.0000000000000002
  0
LINE
  5
379D
  8
0
  6
CONTINUOUS
 10
675.7054448106546261
 20
-98.4479015153021209
 30
0.0000000000000219
 11
675.0112652587622506
 21
-90.5133929296647608
 31
0.0000000000000201
210
0.0
220
1.0
230
-0.0000000000000002
  0
LINE
  5
379E
  8
0
  6
CONTINUOUS
 10
727.3170857068698751
 20
-98.4479015153021209
 30
0.0000000000000219
 11
728.0112652587622506
 21
-90.5133929296647608
 31
0.0000000000000201
210
0.0
220
1.0
230
-0.0000000000000002
  0
LINE
  5
379F
  8
0
  6
CONTINUOUS
 10
728.0112652587622506
 20
-7.4479015153019663
 30
0.0000000000000017
 11
728.0112652587622506
 21
-90.5133929296647608
 31
0.0000000000000201
210
0.0
220
1.0
230
-0.0000000000000002
  0
LINE
  5
37A0
  8
0
  6
CONTINUOUS
 10
675.0112652587622506
 20
-7.4479015153019663
 30
0.0000000000000017
 11
675.0112652587622506
 21
-90.5133929296647608
 31
0.0000000000000201
210
0.0
220
1.0
230
-0.0000000000000002
  0
LINE
  5
37A1
  8
0
  6
CONTINUOUS
 10
660.0112652587622506
 20
-7.4479015153019663
 30
0.0000000000000017
 11
743.0112652587622506
 21
-7.4479015153019663
 31
0.0000000000000017
210
0.0
220
1.0
230
-0.0000000000000002
  0
LINE
  5
37A2
  8
0
  6
CONTINUOUS
 10
743.0112652587622506
 20
-3.447901515301965
 30
0.0000000000000008
 11
743.0112652587622506
 21
-7.4479015153019663
 31
0.0000000000000017
210
0.0
220
1.0
230
-0.0000000000000002
  0
LINE
  5
37A3
  8
0
  6
CONTINUOUS
 10
660.0112652587622506
 20
-3.447901515301973
 30
0.0000000000000008
 11
660.0112652587622506
 21
-7.4479015153019743
 31
0.0000000000000017
210
0.0
220
1.0
230
-0.0000000000000002
  0
LINE
  5
37A4
  8
0
  6
VERDECKT
 62
     1
 10
662.8112652587620914
 20
-3.447901515301965
 30
0.0000000000000008
 11
662.8112652587620914
 21
66.5520984846980497
 31
-0.0000000000000148
210
0.0
220
1.0
230
-0.0000000000000002
  0
LINE
  5
37A5
  8
0
  6
VERDECKT
 62
     1
 10
740.2112652587621824
 20
-3.447901515301965
 30
0.0000000000000008
 11
740.2112652587621824
 21
66.5520984846980497
 31
-0.0000000000000148
210
0.0
220
1.0
230
-0.0000000000000002
  0
LINE
  5
37A6
  8
0
  6
VERDECKT
 62
     1
 10
672.1042204095707575
 20
64.552098484697936
 30
-0.0000000000000143
 11
730.91831010795363
 21
64.552098484697936
 31
-0.0000000000000143
210
0.0
220
1.0
230
-0.0000000000000002
  0
ARC
  5
37A7
  8
0
  6
VERDECKT
 62
     1
 10
-686.5112652587433786
 20
-90.011292086217864
 30
0.0
 40
9.9999999999812417
210
0.0
220
-0.0000000000000002
230
-1.0
 50
354.9999999999947136
 51
0.0000000000032569
  0
ARC
  5
37A8
  8
0
  6
VERDECKT
 62
     1
 10
-716.5112652587810089
 20
-90.011292086217864
 30
0.0
 40
9.9999999999812381
210
0.0
220
-0.0000000000000002
230
-1.0
 50
179.9999999999967031
 51
185.0000000000052012
  0
LINE
  5
37A9
  8
0
  6
VERDECKT
 62
     1
 10
677.2111745669693619
 20
-98.4479015153021209
 30
0.0000000000000219
 11
676.5493182778448045
 21
-90.8828495136937136
 31
0.0000000000000202
210
0.0
220
1.0
230
-0.0000000000000002
  0
LINE
  5
37AA
  8
0
  6
VERDECKT
 62
     1
 10
725.8113559505550256
 20
-98.4479015153021209
 30
0.0000000000000219
 11
726.4732122396796967
 21
-90.8828495136937136
 31
0.0000000000000202
210
0.0
220
1.0
230
-0.0000000000000002
  0
ARC
  5
37AB
  8
0
  6
VERDECKT
 62
     1
 10
-667.0112652587635012
 20
21.754544740155481
 30
0.0
 40
7.9999999999987503
210
0.0
220
-0.0000000000000002
230
-1.0
 50
149.3165828910184132
 51
179.9999999999982094
  0
ARC
  5
37AC
  8
0
  6
VERDECKT
 62
     1
 10
-736.0112652587608864
 20
21.754544740155481
 30
0.0
 40
7.9999999999987486
210
0.0
220
-0.0000000000000002
230
-1.0
 50
0.0000000000017302
 51
30.68341710898153
  0
ARC
  5
37AD
  8
0
  6
VERDECKT
 62
     1
 10
-684.211265258756157
 20
31.9604253978923509
 30
0.0
 40
11.9999999999942109
210
0.0
220
-0.0000000000000002
230
-1.0
 50
329.3165828910169921
 51
0.0000000000069718
  0
ARC
  5
37AE
  8
0
  6
VERDECKT
 62
     1
 10
-718.8112652587682305
 20
31.9604253978923403
 30
0.0
 40
11.9999999999942002
210
0.0
220
-0.0000000000000002
230
-1.0
 50
179.9999999999930083
 51
210.6834171089830079
  0
LINE
  5
37AF
  8
0
  6
VERDECKT
 62
     1
 10
730.8112652587623188
 20
40.0520984846979218
 30
-0.0000000000000089
 11
730.8112652587623188
 21
31.9604253978938111
 31
-0.0000000000000071
210
0.0
220
1.0
230
-0.0000000000000002
  0
LINE
  5
37B0
  8
0
  6
VERDECKT
 62
     1
 10
672.2112652587621824
 20
40.0520984846979218
 30
-0.0000000000000089
 11
672.2112652587621824
 21
31.9604253978938111
 31
-0.0000000000000071
210
0.0
220
1.0
230
-0.0000000000000002
  0
ARC
  5
37B1
  8
0
  6
VERDECKT
 62
     1
 10
-662.2112652587652519
 20
40.0520984846985897
 30
0.0
 40
9.9999999999970406
210
0.0
220
-0.0000000000000002
230
-1.0
 50
160.5369005553087902
 51
180.0000000000036948
  0
ARC
  5
37B2
  8
0
  6
VERDECKT
 62
     1
 10
-740.8112652587591356
 20
40.0520984846985897
 30
0.0
 40
9.9999999999969287
210
0.0
220
-0.0000000000000002
230
-1.0
 50
359.9999999999960778
 51
19.4630994446913093
  0
ARC
  5
37B3
  8
0
  6
VERDECKT
 62
     1
 10
-695.2112652587686625
 20
51.7140984847000666
 30
0.0
 40
25.0000320571349484
210
0.0
220
-0.0000000000000002
230
-1.0
 50
340.536900555311604
 51
359.9082450081114075
  0
ARC
  5
37B4
  8
0
  6
VERDECKT
 62
     1
 10
-707.811265258755725
 20
51.7140984847000666
 30
0.0
 40
25.0000320571349484
210
0.0
220
-0.0000000000000002
230
-1.0
 50
180.0917549918885072
 51
199.463099444688396
  0
LINE
  5
37B5
  8
0
  6
VERDECKT
 62
     1
 10
732.8112652587624325
 20
56.1695971420356415
 30
-0.0000000000000125
 11
732.8112652587624325
 21
51.6740627826353816
 31
-0.0000000000000115
210
0.0
220
1.0
230
-0.0000000000000002
  0
LINE
  5
37B6
  8
0
  6
VERDECKT
 62
     1
 10
670.211265258761955
 20
56.1695971420356415
 30
-0.0000000000000125
 11
670.211265258761955
 21
51.6740627826353816
 31
-0.0000000000000115
210
0.0
220
1.0
230
-0.0000000000000002
  0
ARC
  5
37B7
  8
0
  6
VERDECKT
 62
     1
 10
-689.7112652587683215
 20
56.1695971420356983
 30
0.0
 40
19.5000000000062492
210
0.0
220
-0.0000000000000002
230
-1.0
 50
359.9999999999997726
 51
24.999999999995989
  0
ARC
  5
37B8
  8
0
  6
VERDECKT
 62
     1
 10
-713.3112652587561797
 20
56.1695971420356983
 30
0.0
 40
19.5000000000062492
210
0.0
220
-0.0000000000000002
230
-1.0
 50
155.0000000000040075
 51
180.0000000000001137
  0
LINE
  5
37B9
  8
0
  6
VERDECKT
 62
     1
 10
730.91831010795363
 20
64.5520984846979502
 30
-0.0000000000000143
 11
730.9842671059770964
 21
64.4106532459807255
 31
-0.0000000000000143
210
0.0
220
1.0
230
-0.0000000000000002
  0
LINE
  5
37BA
  8
0
  6
VERDECKT
 62
     1
 10
672.1042204095707575
 20
64.5520984846979502
 30
-0.0000000000000143
 11
672.0382634115472911
 21
64.4106532459807255
 31
-0.0000000000000143
210
0.0
220
1.0
230
-0.0000000000000002
  0
LINE
  5
37BB
  8
0
  6
VERDECKT
 62
     1
 10
729.2632432295101808
 20
64.5520984846979786
 30
-0.0000000000000143
 11
729.4440243274659679
 21
64.1644121690338096
 31
-0.0000000000000142
210
0.0
220
1.0
230
-0.0000000000000002
  0
LINE
  5
37BC
  8
0
  6
VERDECKT
 62
     1
 10
673.7592872880143204
 20
64.5520984846979786
 30
-0.0000000000000143
 11
673.5785061900584196
 21
64.1644121690338096
 31
-0.0000000000000142
210
0.0
220
1.0
230
-0.0000000000000002
  0
ARC
  5
37BD
  8
0
  6
VERDECKT
 62
     1
 10
-694.9860490806537427
 20
51.6752824306225591
 30
0.0
 40
23.2747838218916812
210
0.0
220
-0.0000000000000002
230
-1.0
 50
340.4422625104851932
 51
0.0000000000001018
  0
ARC
  5
37BE
  8
0
  6
VERDECKT
 62
     1
 10
-708.0364814368706448
 20
51.6752824306225733
 30
0.0
 40
23.2747838218917913
210
0.0
220
-0.0000000000000002
230
-1.0
 50
179.9999999999998863
 51
199.5577374895146932
  0
ARC
  5
37BF
  8
0
  6
VERDECKT
 62
     1
 10
-662.3209672946536557
 20
40.0709123749838767
 30
0.0
 40
11.3903135019911801
210
0.0
220
-0.0000000000000002
230
-1.0
 50
160.4422625104863869
 51
180.0946380448243929
  0
ARC
  5
37C0
  8
0
  6
VERDECKT
 62
     1
 10
-740.7015632228706181
 20
40.0709123749838909
 30
0.0
 40
11.3903135019910593
210
0.0
220
-0.0000000000000002
230
-1.0
 50
359.9053619551755219
 51
19.5577374895136913
  0
LINE
  5
37C1
  8
0
  6
VERDECKT
 62
     1
 10
729.3112652587623188
 20
40.0520984846979218
 30
-0.0000000000000089
 11
729.3112652587623188
 21
31.9604253978938111
 31
-0.0000000000000071
210
0.0
220
1.0
230
-0.0000000000000002
  0
LINE
  5
37C2
  8
0
  6
VERDECKT
 62
     1
 10
673.7112652587620687
 20
40.0520984846979218
 30
-0.0000000000000089
 11
673.7112652587620687
 21
31.9604253978938111
 31
-0.0000000000000071
210
0.0
220
1.0
230
-0.0000000000000002
  0
ARC
  5
37C3
  8
0
  6
VERDECKT
 62
     1
 10
-684.2112652587594539
 20
31.9604253978931716
 30
0.0
 40
10.4999999999975007
210
0.0
220
-0.0000000000000002
230
-1.0
 50
329.3165828910214259
 51
0.0000000000035113
  0
ARC
  5
37C4
  8
0
  6
VERDECKT
 62
     1
 10
-718.8112652587649336
 20
31.9604253978931716
 30
0.0
 40
10.4999999999975007
210
0.0
220
-0.0000000000000002
230
-1.0
 50
179.9999999999965041
 51
210.6834171089786025
  0
ARC
  5
37C5
  8
0
  6
VERDECKT
 62
     1
 10
-667.0112652587603179
 20
21.7545447401545786
 30
0.0
 40
9.500000000001938
210
0.0
220
-0.0000000000000002
230
-1.0
 50
149.3165828910240975
 51
179.9999999999930083
  0
ARC
  5
37C6
  8
0
  6
VERDECKT
 62
     1
 10
-736.0112652587639559
 20
21.7545447401545893
 30
0.0
 40
9.5000000000018172
210
0.0
220
-0.0000000000000002
230
-1.0
 50
0.0000000000068827
 51
30.6834171089761014
  0
ARC
  5
37C7
  8
0
  6
VERDECKT
 62
     1
 10
-691.6899539430211235
 20
55.7189053815635305
 30
0.0
 40
19.9837715310573785
210
0.0
220
-0.0000000000000002
230
-1.0
 50
1.8283622682343179
 51
24.9999999999731486
  0
ARC
  5
37C8
  8
0
  6
VERDECKT
 62
     1
 10
-711.3325765745031504
 20
55.7189053815635305
 30
0.0
 40
19.9837715310574993
210
0.0
220
-0.0000000000000002
230
-1.0
 50
155.0000000000268869
 51
178.1716377317655997
  0
LINE
  5
37C9
  8
0
  6
VERDECKT
 62
     1
 10
731.3112652587624325
 20
56.0374428628623633
 30
-0.0000000000000124
 11
731.3112652587624325
 21
51.6752824306226017
 31
-0.0000000000000115
210
0.0
220
1.0
230
-0.0000000000000002
  0
LINE
  5
37CA
  8
0
  6
VERDECKT
 62
     1
 10
671.711265258761955
 20
56.0374428628623633
 30
-0.0000000000000124
 11
671.711265258761955
 21
51.6752824306226017
 31
-0.0000000000000115
210
0.0
220
1.0
230
-0.0000000000000002
  0
ARC
  5
37CB
  8
0
  6
VERDECKT
 62
     1
 10
-681.7112652588006085
 20
56.0374428628617167
 30
0.0
 40
10.0000000000385398
210
0.0
220
-0.0000000000000002
230
-1.0
 50
0.0000000000037022
 51
1.828362268229661
  0
ARC
  5
37CC
  8
0
  6
VERDECKT
 62
     1
 10
-721.3112652587238927
 20
56.0374428628617167
 30
0.0
 40
10.0000000000385398
210
0.0
220
-0.0000000000000002
230
-1.0
 50
178.1716377317702893
 51
179.9999999999961915
  0
LINE
  5
37CD
  8
0
  6
VERDECKT
 62
     1
 10
728.0112652587622506
 20
21.7545447401557297
 30
-0.0000000000000048
 11
728.0112652587622506
 21
-7.4479015153019663
 31
0.0000000000000017
210
0.0
220
1.0
230
-0.0000000000000002
  0
LINE
  5
37CE
  8
0
  6
VERDECKT
 62
     1
 10
675.0112652587622506
 20
21.7545447401557297
 30
-0.0000000000000048
 11
675.0112652587622506
 21
-7.4479015153019663
 31
0.0000000000000017
210
0.0
220
1.0
230
-0.0000000000000002
  0
LINE
  5
37CF
  8
0
  6
VERDECKT
 62
     1
 10
726.5112652587622506
 20
21.7545447401557297
 30
-0.0000000000000048
 11
726.5112652587622506
 21
-90.0112920862172956
 31
0.00000000000002
210
0.0
220
1.0
230
-0.0000000000000002
  0
LINE
  5
37D0
  8
0
  6
VERDECKT
 62
     1
 10
676.5112652587622506
 20
21.7545447401557297
 30
-0.0000000000000048
 11
676.5112652587622506
 21
-90.0112920862172956
 31
0.00000000000002
210
0.0
220
1.0
230
-0.0000000000000002
  0
LINE
  5
37D1
  8
0
  6
VERDECKT
 62
     1
 10
728.5112652587622506
 20
-3.447901515301965
 30
0.0000000000000008
 11
728.5112652587622506
 21
-7.4479015153019663
 31
0.0000000000000017
210
0.0
220
1.0
230
-0.0000000000000002
  0
LINE
  5
37D2
  8
0
  6
VERDECKT
 62
     1
 10
674.5112652587622506
 20
-3.4479015153019699
 30
0.0000000000000008
 11
674.5112652587622506
 21
-7.4479015153019708
 31
0.0000000000000017
210
0.0
220
1.0
230
-0.0000000000000002
  0
ENDBLK
  5
37D4
  8
0
  0
BLOCK
  8
0
  2
*U25
 70
     1
 10
0.0
 20
0.0
 30
0.0
  3
*U25
  1

  0
TEXT
  5
382B
  8
STEMPEL
 62
     1
 10
0.0000008648242442
 20
0.0000001999967876
 30
0.0
 40
2.7999999999999989
  1
a Schweißzone frei von Zink
 41
0.8
  0
ENDBLK
  5
382D
  8
0
  0
BLOCK
  8
0
  2
*U26
 70
     1
 10
0.0
 20
0.0
 30
0.0
  3
*U26
  1

  0
TEXT
  5
382F
  8
STEMPEL
 62
     1
 10
0.0100562390278469
 20
8.5951592771192882
 30
0.0
 40
2.7999999999999989
  1
Rohrende leicht eingezogen
 41
0.8
  0
ENDBLK
  5
3831
  8
0
  0
ENDSEC
  0
SECTION
  2
ENTITIES
  0
TEXT
  5
8F
  8
VOLL
 10
78.076754716981128
 20
31.025947764705851
 30
0.0
 40
1.8
  1

  7
GREEKS
  0
INSERT
  5
FA4
  8
ADSK_ASSOC_ENTITY_BACKUPS
  2
*S0
 10
0.0
 20
0.0
 30
0.0
  0
INSERT
  5
3795
  8
STEMPEL
  2
A$C50478421
 10
142.2548775250209019
 20
-251.6933925343319061
 30
0.0
  0
INSERT
  5
37D5
  8
STEMPEL
  2
A$C1C2AB4B6
 10
142.2548775250209019
 20
87.2598550165283768
 30
0.0000000000001705
  0
VIEWPORT
  5
702
 67
     1
  8
0
 10
99.9595808982848837
 20
142.0247198271484024
 30
0.0
 40
476.5880972498572987
 41
298.8232855751110719
 68
     1
 69
     1
1001
ACAD
1000
MVIEW
1002
{
1070
    16
1010
0.0
1020
0.0
1030
0.0
1010
0.0
1020
0.0
1030
1.0
1040
0.0
1040
298.8232855751110719
1040
99.9595808982848837
1040
142.0247198271484024
1040
50.0
1040
0.0
1040
0.0
1070
     0
1070
  1500
1070
     1
1070
     1
1070
     0
1070
     0
1070
     0
1070
     0
1040
0.0
1040
0.0
1040
0.0
1040
10.0
1040
10.0
1040
10.0
1040
10.0
1070
     0
1002
{
1002
}
1002
}
1001
GENIUS_GENOBJ-N-SDF_13
1002
{
1000
OWNER
1000
GEN
1002
}
1001
GENIUS_GENODEF_13
1002
{
1000
HIER
1070
     0
1002
}
1002
{
1000
MANEDIT
1070
     0
1002
}
1002
{
1000
NOSEL
1070
     0
1002
}
1002
{
1000
BEHIND
1070
     0
1002
}
1002
{
1000
OTHER
1070
     0
1002
}
1002
{
1000
REACTOR
1002
}
1001
GENIUS_GENSCREG_15
1000
PF
1040
1.0
1000
DF
1040
1.0
1000
MIN
1011
-298.693293705512076
1021
0.0
1031
0.0
1021
-72.766357712581339
1031
0.0
1000
MAX
1011
796.8946521910720548
1021
0.0
1031
0.0
1021
409.2668003013586144
1031
0.0
1000
FLAGS
1070
     4
  0
TEXT
  5
3500
 67
     1
  8
VOLL
 10
344.7923260466616853
 20
29.5196146502854617
 30
0.0
 40
1.8
  1

  7
GREEKS
  0
ENDSEC
  0
EOF
