  0
SECTION
  2
HEADER
  9
$ACADVER
  1
AC1009
  9
$INSBASE
 10
0.0
 20
0.0
 30
0.0
  9
$EXTMIN
 10
305.7169429870917838
 20
-164.1454140457524034
 30
-30.1260628497305696
  9
$EXTMAX
 10
477.7169429870918975
 20
189.0479659436662985
 30
-30.1260628497305305
  9
$LIMMIN
 10
0.0
 20
0.0
  9
$LIMMAX
 10
210.0
 20
297.0
  9
$ORTHOMODE
 70
     1
  9
$REGENMODE
 70
     1
  9
$FILLMODE
 70
     1
  9
$QTEXTMODE
 70
     0
  9
$MIRRTEXT
 70
     1
  9
$DRAGMODE
 70
     2
  9
$LTSCALE
 40
10.0
  9
$OSMODE
 70
  2495
  9
$ATTMODE
 70
     1
  9
$TEXTSIZE
 40
3.5
  9
$TRACEWID
 40
0.5
  9
$TEXTSTYLE
  7
STANDARD
  9
$CLAYER
  8
STEMPEL
  9
$CELTYPE
  6
BYLAYER
  9
$CECOLOR
 62
   256
  9
$DIMSCALE
 40
1.0
  9
$DIMASZ
 40
3.5
  9
$DIMEXO
 40
1.0
  9
$DIMDLI
 40
7.0
  9
$DIMRND
 40
0.0
  9
$DIMDLE
 40
0.0
  9
$DIMEXE
 40
1.0
  9
$DIMTP
 40
0.0
  9
$DIMTM
 40
0.0
  9
$DIMTXT
 40
3.5
  9
$DIMCEN
 40
1.5
  9
$DIMTSZ
 40
0.0
  9
$DIMTOL
 70
     0
  9
$DIMLIM
 70
     0
  9
$DIMTIH
 70
     0
  9
$DIMTOH
 70
     0
  9
$DIMSE1
 70
     0
  9
$DIMSE2
 70
     0
  9
$DIMTAD
 70
     1
  9
$DIMZIN
 70
     8
  9
$DIMBLK
  1

  9
$DIMASO
 70
     1
  9
$DIMSHO
 70
     0
  9
$DIMPOST
  1

  9
$DIMAPOST
  1

  9
$DIMALT
 70
     0
  9
$DIMALTD
 70
     2
  9
$DIMALTF
 40
25.3999999999999986
  9
$DIMLFAC
 40
2.0
  9
$DIMTOFL
 70
     1
  9
$DIMTVP
 40
0.0
  9
$DIMTIX
 70
     0
  9
$DIMSOXD
 70
     0
  9
$DIMSAH
 70
     0
  9
$DIMBLK1
  1

  9
$DIMBLK2
  1

  9
$DIMSTYLE
  2
STANDARD
  9
$DIMCLRD
 70
     0
  9
$DIMCLRE
 70
     0
  9
$DIMCLRT
 70
     1
  9
$DIMTFAC
 40
0.5
  9
$DIMGAP
 40
1.5
  9
$LUNITS
 70
     2
  9
$LUPREC
 70
     2
  9
$SKETCHINC
 40
1.0
  9
$FILLETRAD
 40
0.0
  9
$AUNITS
 70
     0
  9
$AUPREC
 70
     0
  9
$MENU
  1
ACAD
  9
$ELEVATION
 40
0.0
  9
$PELEVATION
 40
0.0
  9
$THICKNESS
 40
0.0
  9
$LIMCHECK
 70
     0
  9
$BLIPMODE
 70
     0
  9
$CHAMFERA
 40
0.0
  9
$CHAMFERB
 40
0.0
  9
$SKPOLY
 70
     0
  9
$TDCREATE
 40
2455397.8646990740671754
  9
$TDUPDATE
 40
2459627.5990046299993992
  9
$TDINDWG
 40
0.147029537
  9
$TDUSRTIMER
 40
0.147029537
  9
$USRTIMER
 70
     1
  9
$ANGBASE
 50
0.0
  9
$ANGDIR
 70
     0
  9
$PDMODE
 70
     0
  9
$PDSIZE
 40
0.0
  9
$PLINEWID
 40
0.0
  9
$COORDS
 70
     1
  9
$SPLFRAME
 70
     0
  9
$SPLINETYPE
 70
     6
  9
$SPLINESEGS
 70
     8
  9
$ATTDIA
 70
     1
  9
$ATTREQ
 70
     1
  9
$HANDLING
 70
     1
  9
$HANDSEED
  5
16C2
  9
$SURFTAB1
 70
     6
  9
$SURFTAB2
 70
     6
  9
$SURFTYPE
 70
     6
  9
$SURFU
 70
     6
  9
$SURFV
 70
     6
  9
$UCSNAME
  2

  9
$UCSORG
 10
0.0
 20
0.0
 30
0.0
  9
$UCSXDIR
 10
1.0
 20
0.0
 30
0.0
  9
$UCSYDIR
 10
0.0
 20
1.0
 30
0.0
  9
$PUCSNAME
  2

  9
$PUCSORG
 10
0.0
 20
0.0
 30
0.0
  9
$PUCSXDIR
 10
1.0
 20
0.0
 30
0.0
  9
$PUCSYDIR
 10
0.0
 20
1.0
 30
0.0
  9
$USERI1
 70
     0
  9
$USERI2
 70
     0
  9
$USERI3
 70
     0
  9
$USERI4
 70
     0
  9
$USERI5
 70
     0
  9
$USERR1
 40
0.0
  9
$USERR2
 40
0.0
  9
$USERR3
 40
0.0
  9
$USERR4
 40
0.0
  9
$USERR5
 40
0.0
  9
$WORLDVIEW
 70
     1
  9
$SHADEDGE
 70
     3
  9
$SHADEDIF
 70
    70
  9
$TILEMODE
 70
     1
  9
$MAXACTVP
 70
    16
  9
$PLIMCHECK
 70
     0
  9
$PEXTMIN
 10
1.0000000000000000E+20
 20
1.0000000000000000E+20
 30
1.0000000000000000E+20
  9
$PEXTMAX
 10
-1.0000000000000000E+20
 20
-1.0000000000000000E+20
 30
-1.0000000000000000E+20
  9
$PLIMMIN
 10
-77.7262900331598132
 20
65.8561067240127187
  9
$PLIMMAX
 10
132.2737099668401868
 20
362.8561067240127045
  9
$UNITMODE
 70
     0
  9
$VISRETAIN
 70
     0
  9
$PLINEGEN
 70
     0
  9
$PSLTSCALE
 70
     0
  0
ENDSEC
  0
SECTION
  2
TABLES
  0
TABLE
  2
VPORT
 70
     1
  0
VPORT
  2
*ACTIVE
 70
     0
 10
0.0
 20
0.0
 11
1.0
 21
1.0
 12
-3.2617256659674752
 22
-150.2009990514484912
 13
0.0
 23
0.0
 14
1.0
 24
1.0
 15
10.0
 25
10.0
 16
-0.0000000000001705
 26
0.0
 36
730.2541980098582144
 17
394.9786686530594011
 27
162.6522750004054956
 37
-15.0630314248652493
 40
355.7191967712262226
 41
1.7852028639618129
 42
50.0
 43
0.0
 44
0.0
 50
0.0
 51
0.0
 71
     0
 72
  1500
 73
     1
 74
     0
 75
     0
 76
     0
 77
     0
 78
     0
  0
ENDTAB
  0
TABLE
  2
LTYPE
 70
     6
  0
LTYPE
  2
CONTINUOUS
 70
     0
  3
Solid line
 72
    65
 73
     0
 40
0.0
  0
LTYPE
  2
PHANTOM2
 70
     0
  3
Phantom (.5x) ___ _ _ ___ _ _ ___ _ _ ___ _ _
 72
    65
 73
     6
 40
1.25
 49
0.625
 49
-0.125
 49
0.125
 49
-0.125
 49
0.125
 49
-0.125
  0
LTYPE
  2
VERDECKT
 70
     0
  3
Verdeckt __ __ __ __ __ __ __ __ __ __ __ __ __
 72
    65
 73
     2
 40
0.375
 49
0.25
 49
-0.125
  0
ENDTAB
  0
TABLE
  2
LAYER
 70
    14
  0
LAYER
  2
0
 70
     0
 62
     7
  6
CONTINUOUS
  0
LAYER
  2
VOLL
 70
     0
 62
     1
  6
CONTINUOUS
  0
LAYER
  2
STEMPEL
 70
     0
 62
     3
  6
CONTINUOUS
  0
LAYER
  2
ADSK_ASSOC_ENTITY_BACKUPS
 70
     1
 62
    -7
  6
CONTINUOUS
  0
LAYER
  2
DEFPOINTS
 70
     0
 62
     7
  6
CONTINUOUS
  0
ENDTAB
  0
TABLE
  2
STYLE
 70
     4
  0
STYLE
  2
STANDARD
 70
     0
 40
0.0
 41
0.8
 50
0.0
 71
     0
 42
3.5
  3
simplex.shx
  4

  0
STYLE
  2
GREEKS
 70
     0
 40
0.0
 41
0.8
 50
0.0
 71
     0
 42
2.5
  3
SIMPLEX.shx
  4

  0
ENDTAB
  0
TABLE
  2
VIEW
 70
     1
  0
ENDTAB
  0
TABLE
  2
UCS
 70
     0
  0
ENDTAB
  0
TABLE
  2
APPID
 70
    23
  0
APPID
  2
ACAD
 70
     0
  0
APPID
  2
ACAD_NAV_VCDISPLAY
 70
     0
  0
APPID
  2
ACAD_MLEADERVER
 70
     0
  0
APPID
  2
ACAD_EXEMPT_FROM_CAD_STANDARDS
 70
     0
  0
APPID
  2
ACAD_PSEXT
 70
     0
  0
APPID
  2
ACAECLAYERSTANDARD
 70
     0
  0
APPID
  2
ACCMTRANSPARENCY
 70
     0
  0
APPID
  2
ACSYNERGY
 70
     0
  0
APPID
  2
SYNERGY_BODY_TBR_ID
 70
     0
  0
APPID
  2
ACAD_VIEW_EDGE_ID
 70
     0
  0
APPID
  2
ACAD_STEPID
 70
     0
  0
APPID
  2
ACSYNERGYSKETCH
 70
     0
  0
APPID
  2
ACAD_MODELDOC_XFORM
 70
     0
  0
APPID
  2
ACAD_DSTYLE_DIMJAG
 70
     0
  0
APPID
  2
ACAD_DSTYLE_DIMTALN
 70
     0
  0
APPID
  2
ACADANNOMONITORALERTICONDI
 70
     0
  0
APPID
  2
ACAD_DIMASSOC_CALC_DIMLFAC
 70
     0
  0
APPID
  2
ACAD_DIMASSOC_DIMLFAC
 70
     0
  0
APPID
  2
ACAD_DIMASSOC_OVERRIDDEN_D
 70
     0
  0
APPID
  2
ACAD_DSTYLE_DIMRADIAL_EXTENSION
 70
     0
  0
APPID
  2
GRADIENTCOLOR1ACI
 70
     0
  0
APPID
  2
GRADIENTCOLOR2ACI
 70
     0
  0
APPID
  2
AcDbAttr
 70
     0
  0
ENDTAB
  0
TABLE
  2
DIMSTYLE
 70
     2
  0
DIMSTYLE
  2
STANDARD
 70
     0
  3

  4

  5

  6

  7

 40
1.0
 41
0.18
 42
0.0625
 43
0.38
 44
0.18
 45
0.0
 46
0.0
 47
0.0
 48
0.0
140
0.18
141
0.09
142
0.0
143
25.3999999999999986
144
1.0
145
0.0
146
1.0
147
0.09
 71
     0
 72
     0
 73
     1
 74
     1
 75
     0
 76
     0
 77
     0
 78
     0
170
     0
171
     2
172
     0
173
     0
174
     0
175
     0
176
     0
177
     0
178
     0
  0
ENDTAB
  0
ENDSEC
  0
SECTION
  2
BLOCKS
  0
BLOCK
  8
0
  2
$MODEL_SPACE
 70
     0
 10
0.0
 20
0.0
 30
0.0
  3
$MODEL_SPACE
  1

  0
ENDBLK
  5
36
  8
0
  0
BLOCK
 67
     1
  8
0
  2
$PAPER_SPACE
 70
     0
 10
0.0
 20
0.0
 30
0.0
  3
$PAPER_SPACE
  1

  0
ENDBLK
  5
34
 67
     1
  8
0
  0
BLOCK
  8
0
  2
*S2
 70
     1
 10
0.0
 20
0.0
 30
0.0
  3
*S2
  1

  0
ENDBLK
  5
741
  8
0
  0
BLOCK
  8
0
  2
A$CC881F34D
 70
     0
 10
0.0
 20
0.0
 30
0.0
  3
A$CC881F34D
  1

  0
CIRCLE
  5
1623
  8
0
 10
170.5429039475768036
 20
225.5939850592797882
 30
0.0000000000000355
 40
5.5000000000001137
  0
CIRCLE
  5
1624
  8
0
 10
216.2774191150691081
 20
225.5939850592797882
 30
0.0000000000000426
 40
5.5000000000001137
  0
CIRCLE
  5
1625
  8
0
 10
119.4101615313227995
 20
155.215802853438305
 30
0.0000000000000213
 40
5.5000000000001128
  0
CIRCLE
  5
1626
  8
0
 10
170.5429039475768036
 20
84.8376206475968928
 30
0.0000000000000355
 40
5.5000000000001137
  0
CIRCLE
  5
1627
  8
0
 10
253.2774191150691934
 20
111.7196941837952977
 30
0.0000000000000497
 40
5.5000000000001137
  0
CIRCLE
  5
1628
  8
0
 10
267.4101615313231264
 20
155.215802853438305
 30
0.0000000000000568
 40
5.5000000000001128
  0
CIRCLE
  5
1629
  8
0
 10
216.2774191150691081
 20
84.8376206475968928
 30
0.0000000000000426
 40
5.5000000000001137
  0
CIRCLE
  5
162A
  8
0
 10
133.5429039475766899
 20
111.7196941837952977
 30
0.0000000000000284
 40
5.5000000000001137
  0
CIRCLE
  5
162B
  8
0
 10
133.5429039475766899
 20
198.7119115230813975
 30
0.0000000000000284
 40
5.5000000000001137
  0
CIRCLE
  5
162C
  8
0
 10
253.2774191150691934
 20
198.7119115230813975
 30
0.0000000000000497
 40
5.5000000000001137
  0
CIRCLE
  5
162D
  8
0
 10
193.410161531322899
 20
155.215802853438305
 30
0.0000000000000426
 40
86.0000000000001137
  0
CIRCLE
  5
162E
  8
0
 10
193.4101615313230127
 20
155.2158028534383902
 30
0.0000000000000426
 40
48.3153409706956722
  0
CIRCLE
  5
162F
  8
0
 10
193.4101615313230127
 20
155.2158028534383902
 30
0.0000000000000426
 40
50.9999999999998792
  0
CIRCLE
  5
1630
  8
0
 10
193.4101615313230127
 20
155.2158028534383902
 30
0.0000000000000426
 40
50.3077303668790705
  0
CIRCLE
  5
1631
  8
0
 10
193.410161531322899
 20
155.2158028534383902
 30
0.0000000000000426
 40
59.3192208867887274
  0
CIRCLE
  5
1632
  8
0
  6
VERDECKT
 62
     1
 10
193.410161531322899
 20
155.215802853438305
 30
0.0000000000000426
 40
57.7000000000003794
  0
CIRCLE
  5
1633
  8
0
  6
VERDECKT
 62
     1
 10
193.4101615313230127
 20
155.2158028534383902
 30
0.0000000000000426
 40
48.9999999999998792
  0
CIRCLE
  5
1634
  8
0
  6
VERDECKT
 62
     1
 10
193.410161531322899
 20
155.2158028534383902
 30
0.0000000000000426
 40
57.6999999999999673
  0
ENDBLK
  5
1636
  8
0
  0
BLOCK
  8
0
  2
A$C69584DF8
 70
     0
 10
0.0
 20
0.0
 30
0.0
  3
A$C69584DF8
  1

  0
LINE
  5
163A
  8
0
 10
279.4101615313230127
 20
-39.4999999999983586
 30
0.0000000000000088
 11
107.4101615313227995
 21
-39.4999999999982521
 31
0.0000000000000088
210
0.0
220
1.0
230
-0.0000000000000002
  0
LINE
  5
163B
  8
0
 10
279.4101615313230127
 20
-57.4999999999983586
 30
0.0000000000000128
 11
107.410161531322899
 21
-57.4999999999982521
 31
0.0000000000000128
210
0.0
220
1.0
230
-0.0000000000000002
  0
LINE
  5
163C
  8
0
 10
107.410161531322899
 20
-57.4999999999982521
 30
0.0000000000000128
 11
107.410161531322899
 21
-39.4999999999982379
 31
0.0000000000000088
210
0.0
220
1.0
230
-0.0000000000000002
  0
LINE
  5
163D
  8
0
 10
279.4101615313230127
 20
-57.4999999999983586
 30
0.0000000000000128
 11
279.4101615313230127
 21
-39.4999999999983586
 31
0.0000000000000088
210
0.0
220
1.0
230
-0.0000000000000002
  0
LINE
  5
163E
  8
0
 10
143.1024311644438001
 20
84.5000000000017053
 30
-0.0000000000000188
 11
243.7178918982021116
 21
84.5000000000017053
 31
-0.0000000000000188
210
0.0
220
1.0
230
-0.0000000000000002
  0
LINE
  5
163F
  8
0
 10
134.0909406445342995
 20
-38.326064857076183
 30
0.0000000000000085
 11
252.7293824181116122
 21
-38.3260648570762967
 31
0.0000000000000085
210
0.0
220
1.0
230
-0.0000000000000002
  0
ARC
  5
1640
  8
0
 10
-154.4101615313018101
 20
76.0633905709175053
 30
0.0
 40
11.9999999999787406
210
0.0
220
-0.0000000000000002
230
-1.0
 50
359.9999999999964189
 51
5.000000000005338
  0
ARC
  5
1641
  8
0
 10
-232.4101615313134914
 20
76.0633905709161553
 30
0.0
 40
12.0000000000093792
210
0.0
220
-0.0000000000000002
230
-1.0
 50
175.0000000000011084
 51
179.9999999999974989
  0
LINE
  5
1642
  8
0
 10
243.7178918982021116
 20
84.5000000000017053
 30
-0.0000000000000188
 11
244.3644979084238003
 21
77.109259483888664
 31
-0.0000000000000171
210
0.0
220
1.0
230
-0.0000000000000002
  0
LINE
  5
1643
  8
0
 10
143.1024311644436864
 20
84.5000000000017764
 30
-0.0000000000000188
 11
142.4558251542221115
 21
77.109259483888664
 31
-0.0000000000000171
210
0.0
220
1.0
230
-0.0000000000000002
  0
LINE
  5
1644
  8
0
 10
244.410161531322899
 20
76.0633905709166953
 30
-0.0000000000000169
 11
244.4101615313228137
 21
-24.2563871351212086
 31
0.0000000000000054
210
0.0
220
1.0
230
-0.0000000000000002
  0
LINE
  5
1645
  8
0
 10
142.410161531323098
 20
76.0633905709167237
 30
-0.0000000000000169
 11
142.4101615313230127
 21
-24.2563871351211091
 31
0.0000000000000054
210
0.0
220
1.0
230
-0.0000000000000002
  0
ARC
  5
1646
  8
0
 10
-134.4101615313234106
 20
-24.2563871351211588
 30
0.0
 40
7.9999999999998286
210
0.0
220
-0.0000000000000002
230
-1.0
 50
179.9999999999996874
 51
215.942111871383787
  0
ARC
  5
1647
  8
0
 10
-252.4101615313223874
 20
-24.2563871351212583
 30
0.0
 40
7.9999999999997744
210
0.0
220
-0.0000000000000002
230
-1.0
 50
324.057888128616014
 51
0.0000000000003371
  0
LINE
  5
1648
  8
0
 10
245.9332779841676029
 20
-28.9521277068087812
 30
0.0000000000000064
 11
252.7293824181116122
 21
-38.3260648570763109
 31
0.0000000000000085
210
0.0
220
1.0
230
-0.0000000000000002
  0
LINE
  5
1649
  8
0
 10
140.8870450784783088
 20
-28.9521277068087102
 30
0.0000000000000064
 11
134.0909406445342995
 21
-38.3260648570762328
 31
0.0000000000000085
210
0.0
220
1.0
230
-0.0000000000000002
  0
LINE
  5
164A
  8
0
 10
135.7101615313229956
 20
-39.4999999999980602
 30
0.0000000000000088
 11
134.0909406445341858
 21
-38.3260648570761688
 31
0.0000000000000085
210
0.0
220
1.0
230
-0.0000000000000002
  0
LINE
  5
164B
  8
0
 10
251.1101615313228876
 20
-39.499999999998181
 30
0.0000000000000088
 11
252.7293824181116122
 21
-38.3260648570762896
 31
0.0000000000000085
210
0.0
220
1.0
230
-0.0000000000000002
  0
LINE
  5
164C
  8
0
  6
VERDECKT
 62
     1
 10
113.9101615313227001
 20
-57.4999999999977334
 30
0.0000000000000128
 11
113.9101615313227995
 21
-39.4999999999976978
 31
0.0000000000000088
210
0.0
220
1.0
230
-0.0000000000000002
  0
LINE
  5
164D
  8
0
  6
VERDECKT
 62
     1
 10
124.910161531322899
 20
-57.4999999999983089
 30
0.0000000000000128
 11
124.9101615313229985
 21
-39.4999999999982521
 31
0.0000000000000088
210
0.0
220
1.0
230
-0.0000000000000002
  0
LINE
  5
164E
  8
0
  6
VERDECKT
 62
     1
 10
176.0429039475770026
 20
-39.499999999997911
 30
0.0000000000000088
 11
176.0429039475770026
 21
-57.4999999999979678
 31
0.0000000000000128
210
0.0
220
1.0
230
-0.0000000000000002
  0
LINE
  5
164F
  8
0
  6
VERDECKT
 62
     1
 10
165.0429039475766899
 20
-39.4999999999978968
 30
0.0000000000000088
 11
165.0429039475766899
 21
-57.4999999999979607
 31
0.0000000000000128
210
0.0
220
1.0
230
-0.0000000000000002
  0
LINE
  5
1650
  8
0
  6
VERDECKT
 62
     1
 10
247.7774191150691081
 20
-57.4999999999983018
 30
0.0000000000000128
 11
247.7774191150689944
 21
-39.4999999999982379
 31
0.0000000000000088
210
0.0
220
1.0
230
-0.0000000000000002
  0
LINE
  5
1651
  8
0
  6
VERDECKT
 62
     1
 10
258.7774191150692786
 20
-57.4999999999983231
 30
0.0000000000000128
 11
258.7774191150692218
 21
-39.4999999999982521
 31
0.0000000000000088
210
0.0
220
1.0
230
-0.0000000000000002
  0
LINE
  5
1652
  8
0
  6
VERDECKT
 62
     1
 10
272.9101615313231264
 20
-39.4999999999983089
 30
0.0000000000000088
 11
272.9101615313231832
 21
-57.4999999999983729
 31
0.0000000000000128
210
0.0
220
1.0
230
-0.0000000000000002
  0
LINE
  5
1653
  8
0
  6
VERDECKT
 62
     1
 10
261.910161531322899
 20
-39.4999999999982521
 30
0.0000000000000088
 11
261.9101615313230127
 21
-57.4999999999983089
 31
0.0000000000000128
210
0.0
220
1.0
230
-0.0000000000000002
  0
LINE
  5
1654
  8
0
  6
VERDECKT
 62
     1
 10
210.7774191150689092
 20
-57.4999999999981597
 30
0.0000000000000128
 11
210.7774191150689092
 21
-39.4999999999980673
 31
0.0000000000000088
210
0.0
220
1.0
230
-0.0000000000000002
  0
LINE
  5
1655
  8
0
  6
VERDECKT
 62
     1
 10
221.7774191150691934
 20
-57.4999999999981668
 30
0.0000000000000128
 11
221.7774191150691934
 21
-39.4999999999980815
 31
0.0000000000000088
210
0.0
220
1.0
230
-0.0000000000000002
  0
LINE
  5
1656
  8
0
  6
VERDECKT
 62
     1
 10
139.0429039475768889
 20
-39.4999999999977689
 30
0.0000000000000088
 11
139.0429039475768036
 21
-57.4999999999978328
 31
0.0000000000000128
210
0.0
220
1.0
230
-0.0000000000000002
  0
LINE
  5
1657
  8
0
  6
VERDECKT
 62
     1
 10
128.0429039475766047
 20
-39.4999999999977476
 30
0.0000000000000088
 11
128.0429039475766047
 21
-57.4999999999978186
 31
0.0000000000000128
210
0.0
220
1.0
230
-0.0000000000000002
  0
LINE
  5
1658
  8
0
  6
VERDECKT
 62
     1
 10
135.7101615313227114
 20
-57.4999999999983089
 30
0.0000000000000128
 11
135.7101615313227114
 21
-39.4999999999980886
 31
0.0000000000000088
210
0.0
220
1.0
230
-0.0000000000000002
  0
LINE
  5
1659
  8
0
  6
VERDECKT
 62
     1
 10
251.1101615313232003
 20
-57.4999999999983089
 30
0.0000000000000128
 11
251.1101615313232003
 21
-39.4999999999981881
 31
0.0000000000000088
210
0.0
220
1.0
230
-0.0000000000000002
  0
LINE
  5
165A
  8
0
  6
VERDECKT
 62
     1
 10
145.0948205606271983
 20
84.3256885145062967
 30
-0.0000000000000187
 11
241.7255025020187134
 21
84.3256885145062967
 31
-0.0000000000000187
210
0.0
220
1.0
230
-0.0000000000000002
  0
ARC
  5
165B
  8
0
  6
VERDECKT
 62
     1
 10
-154.4101615313055902
 20
76.0633905709173064
 30
0.0
 40
9.9999999999825775
210
0.0
220
-0.0000000000000002
230
-1.0
 50
359.9999999999968168
 51
5.0000000000050067
  0
ARC
  5
165C
  8
0
  6
VERDECKT
 62
     1
 10
-232.4101615313390994
 20
76.0633905709172637
 30
0.0
 40
9.9999999999837144
210
0.0
220
-0.0000000000000002
230
-1.0
 50
174.9999999999953104
 51
180.0000000000032117
  0
LINE
  5
165D
  8
0
  6
VERDECKT
 62
     1
 10
241.7255025020187134
 20
84.3256885145062967
 30
-0.0000000000000187
 11
242.3721085122402883
 21
76.9349479983932412
 31
-0.0000000000000171
210
0.0
220
1.0
230
-0.0000000000000002
  0
LINE
  5
165E
  8
0
  6
VERDECKT
 62
     1
 10
145.0948205606271983
 20
84.3256885145063393
 30
-0.0000000000000187
 11
144.448214550405595
 21
76.9349479983932412
 31
-0.0000000000000171
210
0.0
220
1.0
230
-0.0000000000000002
  0
LINE
  5
165F
  8
0
  6
VERDECKT
 62
     1
 10
242.410161531322899
 20
76.0633905709166953
 30
-0.0000000000000169
 11
242.4101615313228137
 21
-24.256387135121269
 31
0.0000000000000054
210
0.0
220
1.0
230
-0.0000000000000002
  0
LINE
  5
1660
  8
0
  6
VERDECKT
 62
     1
 10
144.410161531323098
 20
76.0633905709167237
 30
-0.0000000000000169
 11
144.4101615313230127
 21
-24.2563871351211695
 31
0.0000000000000054
210
0.0
220
1.0
230
-0.0000000000000002
  0
LINE
  5
1661
  8
0
  6
VERDECKT
 62
     1
 10
145.0948205606271983
 20
84.3256885145063961
 30
-0.0000000000000187
 11
143.1024311644438001
 21
84.500000000001819
 31
-0.0000000000000188
210
0.0
220
1.0
230
-0.0000000000000002
  0
LINE
  5
1662
  8
0
  6
VERDECKT
 62
     1
 10
241.7255025020187134
 20
84.3256885145062967
 30
-0.0000000000000187
 11
243.7178918982021116
 21
84.5000000000017337
 31
-0.0000000000000188
210
0.0
220
1.0
230
-0.0000000000000002
  0
LINE
  5
1663
  8
0
  6
VERDECKT
 62
     1
 10
244.3140570973787931
 20
-30.1260628497306016
 30
0.0000000000000067
 11
251.1101615313228876
 21
-39.499999999998181
 31
0.0000000000000088
210
0.0
220
1.0
230
-0.0000000000000002
  0
LINE
  5
1664
  8
0
  6
VERDECKT
 62
     1
 10
142.506265965267005
 20
-30.1260628497305305
 30
0.0000000000000067
 11
135.7101615313229956
 21
-39.49999999999811
 31
0.0000000000000088
210
0.0
220
1.0
230
-0.0000000000000002
  0
ARC
  5
1665
  8
0
  6
VERDECKT
 62
     1
 10
-134.4101615313225011
 20
-24.2563871351212015
 30
0.0
 40
10.0000000000005098
210
0.0
220
-0.0000000000000002
230
-1.0
 50
179.999999999999801
 51
215.9421118713802059
  0
ARC
  5
1666
  8
0
  6
VERDECKT
 62
     1
 10
-252.4101615313232969
 20
-24.256387135121301
 30
0.0
 40
10.0000000000004299
210
0.0
220
-0.0000000000000002
230
-1.0
 50
324.0578881286194814
 51
0.0000000000002036
  0
ENDBLK
  5
1668
  8
0
  0
ENDSEC
  0
SECTION
  2
ENTITIES
  0
TEXT
  5
8F
  8
VOLL
 10
78.076754716981128
 20
31.025947764705851
 30
0.0
 40
1.8
  1

  7
GREEKS
  0
INSERT
  5
743
  8
ADSK_ASSOC_ENTITY_BACKUPS
  2
*S2
 10
0.0
 20
0.0
 30
0.0
  0
INSERT
  5
1637
  8
STEMPEL
  2
A$CC881F34D
 10
198.3067814557689132
 20
-233.3612168991907083
 30
-30.1260628497305802
  0
INSERT
  5
1669
  8
STEMPEL
  2
A$C69584DF8
 10
198.3067814557689132
 20
104.5479659436644937
 30
-30.1260628497305483
  0
VIEWPORT
  5
722
 67
     1
  8
0
 10
27.2737099668401903
 20
214.3561067240127045
 30
0.0
 40
533.9969448798290159
 41
299.1239570917758783
 68
     1
 69
     1
1001
ACAD
1000
MVIEW
1002
{
1070
    16
1010
0.0
1020
0.0
1030
0.0
1010
0.0
1020
0.0
1030
1.0
1040
0.0
1040
299.1239570917758783
1040
27.2737099668401903
1040
214.3561067240127045
1040
50.0
1040
0.0
1040
0.0
1070
     0
1070
  1500
1070
     1
1070
     1
1070
     0
1070
     0
1070
     0
1070
     0
1040
0.0
1040
0.0
1040
0.0
1040
10.0
1040
10.0
1040
10.0
1040
10.0
1070
     0
1002
{
1002
}
1002
}
  0
ENDSEC
  0
EOF
