  0
SECTION
  2
HEADER
  9
$ACADVER
  1
AC1009
  9
$INSBASE
 10
0.0
 20
0.0
 30
0.0
  9
$EXTMIN
 10
294.0084886730252265
 20
-55.8119949598209573
 30
-20.63540354808557
  9
$EXTMAX
 10
434.0084886730251128
 20
258.6925831304818075
 30
-20.6354035480855202
  9
$LIMMIN
 10
0.0
 20
0.0
  9
$LIMMAX
 10
210.0
 20
297.0
  9
$ORTHOMODE
 70
     1
  9
$REGENMODE
 70
     1
  9
$FILLMODE
 70
     1
  9
$QTEXTMODE
 70
     0
  9
$MIRRTEXT
 70
     1
  9
$DRAGMODE
 70
     2
  9
$LTSCALE
 40
10.0
  9
$OSMODE
 70
  2495
  9
$ATTMODE
 70
     1
  9
$TEXTSIZE
 40
3.5
  9
$TRACEWID
 40
0.5
  9
$TEXTSTYLE
  7
STANDARD
  9
$CLAYER
  8
STEMPEL
  9
$CELTYPE
  6
BYLAYER
  9
$CECOLOR
 62
   256
  9
$DIMSCALE
 40
1.0
  9
$DIMASZ
 40
3.5
  9
$DIMEXO
 40
1.0
  9
$DIMDLI
 40
7.0
  9
$DIMRND
 40
0.0
  9
$DIMDLE
 40
0.0
  9
$DIMEXE
 40
1.0
  9
$DIMTP
 40
0.0
  9
$DIMTM
 40
0.0
  9
$DIMTXT
 40
3.5
  9
$DIMCEN
 40
1.5
  9
$DIMTSZ
 40
0.0
  9
$DIMTOL
 70
     0
  9
$DIMLIM
 70
     0
  9
$DIMTIH
 70
     0
  9
$DIMTOH
 70
     0
  9
$DIMSE1
 70
     0
  9
$DIMSE2
 70
     0
  9
$DIMTAD
 70
     1
  9
$DIMZIN
 70
     8
  9
$DIMBLK
  1

  9
$DIMASO
 70
     1
  9
$DIMSHO
 70
     0
  9
$DIMPOST
  1

  9
$DIMAPOST
  1

  9
$DIMALT
 70
     0
  9
$DIMALTD
 70
     2
  9
$DIMALTF
 40
25.3999999999999986
  9
$DIMLFAC
 40
2.0
  9
$DIMTOFL
 70
     1
  9
$DIMTVP
 40
0.0
  9
$DIMTIX
 70
     0
  9
$DIMSOXD
 70
     0
  9
$DIMSAH
 70
     0
  9
$DIMBLK1
  1

  9
$DIMBLK2
  1

  9
$DIMSTYLE
  2
STANDARD
  9
$DIMCLRD
 70
     0
  9
$DIMCLRE
 70
     0
  9
$DIMCLRT
 70
     1
  9
$DIMTFAC
 40
0.5
  9
$DIMGAP
 40
1.5
  9
$LUNITS
 70
     2
  9
$LUPREC
 70
     2
  9
$SKETCHINC
 40
1.0
  9
$FILLETRAD
 40
0.0
  9
$AUNITS
 70
     0
  9
$AUPREC
 70
     0
  9
$MENU
  1
ACAD
  9
$ELEVATION
 40
0.0
  9
$PELEVATION
 40
0.0
  9
$THICKNESS
 40
0.0
  9
$LIMCHECK
 70
     0
  9
$BLIPMODE
 70
     0
  9
$CHAMFERA
 40
0.0
  9
$CHAMFERB
 40
0.0
  9
$SKPOLY
 70
     0
  9
$TDCREATE
 40
2455397.8646990740671754
  9
$TDUPDATE
 40
2459627.5941666672006249
  9
$TDINDWG
 40
0.1144600926
  9
$TDUSRTIMER
 40
0.1144600926
  9
$USRTIMER
 70
     1
  9
$ANGBASE
 50
0.0
  9
$ANGDIR
 70
     0
  9
$PDMODE
 70
     0
  9
$PDSIZE
 40
0.0
  9
$PLINEWID
 40
0.0
  9
$COORDS
 70
     1
  9
$SPLFRAME
 70
     0
  9
$SPLINETYPE
 70
     6
  9
$SPLINESEGS
 70
     8
  9
$ATTDIA
 70
     1
  9
$ATTREQ
 70
     1
  9
$HANDLING
 70
     1
  9
$HANDSEED
  5
10E1
  9
$SURFTAB1
 70
     6
  9
$SURFTAB2
 70
     6
  9
$SURFTYPE
 70
     6
  9
$SURFU
 70
     6
  9
$SURFV
 70
     6
  9
$UCSNAME
  2

  9
$UCSORG
 10
0.0
 20
0.0
 30
0.0
  9
$UCSXDIR
 10
1.0
 20
0.0
 30
0.0
  9
$UCSYDIR
 10
0.0
 20
1.0
 30
0.0
  9
$PUCSNAME
  2

  9
$PUCSORG
 10
0.0
 20
0.0
 30
0.0
  9
$PUCSXDIR
 10
1.0
 20
0.0
 30
0.0
  9
$PUCSYDIR
 10
0.0
 20
1.0
 30
0.0
  9
$USERI1
 70
     0
  9
$USERI2
 70
     0
  9
$USERI3
 70
     0
  9
$USERI4
 70
     0
  9
$USERI5
 70
     0
  9
$USERR1
 40
0.0
  9
$USERR2
 40
0.0
  9
$USERR3
 40
0.0
  9
$USERR4
 40
0.0
  9
$USERR5
 40
0.0
  9
$WORLDVIEW
 70
     1
  9
$SHADEDGE
 70
     3
  9
$SHADEDIF
 70
    70
  9
$TILEMODE
 70
     1
  9
$MAXACTVP
 70
    16
  9
$PLIMCHECK
 70
     0
  9
$PEXTMIN
 10
1.0000000000000000E+20
 20
1.0000000000000000E+20
 30
1.0000000000000000E+20
  9
$PEXTMAX
 10
-1.0000000000000000E+20
 20
-1.0000000000000000E+20
 30
-1.0000000000000000E+20
  9
$PLIMMIN
 10
-79.0178512215232161
 20
65.8561067240127187
  9
$PLIMMAX
 10
130.9821487784768124
 20
362.8561067240127045
  9
$UNITMODE
 70
     0
  9
$VISRETAIN
 70
     0
  9
$PLINEGEN
 70
     0
  9
$PSLTSCALE
 70
     0
  0
ENDSEC
  0
SECTION
  2
TABLES
  0
TABLE
  2
VPORT
 70
     1
  0
VPORT
  2
*ACTIVE
 70
     0
 10
0.0
 20
0.0
 11
1.0
 21
1.0
 12
-0.0979880096340651
 22
-98.9906780835338651
 13
0.0
 23
0.0
 14
1.0
 24
1.0
 15
10.0
 25
10.0
 16
-0.0000000000001137
 26
0.0
 36
519.4603826591884399
 17
364.10647668265932
 27
200.4309721688642867
 37
-10.3177017740427495
 40
316.7537169085886148
 41
1.7852028639618129
 42
50.0
 43
0.0
 44
0.0
 50
0.0
 51
0.0
 71
     0
 72
  1500
 73
     1
 74
     0
 75
     0
 76
     0
 77
     0
 78
     0
  0
ENDTAB
  0
TABLE
  2
LTYPE
 70
     6
  0
LTYPE
  2
CONTINUOUS
 70
     0
  3
Solid line
 72
    65
 73
     0
 40
0.0
  0
LTYPE
  2
PHANTOM2
 70
     0
  3
Phantom (.5x) ___ _ _ ___ _ _ ___ _ _ ___ _ _
 72
    65
 73
     6
 40
1.25
 49
0.625
 49
-0.125
 49
0.125
 49
-0.125
 49
0.125
 49
-0.125
  0
LTYPE
  2
VERDECKT
 70
     0
  3
Verdeckt __ __ __ __ __ __ __ __ __ __ __ __ __
 72
    65
 73
     2
 40
0.375
 49
0.25
 49
-0.125
  0
ENDTAB
  0
TABLE
  2
LAYER
 70
    14
  0
LAYER
  2
0
 70
     0
 62
     7
  6
CONTINUOUS
  0
LAYER
  2
VOLL
 70
     0
 62
     1
  6
CONTINUOUS
  0
LAYER
  2
STEMPEL
 70
     0
 62
     3
  6
CONTINUOUS
  0
LAYER
  2
ADSK_ASSOC_ENTITY_BACKUPS
 70
     1
 62
    -7
  6
CONTINUOUS
  0
LAYER
  2
DEFPOINTS
 70
     0
 62
     7
  6
CONTINUOUS
  0
ENDTAB
  0
TABLE
  2
STYLE
 70
     4
  0
STYLE
  2
STANDARD
 70
     0
 40
0.0
 41
0.8
 50
0.0
 71
     0
 42
3.5
  3
simplex.shx
  4

  0
STYLE
  2
GREEKS
 70
     0
 40
0.0
 41
0.8
 50
0.0
 71
     0
 42
2.5
  3
SIMPLEX.shx
  4

  0
ENDTAB
  0
TABLE
  2
VIEW
 70
     1
  0
ENDTAB
  0
TABLE
  2
UCS
 70
     0
  0
ENDTAB
  0
TABLE
  2
APPID
 70
    21
  0
APPID
  2
ACAD
 70
     0
  0
APPID
  2
ACAD_NAV_VCDISPLAY
 70
     0
  0
APPID
  2
ACAD_MLEADERVER
 70
     0
  0
APPID
  2
ACAD_EXEMPT_FROM_CAD_STANDARDS
 70
     0
  0
APPID
  2
ACAD_PSEXT
 70
     0
  0
APPID
  2
ACAECLAYERSTANDARD
 70
     0
  0
APPID
  2
ACCMTRANSPARENCY
 70
     0
  0
APPID
  2
ACSYNERGY
 70
     0
  0
APPID
  2
SYNERGY_BODY_TBR_ID
 70
     0
  0
APPID
  2
ACAD_VIEW_EDGE_ID
 70
     0
  0
APPID
  2
ACAD_STEPID
 70
     0
  0
APPID
  2
ACSYNERGYSKETCH
 70
     0
  0
APPID
  2
ACAD_MODELDOC_XFORM
 70
     0
  0
APPID
  2
ACAD_DSTYLE_DIMJAG
 70
     0
  0
APPID
  2
ACAD_DSTYLE_DIMTALN
 70
     0
  0
APPID
  2
ACADANNOMONITORALERTICONDI
 70
     0
  0
APPID
  2
ACAD_DIMASSOC_CALC_DIMLFAC
 70
     0
  0
APPID
  2
ACAD_DIMASSOC_DIMLFAC
 70
     0
  0
APPID
  2
ACAD_DIMASSOC_OVERRIDDEN_D
 70
     0
  0
APPID
  2
ACAD_DSTYLE_DIMRADIAL_EXTENSION
 70
     0
  0
APPID
  2
AcDbAttr
 70
     0
  0
ENDTAB
  0
TABLE
  2
DIMSTYLE
 70
     2
  0
DIMSTYLE
  2
STANDARD
 70
     0
  3

  4

  5

  6

  7

 40
1.0
 41
0.18
 42
0.0625
 43
0.38
 44
0.18
 45
0.0
 46
0.0
 47
0.0
 48
0.0
140
0.18
141
0.09
142
0.0
143
25.3999999999999986
144
1.0
145
0.0
146
1.0
147
0.09
 71
     0
 72
     0
 73
     1
 74
     1
 75
     0
 76
     0
 77
     0
 78
     0
170
     0
171
     2
172
     0
173
     0
174
     0
175
     0
176
     0
177
     0
178
     0
  0
ENDTAB
  0
ENDSEC
  0
SECTION
  2
BLOCKS
  0
BLOCK
  8
0
  2
$MODEL_SPACE
 70
     0
 10
0.0
 20
0.0
 30
0.0
  3
$MODEL_SPACE
  1

  0
ENDBLK
  5
36
  8
0
  0
BLOCK
 67
     1
  8
0
  2
$PAPER_SPACE
 70
     0
 10
0.0
 20
0.0
 30
0.0
  3
$PAPER_SPACE
  1

  0
ENDBLK
  5
34
 67
     1
  8
0
  0
BLOCK
  8
0
  2
*S2
 70
     1
 10
0.0
 20
0.0
 30
0.0
  3
*S2
  1

  0
ENDBLK
  5
741
  8
0
  0
BLOCK
  8
0
  2
A$CF7E784CA
 70
     0
 10
0.0
 20
0.0
 30
0.0
  3
A$CF7E784CA
  1

  0
CIRCLE
  5
1046
  8
0
 10
193.410161531322899
 20
213.215802853438305
 30
0.0000000000000426
 40
5.5
  0
CIRCLE
  5
1047
  8
0
 10
135.410161531322899
 20
155.215802853438305
 30
0.0000000000000355
 40
5.5
  0
CIRCLE
  5
1048
  8
0
 10
251.410161531322899
 20
155.215802853438305
 30
0.0000000000000568
 40
5.5
  0
CIRCLE
  5
1049
  8
0
 10
193.410161531322899
 20
97.2158028534383334
 30
0.0000000000000426
 40
5.5
  0
CIRCLE
  5
104A
  8
0
 10
234.4223548401427877
 20
114.203609544618601
 30
0.0000000000000568
 40
5.5
  0
CIRCLE
  5
104B
  8
0
 10
152.3979682225034082
 20
114.203609544618601
 30
0.0000000000000355
 40
5.5
  0
CIRCLE
  5
104C
  8
0
 10
152.3979682225034082
 20
196.2279961622581084
 30
0.0000000000000355
 40
5.5
  0
CIRCLE
  5
104D
  8
0
 10
234.4223548401427877
 20
196.2279961622581084
 30
0.0000000000000568
 40
5.5
  0
CIRCLE
  5
104E
  8
0
 10
193.410161531322899
 20
155.215802853438305
 30
0.0000000000000426
 40
70.0
  0
CIRCLE
  5
104F
  8
0
 10
193.410161531323098
 20
155.215802853438305
 30
0.0000000000000426
 40
36.5000000000001066
  0
CIRCLE
  5
1050
  8
0
 10
193.410161531323098
 20
155.215802853438305
 30
0.0000000000000426
 40
35.8875793553185076
  0
CIRCLE
  5
1051
  8
0
 10
193.410161531323098
 20
155.215802853438305
 30
0.0000000000000426
 40
34.293667838371789
  0
CIRCLE
  5
1052
  8
0
 10
193.410161531322899
 20
155.215802853438305
 30
0.0000000000000426
 40
40.139213053721619
  0
CIRCLE
  5
1053
  8
0
  6
VERDECKT
 62
     1
 10
193.410161531322899
 20
155.215802853438305
 30
0.0000000000000426
 40
38.7000000000001592
  0
CIRCLE
  5
1054
  8
0
  6
VERDECKT
 62
     1
 10
193.410161531323098
 20
155.215802853438305
 30
0.0000000000000426
 40
34.8999999999999773
  0
CIRCLE
  5
1055
  8
0
  6
VERDECKT
 62
     1
 10
193.410161531322899
 20
155.215802853438305
 30
0.0000000000000426
 40
38.7000000000001592
  0
ENDBLK
  5
1057
  8
0
  0
BLOCK
  8
0
  2
A$C4F51277D
 70
     0
 10
0.0
 20
0.0
 30
0.0
  3
A$C4F51277D
  1

  0
LINE
  5
105B
  8
0
 10
263.410161531322899
 20
-43.4999999999983018
 30
0.0000000000000097
 11
123.410161531322899
 21
-43.4999999999981881
 31
0.0000000000000097
210
0.0
220
1.0
230
-0.0000000000000002
  0
LINE
  5
105C
  8
0
 10
263.410161531322899
 20
-57.4999999999983586
 30
0.0000000000000128
 11
123.410161531322899
 21
-57.4999999999982521
 31
0.0000000000000128
210
0.0
220
1.0
230
-0.0000000000000002
  0
LINE
  5
105D
  8
0
 10
123.410161531322899
 20
-57.4999999999982521
 30
0.0000000000000128
 11
123.410161531322899
 21
-43.4999999999981881
 31
0.0000000000000097
210
0.0
220
1.0
230
-0.0000000000000002
  0
LINE
  5
105E
  8
0
 10
263.410161531322899
 20
-57.4999999999983586
 30
0.0000000000000128
 11
263.410161531322899
 21
-43.4999999999983018
 31
0.0000000000000097
210
0.0
220
1.0
230
-0.0000000000000002
  0
LINE
  5
105F
  8
0
 10
157.5225821760045051
 20
77.50000000000189
 30
-0.0000000000000172
 11
229.2977408866416056
 21
77.50000000000189
 31
-0.0000000000000172
210
0.0
220
1.0
230
-0.0000000000000002
  0
LINE
  5
1060
  8
0
 10
153.2709484776013085
 20
-42.8009536596190969
 30
0.0000000000000095
 11
233.5493745850446032
 21
-42.8009536596192177
 31
0.0000000000000095
210
0.0
220
1.0
230
-0.0000000000000002
  0
ARC
  5
1061
  8
0
 10
-163.5101615313242007
 20
70.2118377768059503
 30
0.0
 40
6.6000000000012156
210
0.0
220
-0.0000000000000002
230
-1.0
 50
359.9999999999985221
 51
4.9999999999983276
  0
ARC
  5
1062
  8
0
 10
-223.3101615313348987
 20
70.2118377768061919
 30
0.0
 40
6.5999999999883121
210
0.0
220
-0.0000000000000002
230
-1.0
 50
174.999999999994003
 51
180.0000000000042064
  0
LINE
  5
1063
  8
0
 10
229.2977408866416056
 20
77.5000000000019469
 30
-0.0000000000000172
 11
229.8850465387286874
 21
70.787065678940408
 31
-0.0000000000000157
210
0.0
220
1.0
230
-0.0000000000000002
  0
LINE
  5
1064
  8
0
 10
157.5225821760045051
 20
77.5000000000019753
 30
-0.0000000000000172
 11
156.9352765239173948
 21
70.787065678940408
 31
-0.0000000000000157
210
0.0
220
1.0
230
-0.0000000000000002
  0
LINE
  5
1065
  8
0
 10
229.9101615313232116
 20
70.2118377768056945
 30
-0.0000000000000156
 11
229.9101615313232116
 21
-33.4683842352803893
 31
0.0000000000000074
210
0.0
220
1.0
230
-0.0000000000000002
  0
LINE
  5
1066
  8
0
 10
156.9101615313230127
 20
70.2118377768057798
 30
-0.0000000000000156
 11
156.910161531322899
 21
-33.4683842352803609
 31
0.0000000000000074
210
0.0
220
1.0
230
-0.0000000000000002
  0
ARC
  5
1067
  8
0
 10
-148.9101615313248885
 20
-33.4683842352812633
 30
0.0
 40
7.9999999999978684
210
0.0
220
-0.0000000000000002
230
-1.0
 50
179.9999999999936051
 51
205.9065079995141048
  0
ARC
  5
1068
  8
0
 10
-237.9101615313209948
 20
-33.4683842352812917
 30
0.0
 40
7.999999999997919
210
0.0
220
-0.0000000000000002
230
-1.0
 50
334.0934920004859805
 51
0.0000000000064629
  0
LINE
  5
1069
  8
0
 10
230.7140962627148895
 20
-36.9636159371756392
 30
0.0000000000000082
 11
233.5493745850446032
 21
-42.8009536596191467
 31
0.0000000000000095
210
0.0
220
1.0
230
-0.0000000000000002
  0
LINE
  5
106A
  8
0
 10
156.1062267999309938
 20
-36.9636159371755966
 30
0.0000000000000082
 11
153.2709484776013085
 21
-42.8009536596191111
 31
0.0000000000000095
210
0.0
220
1.0
230
-0.0000000000000002
  0
LINE
  5
106B
  8
0
 10
154.7101615313227967
 20
-43.499999999998181
 30
0.0000000000000097
 11
153.2709484776013085
 21
-42.8009536596191111
 31
0.0000000000000095
210
0.0
220
1.0
230
-0.0000000000000002
  0
LINE
  5
106C
  8
0
 10
232.1101615313230866
 20
-43.4999999999982379
 30
0.0000000000000097
 11
233.5493745850446032
 21
-42.8009536596191609
 31
0.0000000000000095
210
0.0
220
1.0
230
-0.0000000000000002
  0
LINE
  5
106D
  8
0
  6
VERDECKT
 62
     1
 10
129.910161531322899
 20
-57.4999999999983586
 30
0.0000000000000128
 11
129.910161531322899
 21
-43.4999999999983018
 31
0.0000000000000097
210
0.0
220
1.0
230
-0.0000000000000002
  0
LINE
  5
106E
  8
0
  6
VERDECKT
 62
     1
 10
140.910161531322899
 20
-57.4999999999983586
 30
0.0000000000000128
 11
140.910161531322899
 21
-43.4999999999982379
 31
0.0000000000000097
210
0.0
220
1.0
230
-0.0000000000000002
  0
LINE
  5
106F
  8
0
  6
VERDECKT
 62
     1
 10
256.9101615313230127
 20
-43.4999999999983018
 30
0.0000000000000097
 11
256.9101615313230127
 21
-57.4999999999983729
 31
0.0000000000000128
210
0.0
220
1.0
230
-0.0000000000000002
  0
LINE
  5
1070
  8
0
  6
VERDECKT
 62
     1
 10
245.9101615313230127
 20
-43.4999999999982379
 30
0.0000000000000097
 11
245.9101615313230127
 21
-57.4999999999983586
 31
0.0000000000000128
210
0.0
220
1.0
230
-0.0000000000000002
  0
LINE
  5
1071
  8
0
  6
VERDECKT
 62
     1
 10
187.910161531322899
 20
-57.4999999999983586
 30
0.0000000000000128
 11
187.910161531322899
 21
-43.4999999999983018
 31
0.0000000000000097
210
0.0
220
1.0
230
-0.0000000000000002
  0
LINE
  5
1072
  8
0
  6
VERDECKT
 62
     1
 10
198.910161531322899
 20
-57.4999999999983729
 30
0.0000000000000128
 11
198.910161531322899
 21
-43.4999999999983018
 31
0.0000000000000097
210
0.0
220
1.0
230
-0.0000000000000002
  0
LINE
  5
1073
  8
0
  6
VERDECKT
 62
     1
 10
228.9223548401427877
 20
-57.4999999999983586
 30
0.0000000000000128
 11
228.9223548401427877
 21
-43.4999999999983018
 31
0.0000000000000097
210
0.0
220
1.0
230
-0.0000000000000002
  0
LINE
  5
1074
  8
0
  6
VERDECKT
 62
     1
 10
239.9223548401427877
 20
-57.4999999999983729
 30
0.0000000000000128
 11
239.9223548401427877
 21
-43.4999999999983018
 31
0.0000000000000097
210
0.0
220
1.0
230
-0.0000000000000002
  0
LINE
  5
1075
  8
0
  6
VERDECKT
 62
     1
 10
157.8979682225034082
 20
-43.4999999999983018
 30
0.0000000000000097
 11
157.8979682225034082
 21
-57.4999999999983729
 31
0.0000000000000128
210
0.0
220
1.0
230
-0.0000000000000002
  0
LINE
  5
1076
  8
0
  6
VERDECKT
 62
     1
 10
146.8979682225034082
 20
-43.4999999999983018
 30
0.0000000000000097
 11
146.8979682225034082
 21
-57.4999999999983586
 31
0.0000000000000128
210
0.0
220
1.0
230
-0.0000000000000002
  0
LINE
  5
1077
  8
0
  6
VERDECKT
 62
     1
 10
232.1101615313237119
 20
-43.4999999999982379
 30
0.0000000000000097
 11
232.1101615313237119
 21
-57.4999999999983089
 31
0.0000000000000128
210
0.0
220
1.0
230
-0.0000000000000002
  0
LINE
  5
1078
  8
0
  6
VERDECKT
 62
     1
 10
154.7101615313221998
 20
-43.4999999999981526
 30
0.0000000000000097
 11
154.7101615313221998
 21
-57.4999999999983089
 31
0.0000000000000128
210
0.0
220
1.0
230
-0.0000000000000002
  0
LINE
  5
1079
  8
0
  6
VERDECKT
 62
     1
 10
159.116493692951309
 20
77.3605508116056768
 30
-0.0000000000000172
 11
227.703829369694887
 21
77.3605508116056768
 31
-0.0000000000000172
210
0.0
220
1.0
230
-0.0000000000000002
  0
ARC
  5
107A
  8
0
  6
VERDECKT
 62
     1
 10
-163.5101615313132868
 20
70.2118377768058792
 30
0.0
 40
4.999999999990222
210
0.0
220
-0.0000000000000002
230
-1.0
 50
359.9999999999968736
 51
5.0000000000055156
  0
ARC
  5
107B
  8
0
  6
VERDECKT
 62
     1
 10
-223.3101615313325112
 20
70.211837776805865
 30
0.0
 40
4.9999999999905631
210
0.0
220
-0.0000000000000002
230
-1.0
 50
174.9999999999945999
 51
180.0000000000032117
  0
LINE
  5
107C
  8
0
  6
VERDECKT
 62
     1
 10
228.3101615313231036
 20
70.2118377768055808
 30
-0.0000000000000156
 11
228.31016153132299
 21
-33.4683842352803893
 31
0.0000000000000074
210
0.0
220
1.0
230
-0.0000000000000002
  0
LINE
  5
107D
  8
0
  6
VERDECKT
 62
     1
 10
158.5101615313230923
 20
70.2118377768056092
 30
-0.0000000000000156
 11
158.510161531323007
 21
-33.4683842352803609
 31
0.0000000000000074
210
0.0
220
1.0
230
-0.0000000000000002
  0
LINE
  5
107E
  8
0
  6
VERDECKT
 62
     1
 10
227.703829369694887
 20
77.3605508116056768
 30
-0.0000000000000172
 11
228.2911350217817983
 21
70.6476164905437969
 31
-0.0000000000000157
210
0.0
220
1.0
230
-0.0000000000000002
  0
LINE
  5
107F
  8
0
  6
VERDECKT
 62
     1
 10
159.116493692951309
 20
77.3605508116057052
 30
-0.0000000000000172
 11
158.5291880408643124
 21
70.6476164905437969
 31
-0.0000000000000157
210
0.0
220
1.0
230
-0.0000000000000002
  0
LINE
  5
1080
  8
0
  6
VERDECKT
 62
     1
 10
229.2748832089934012
 20
-37.6626622775547801
 30
0.0000000000000084
 11
232.1101615313230866
 21
-43.4999999999982379
 31
0.0000000000000097
210
0.0
220
1.0
230
-0.0000000000000002
  0
LINE
  5
1081
  8
0
  6
VERDECKT
 62
     1
 10
157.5454398536525105
 20
-37.6626622775547517
 30
0.0000000000000084
 11
154.7101615313227967
 21
-43.4999999999981526
 31
0.0000000000000097
210
0.0
220
1.0
230
-0.0000000000000002
  0
ARC
  5
1082
  8
0
  6
VERDECKT
 62
     1
 10
-148.9101615313232969
 20
-33.468384235280368
 30
0.0
 40
9.5999999999996248
210
0.0
220
-0.0000000000000002
230
-1.0
 50
179.9999999999998863
 51
205.9065079995154974
  0
ARC
  5
1083
  8
0
  6
VERDECKT
 62
     1
 10
-237.9101615313221032
 20
-33.4683842352805812
 30
0.0
 40
9.5999999999991701
210
0.0
220
-0.0000000000000002
230
-1.0
 50
334.0934920004842752
 51
0.0000000000011577
  0
LINE
  5
1084
  8
0
  6
VERDECKT
 62
     1
 10
159.116493692951309
 20
77.3605508116056342
 30
-0.0000000000000172
 11
157.5225821760045051
 21
77.5000000000019043
 31
-0.0000000000000172
210
0.0
220
1.0
230
-0.0000000000000002
  0
LINE
  5
1085
  8
0
  6
VERDECKT
 62
     1
 10
227.703829369694887
 20
77.3605508116055915
 30
-0.0000000000000172
 11
229.2977408866416056
 21
77.5000000000018616
 31
-0.0000000000000172
210
0.0
220
1.0
230
-0.0000000000000002
  0
ENDBLK
  5
1087
  8
0
  0
ENDSEC
  0
SECTION
  2
ENTITIES
  0
TEXT
  5
8F
  8
VOLL
 10
78.076754716981128
 20
31.025947764705851
 30
0.0
 40
1.8
  1

  7
GREEKS
  0
INSERT
  5
743
  8
ADSK_ASSOC_ENTITY_BACKUPS
  2
*S2
 10
0.0
 20
0.0
 30
0.0
  0
INSERT
  5
1058
  8
STEMPEL
  2
A$CF7E784CA
 10
170.5983271417022138
 20
-141.0277978132592978
 30
-20.6354035480855806
  0
INSERT
  5
1088
  8
STEMPEL
  2
A$C4F51277D
 10
170.5983271417022138
 20
181.1925831304797896
 30
-20.6354035480855487
  0
VIEWPORT
  5
722
 67
     1
  8
0
 10
25.9821487784767911
 20
214.3561067240127045
 30
0.0
 40
533.9969448798290159
 41
299.1239570917758783
 68
     1
 69
     1
1001
ACAD
1000
MVIEW
1002
{
1070
    16
1010
0.0
1020
0.0
1030
0.0
1010
0.0
1020
0.0
1030
1.0
1040
0.0
1040
299.1239570917758783
1040
25.9821487784767911
1040
214.3561067240127045
1040
50.0
1040
0.0
1040
0.0
1070
     0
1070
  1500
1070
     1
1070
     1
1070
     0
1070
     0
1070
     0
1070
     0
1040
0.0
1040
0.0
1040
0.0
1040
10.0
1040
10.0
1040
10.0
1040
10.0
1070
     0
1002
{
1002
}
1002
}
  0
ENDSEC
  0
EOF
