  0
SECTION
  2
HEADER
  9
$ACADVER
  1
AC1009
  9
$INSBASE
 10
0.0
 20
0.0
 30
0.0
  9
$EXTMIN
 10
474.0057788954716216
 20
6.1712032093071221
 30
-60.9817591872332727
  9
$EXTMAX
 10
594.0057788954716216
 20
269.6206869868843228
 30
-60.9817591872332372
  9
$LIMMIN
 10
0.0
 20
0.0
  9
$LIMMAX
 10
210.0
 20
297.0
  9
$ORTHOMODE
 70
     1
  9
$REGENMODE
 70
     1
  9
$FILLMODE
 70
     1
  9
$QTEXTMODE
 70
     0
  9
$MIRRTEXT
 70
     1
  9
$DRAGMODE
 70
     2
  9
$LTSCALE
 40
10.0
  9
$OSMODE
 70
  2495
  9
$ATTMODE
 70
     1
  9
$TEXTSIZE
 40
3.5
  9
$TRACEWID
 40
0.5
  9
$TEXTSTYLE
  7
STANDARD
  9
$CLAYER
  8
STEMPEL
  9
$CELTYPE
  6
BYLAYER
  9
$CECOLOR
 62
   256
  9
$DIMSCALE
 40
1.0
  9
$DIMASZ
 40
3.5
  9
$DIMEXO
 40
1.0
  9
$DIMDLI
 40
7.0
  9
$DIMRND
 40
0.0
  9
$DIMDLE
 40
0.0
  9
$DIMEXE
 40
1.0
  9
$DIMTP
 40
0.0
  9
$DIMTM
 40
0.0
  9
$DIMTXT
 40
3.5
  9
$DIMCEN
 40
1.5
  9
$DIMTSZ
 40
0.0
  9
$DIMTOL
 70
     0
  9
$DIMLIM
 70
     0
  9
$DIMTIH
 70
     0
  9
$DIMTOH
 70
     0
  9
$DIMSE1
 70
     0
  9
$DIMSE2
 70
     0
  9
$DIMTAD
 70
     1
  9
$DIMZIN
 70
     8
  9
$DIMBLK
  1

  9
$DIMASO
 70
     1
  9
$DIMSHO
 70
     0
  9
$DIMPOST
  1

  9
$DIMAPOST
  1

  9
$DIMALT
 70
     0
  9
$DIMALTD
 70
     2
  9
$DIMALTF
 40
25.3999999999999986
  9
$DIMLFAC
 40
2.0
  9
$DIMTOFL
 70
     1
  9
$DIMTVP
 40
0.0
  9
$DIMTIX
 70
     0
  9
$DIMSOXD
 70
     0
  9
$DIMSAH
 70
     0
  9
$DIMBLK1
  1

  9
$DIMBLK2
  1

  9
$DIMSTYLE
  2
STANDARD
  9
$DIMCLRD
 70
     0
  9
$DIMCLRE
 70
     0
  9
$DIMCLRT
 70
     1
  9
$DIMTFAC
 40
0.5
  9
$DIMGAP
 40
1.5
  9
$LUNITS
 70
     2
  9
$LUPREC
 70
     2
  9
$SKETCHINC
 40
1.0
  9
$FILLETRAD
 40
0.0
  9
$AUNITS
 70
     0
  9
$AUPREC
 70
     0
  9
$MENU
  1
ACAD
  9
$ELEVATION
 40
0.0
  9
$PELEVATION
 40
0.0
  9
$THICKNESS
 40
0.0
  9
$LIMCHECK
 70
     0
  9
$BLIPMODE
 70
     0
  9
$CHAMFERA
 40
0.0
  9
$CHAMFERB
 40
0.0
  9
$SKPOLY
 70
     0
  9
$TDCREATE
 40
2455397.8646990740671754
  9
$TDUPDATE
 40
2459627.5810185191221535
  9
$TDINDWG
 40
0.134517963
  9
$TDUSRTIMER
 40
0.134517963
  9
$USRTIMER
 70
     1
  9
$ANGBASE
 50
0.0
  9
$ANGDIR
 70
     0
  9
$PDMODE
 70
     0
  9
$PDSIZE
 40
0.0
  9
$PLINEWID
 40
0.0
  9
$COORDS
 70
     1
  9
$SPLFRAME
 70
     0
  9
$SPLINETYPE
 70
     6
  9
$SPLINESEGS
 70
     8
  9
$ATTDIA
 70
     1
  9
$ATTREQ
 70
     1
  9
$HANDLING
 70
     1
  9
$HANDSEED
  5
1353
  9
$SURFTAB1
 70
     6
  9
$SURFTAB2
 70
     6
  9
$SURFTYPE
 70
     6
  9
$SURFU
 70
     6
  9
$SURFV
 70
     6
  9
$UCSNAME
  2

  9
$UCSORG
 10
0.0
 20
0.0
 30
0.0
  9
$UCSXDIR
 10
1.0
 20
0.0
 30
0.0
  9
$UCSYDIR
 10
0.0
 20
1.0
 30
0.0
  9
$PUCSNAME
  2

  9
$PUCSORG
 10
0.0
 20
0.0
 30
0.0
  9
$PUCSXDIR
 10
1.0
 20
0.0
 30
0.0
  9
$PUCSYDIR
 10
0.0
 20
1.0
 30
0.0
  9
$USERI1
 70
     0
  9
$USERI2
 70
     0
  9
$USERI3
 70
     0
  9
$USERI4
 70
     0
  9
$USERI5
 70
     0
  9
$USERR1
 40
0.0
  9
$USERR2
 40
0.0
  9
$USERR3
 40
0.0
  9
$USERR4
 40
0.0
  9
$USERR5
 40
0.0
  9
$WORLDVIEW
 70
     1
  9
$SHADEDGE
 70
     3
  9
$SHADEDIF
 70
    70
  9
$TILEMODE
 70
     1
  9
$MAXACTVP
 70
    16
  9
$PLIMCHECK
 70
     0
  9
$PEXTMIN
 10
1.0000000000000000E+20
 20
1.0000000000000000E+20
 30
1.0000000000000000E+20
  9
$PEXTMAX
 10
-1.0000000000000000E+20
 20
-1.0000000000000000E+20
 30
-1.0000000000000000E+20
  9
$PLIMMIN
 10
-71.9801639062857532
 20
34.9226416777541999
  9
$PLIMMAX
 10
138.0198360937141899
 20
331.9226416777541999
  9
$UNITMODE
 70
     0
  9
$VISRETAIN
 70
     0
  9
$PLINEGEN
 70
     0
  9
$PSLTSCALE
 70
     0
  0
ENDSEC
  0
SECTION
  2
TABLES
  0
TABLE
  2
VPORT
 70
     1
  0
VPORT
  2
*ACTIVE
 70
     0
 10
0.0
 20
0.0
 11
1.0
 21
1.0
 12
-1.260425115083279
 22
-78.4711231505751243
 13
0.0
 23
0.0
 14
1.0
 24
1.0
 15
10.0
 25
10.0
 16
-0.0000000000001137
 26
0.0
 36
452.5637511798307742
 17
535.2662040105549295
 27
216.3670682486707904
 37
-30.4908795936166683
 40
265.3335086913619989
 41
1.7852028639618129
 42
50.0
 43
0.0
 44
0.0
 50
0.0
 51
0.0
 71
     0
 72
  1500
 73
     1
 74
     0
 75
     0
 76
     0
 77
     0
 78
     0
  0
ENDTAB
  0
TABLE
  2
LTYPE
 70
     6
  0
LTYPE
  2
CONTINUOUS
 70
     0
  3
Solid line
 72
    65
 73
     0
 40
0.0
  0
LTYPE
  2
PHANTOM2
 70
     0
  3
Phantom (.5x) ___ _ _ ___ _ _ ___ _ _ ___ _ _
 72
    65
 73
     6
 40
1.25
 49
0.625
 49
-0.125
 49
0.125
 49
-0.125
 49
0.125
 49
-0.125
  0
LTYPE
  2
VERDECKT
 70
     0
  3
Verdeckt __ __ __ __ __ __ __ __ __ __ __ __ __
 72
    65
 73
     2
 40
0.375
 49
0.25
 49
-0.125
  0
ENDTAB
  0
TABLE
  2
LAYER
 70
    14
  0
LAYER
  2
0
 70
     0
 62
     7
  6
CONTINUOUS
  0
LAYER
  2
VOLL
 70
     0
 62
     1
  6
CONTINUOUS
  0
LAYER
  2
STEMPEL
 70
     0
 62
     3
  6
CONTINUOUS
  0
LAYER
  2
ADSK_ASSOC_ENTITY_BACKUPS
 70
     1
 62
    -7
  6
CONTINUOUS
  0
LAYER
  2
DEFPOINTS
 70
     0
 62
     7
  6
CONTINUOUS
  0
ENDTAB
  0
TABLE
  2
STYLE
 70
     4
  0
STYLE
  2
STANDARD
 70
     0
 40
0.0
 41
0.8
 50
0.0
 71
     0
 42
3.5
  3
simplex.shx
  4

  0
STYLE
  2
GREEKS
 70
     0
 40
0.0
 41
0.8
 50
0.0
 71
     0
 42
2.5
  3
SIMPLEX.shx
  4

  0
ENDTAB
  0
TABLE
  2
VIEW
 70
     1
  0
ENDTAB
  0
TABLE
  2
UCS
 70
     0
  0
ENDTAB
  0
TABLE
  2
APPID
 70
    21
  0
APPID
  2
ACAD
 70
     0
  0
APPID
  2
ACAD_NAV_VCDISPLAY
 70
     0
  0
APPID
  2
ACAD_MLEADERVER
 70
     0
  0
APPID
  2
ACAD_EXEMPT_FROM_CAD_STANDARDS
 70
     0
  0
APPID
  2
ACAD_PSEXT
 70
     0
  0
APPID
  2
ACAECLAYERSTANDARD
 70
     0
  0
APPID
  2
ACCMTRANSPARENCY
 70
     0
  0
APPID
  2
ACAD_STEPID
 70
     0
  0
APPID
  2
ACSYNERGY
 70
     0
  0
APPID
  2
SYNERGY_BODY_TBR_ID
 70
     0
  0
APPID
  2
ACAD_VIEW_EDGE_ID
 70
     0
  0
APPID
  2
ACSYNERGYSKETCH
 70
     0
  0
APPID
  2
ACAD_MODELDOC_XFORM
 70
     0
  0
APPID
  2
ACAD_DSTYLE_DIMJAG
 70
     0
  0
APPID
  2
ACAD_DSTYLE_DIMTALN
 70
     0
  0
APPID
  2
ACADANNOMONITORALERTICONDI
 70
     0
  0
APPID
  2
ACAD_DIMASSOC_CALC_DIMLFAC
 70
     0
  0
APPID
  2
ACAD_DIMASSOC_DIMLFAC
 70
     0
  0
APPID
  2
ACAD_DIMASSOC_OVERRIDDEN_D
 70
     0
  0
APPID
  2
ACAD_DSTYLE_DIMRADIAL_EXTENSION
 70
     0
  0
APPID
  2
AcDbAttr
 70
     0
  0
ENDTAB
  0
TABLE
  2
DIMSTYLE
 70
     2
  0
DIMSTYLE
  2
STANDARD
 70
     0
  3

  4

  5

  6

  7

 40
1.0
 41
0.18
 42
0.0625
 43
0.38
 44
0.18
 45
0.0
 46
0.0
 47
0.0
 48
0.0
140
0.18
141
0.09
142
0.0
143
25.3999999999999986
144
1.0
145
0.0
146
1.0
147
0.09
 71
     0
 72
     0
 73
     1
 74
     1
 75
     0
 76
     0
 77
     0
 78
     0
170
     0
171
     2
172
     0
173
     0
174
     0
175
     0
176
     0
177
     0
178
     0
  0
ENDTAB
  0
ENDSEC
  0
SECTION
  2
BLOCKS
  0
BLOCK
  8
0
  2
$MODEL_SPACE
 70
     0
 10
0.0
 20
0.0
 30
0.0
  3
$MODEL_SPACE
  1

  0
ENDBLK
  5
36
  8
0
  0
BLOCK
 67
     1
  8
0
  2
$PAPER_SPACE
 70
     0
 10
0.0
 20
0.0
 30
0.0
  3
$PAPER_SPACE
  1

  0
ENDBLK
  5
34
 67
     1
  8
0
  0
BLOCK
  8
0
  2
*S2
 70
     1
 10
0.0
 20
0.0
 30
0.0
  3
*S2
  1

  0
ENDBLK
  5
74D
  8
0
  0
BLOCK
  8
0
  2
A$C6D782D52
 70
     0
 10
0.0
 20
0.0
 30
0.0
  3
A$C6D782D52
  1

  0
CIRCLE
  5
12BC
  8
0
 10
381.3046702255491027
 20
206.8941908258497904
 30
-0.0000000000000853
 40
26.4999999999998899
  0
CIRCLE
  5
12BD
  8
0
 10
381.3046702255491027
 20
206.8941908258497904
 30
-0.0000000000000853
 40
25.893309111633581
  0
CIRCLE
  5
12BE
  8
0
 10
381.3046702255491027
 20
206.8941908258497904
 30
-0.0000000000000853
 40
24.3990170644958688
  0
CIRCLE
  5
12BF
  8
0
 10
381.304670225548989
 20
206.8941908258497904
 30
-0.0000000000000853
 40
32.0222199550432833
  0
CIRCLE
  5
12C0
  8
0
 10
357.304670225548989
 20
248.4634102075027897
 30
-0.0000000000000782
 40
5.5
  0
CIRCLE
  5
12C1
  8
0
 10
429.3046702255488754
 20
206.8941908258497051
 30
-0.0000000000000995
 40
5.5
  0
CIRCLE
  5
12C2
  8
0
 10
357.304670225548989
 20
165.3249714441967058
 30
-0.0000000000000782
 40
5.5
  0
CIRCLE
  5
12C3
  8
0
 10
405.304670225548989
 20
165.3249714441967058
 30
-0.0000000000000924
 40
5.5
  0
CIRCLE
  5
12C4
  8
0
 10
405.304670225548989
 20
248.4634102075027897
 30
-0.0000000000000924
 40
5.5
  0
CIRCLE
  5
12C5
  8
0
 10
333.304670225548989
 20
206.8941908258497051
 30
-0.0000000000000782
 40
5.5
  0
CIRCLE
  5
12C6
  8
0
 10
381.304670225548989
 20
206.8941908258497051
 30
-0.0000000000000853
 40
59.9999999999999432
  0
CIRCLE
  5
12C7
  8
0
  6
VERDECKT
 62
     1
 10
381.3046702255491027
 20
206.8941908258497904
 30
-0.0000000000000853
 40
24.9999999999998899
  0
CIRCLE
  5
12C8
  8
0
  6
VERDECKT
 62
     1
 10
381.304670225548989
 20
206.8941908258497904
 30
-0.0000000000000853
 40
30.700000000000049
  0
CIRCLE
  5
12C9
  8
0
  6
VERDECKT
 62
     1
 10
381.304670225548989
 20
206.8941908258497051
 30
-0.0000000000000853
 40
30.6999999999999886
  0
ENDBLK
  5
12CB
  8
0
  0
BLOCK
  8
0
  2
A$CD1ED6AFB
 70
     0
 10
0.0
 20
0.0
 30
0.0
  3
A$CD1ED6AFB
  1

  0
LINE
  5
12CF
  8
0
 10
355.4113611139155182
 20
58.0000000000000071
 30
-0.0000000000000129
 11
407.1979793371825735
 21
57.9999999999999005
 31
-0.0000000000000129
210
0.0
220
1.0
230
-0.0000000000000002
  0
LINE
  5
12D0
  8
0
 10
349.2824502705057057
 20
-34.291667881226779
 30
0.0000000000000076
 11
413.3268901805922155
 21
-34.2916678812268927
 31
0.0000000000000076
210
0.0
220
1.0
230
-0.0000000000000002
  0
ARC
  5
12D1
  8
0
 10
-361.3046702255617788
 20
50.7816952854569621
 30
0.0
 40
6.5000000000126192
210
0.0
220
-0.0000000000000002
230
-1.0
 50
0.0
 51
4.9999999999898384
  0
ARC
  5
12D2
  8
0
 10
-401.3046702255356877
 20
50.7816952854569266
 30
0.0
 40
6.5000000000132454
210
0.0
220
-0.0000000000000002
230
-1.0
 50
175.0000000000032969
 51
179.9999999999928946
  0
LINE
  5
12D3
  8
0
 10
407.1979793371825735
 20
57.9999999999999503
 30
-0.0000000000000129
 11
407.7799357631453177
 21
51.3482076133174914
 31
-0.0000000000000114
210
0.0
220
1.0
230
-0.0000000000000002
  0
LINE
  5
12D4
  8
0
 10
355.4113611139155751
 20
57.9999999999999787
 30
-0.0000000000000129
 11
354.8294046879527741
 21
51.3482076133174914
 31
-0.0000000000000114
210
0.0
220
1.0
230
-0.0000000000000002
  0
LINE
  5
12D5
  8
0
 10
407.804670225548989
 20
50.7816952854577295
 30
-0.0000000000000113
 11
407.8046702255488754
 21
-21.9756517792599801
 31
0.0000000000000049
210
0.0
220
1.0
230
-0.0000000000000002
  0
LINE
  5
12D6
  8
0
 10
354.8046702255492733
 20
50.7816952854577508
 30
-0.0000000000000113
 11
354.8046702255492164
 21
-21.9756517792599517
 31
0.0000000000000049
210
0.0
220
1.0
230
-0.0000000000000002
  0
ARC
  5
12D7
  8
0
 10
-346.8046702255517175
 20
-21.9756517792606196
 30
0.0
 40
7.999999999997442
210
0.0
220
-0.0000000000000002
230
-1.0
 50
179.9999999999951967
 51
208.178590109962613
  0
ARC
  5
12D8
  8
0
 10
-415.8046702255464879
 20
-21.975651779260641
 30
0.0
 40
7.9999999999976721
210
0.0
220
-0.0000000000000002
230
-1.0
 50
331.8214098900377849
 51
0.0000000000047186
  0
LINE
  5
12D9
  8
0
 10
408.7528304653185955
 20
-25.7534230793831895
 30
0.0000000000000057
 11
413.3268901805922724
 21
-34.2916678812268785
 31
0.0000000000000076
210
0.0
220
1.0
230
-0.0000000000000002
  0
LINE
  5
12DA
  8
0
 10
353.8565099857793257
 20
-25.7534230793831114
 30
0.0000000000000057
 11
349.282450270505592
 21
-34.2916678812267932
 31
0.0000000000000076
210
0.0
220
1.0
230
-0.0000000000000002
  0
LINE
  5
12DB
  8
0
 10
350.6046702255488867
 20
-34.9999999999999218
 30
0.0000000000000078
 11
349.2824502705057057
 21
-34.2916678812268074
 31
0.0000000000000076
210
0.0
220
1.0
230
-0.0000000000000002
  0
LINE
  5
12DC
  8
0
 10
412.0046702255489777
 20
-34.9999999999999929
 30
0.0000000000000078
 11
413.3268901805922155
 21
-34.2916678812268714
 31
0.0000000000000076
210
0.0
220
1.0
230
-0.0000000000000002
  0
LINE
  5
12DD
  8
0
 10
321.304670225548989
 20
-46.9999999999999716
 30
0.0000000000000104
 11
441.3046702255488754
 21
-46.9999999999999005
 31
0.0000000000000104
210
0.0
220
1.0
230
-0.0000000000000002
  0
LINE
  5
12DE
  8
0
 10
321.304670225548989
 20
-34.9999999999999716
 30
0.0000000000000078
 11
441.3046702255488754
 21
-34.9999999999999005
 31
0.0000000000000078
210
0.0
220
1.0
230
-0.0000000000000002
  0
LINE
  5
12DF
  8
0
 10
441.3046702255488754
 20
-34.9999999999999076
 30
0.0000000000000078
 11
441.3046702255488754
 21
-46.9999999999999076
 31
0.0000000000000104
210
0.0
220
1.0
230
-0.0000000000000002
  0
LINE
  5
12E0
  8
0
 10
321.304670225548989
 20
-34.9999999999999716
 30
0.0000000000000078
 11
321.304670225548989
 21
-46.9999999999999716
 31
0.0000000000000104
210
0.0
220
1.0
230
-0.0000000000000002
  0
LINE
  5
12E1
  8
0
  6
VERDECKT
 62
     1
 10
356.9056531610531806
 20
57.8692663858784684
 30
-0.0000000000000128
 11
405.7036872900449112
 21
57.8692663858784684
 31
-0.0000000000000128
210
0.0
220
1.0
230
-0.0000000000000002
  0
ARC
  5
12E2
  8
0
  6
VERDECKT
 62
     1
 10
-361.3046702255418836
 20
50.7816952854589374
 30
0.0
 40
4.9999999999926672
210
0.0
220
-0.0000000000000002
230
-1.0
 50
359.9999999999968168
 51
5.0000000000042819
  0
ARC
  5
12E3
  8
0
  6
VERDECKT
 62
     1
 10
-401.3046702255556966
 20
50.7816952854589232
 30
0.0
 40
4.9999999999932347
210
0.0
220
-0.0000000000000002
230
-1.0
 50
174.9999999999959925
 51
180.0000000000032117
  0
LINE
  5
12E4
  8
0
  6
VERDECKT
 62
     1
 10
406.304670225548989
 20
50.7816952854586319
 30
-0.0000000000000113
 11
406.3046702255488754
 21
-21.9756517792599801
 31
0.0000000000000049
210
0.0
220
1.0
230
-0.0000000000000002
  0
LINE
  5
12E5
  8
0
  6
VERDECKT
 62
     1
 10
356.3046702255492733
 20
50.7816952854586674
 30
-0.0000000000000113
 11
356.3046702255491027
 21
-21.9756517792599517
 31
0.0000000000000049
210
0.0
220
1.0
230
-0.0000000000000002
  0
LINE
  5
12E6
  8
0
  6
VERDECKT
 62
     1
 10
405.7036872900449112
 20
57.8692663858784684
 30
-0.0000000000000128
 11
406.2856437160077121
 21
51.2174739991969687
 31
-0.0000000000000114
210
0.0
220
1.0
230
-0.0000000000000002
  0
LINE
  5
12E7
  8
0
  6
VERDECKT
 62
     1
 10
356.9056531610531806
 20
57.8692663858784968
 30
-0.0000000000000128
 11
356.3236967350904933
 21
51.2174739991969687
 31
-0.0000000000000114
210
0.0
220
1.0
230
-0.0000000000000002
  0
LINE
  5
12E8
  8
0
  6
VERDECKT
 62
     1
 10
407.4306105102756987
 20
-26.4617551981562791
 30
0.0000000000000059
 11
412.0046702255489777
 21
-35.0000000000000213
 31
0.0000000000000078
210
0.0
220
1.0
230
-0.0000000000000002
  0
LINE
  5
12E9
  8
0
  6
VERDECKT
 62
     1
 10
355.1787299408222225
 20
-26.4617551981562507
 30
0.0000000000000059
 11
350.6046702255488867
 21
-34.9999999999999432
 31
0.0000000000000078
210
0.0
220
1.0
230
-0.0000000000000002
  0
ARC
  5
12EA
  8
0
  6
VERDECKT
 62
     1
 10
-346.8046702255509786
 20
-21.9756517792598807
 30
0.0
 40
9.4999999999979536
210
0.0
220
-0.0000000000000002
230
-1.0
 50
180.0000000000003979
 51
208.1785901099648015
  0
ARC
  5
12EB
  8
0
  6
VERDECKT
 62
     1
 10
-415.8046702255469995
 20
-21.9756517792599091
 30
0.0
 40
9.4999999999980673
210
0.0
220
-0.0000000000000002
230
-1.0
 50
331.8214098900353974
 51
359.9999999999996021
  0
LINE
  5
12EC
  8
0
  6
VERDECKT
 62
     1
 10
356.9056531610531806
 20
57.8692663858784897
 30
-0.0000000000000128
 11
355.4113611139155182
 21
57.9999999999999787
 31
-0.0000000000000129
210
0.0
220
1.0
230
-0.0000000000000002
  0
LINE
  5
12ED
  8
0
  6
VERDECKT
 62
     1
 10
405.7036872900449112
 20
57.8692663858784471
 30
-0.0000000000000128
 11
407.1979793371825735
 21
57.9999999999999289
 31
-0.0000000000000129
210
0.0
220
1.0
230
-0.0000000000000002
  0
LINE
  5
12EE
  8
0
  6
VERDECKT
 62
     1
 10
434.804670225548989
 20
-34.9999999999999076
 30
0.0000000000000078
 11
434.804670225548989
 21
-46.9999999999999289
 31
0.0000000000000104
210
0.0
220
1.0
230
-0.0000000000000002
  0
LINE
  5
12EF
  8
0
  6
VERDECKT
 62
     1
 10
423.8046702255488754
 20
-34.9999999999999076
 30
0.0000000000000078
 11
423.8046702255488754
 21
-46.9999999999999289
 31
0.0000000000000104
210
0.0
220
1.0
230
-0.0000000000000002
  0
LINE
  5
12F0
  8
0
  6
VERDECKT
 62
     1
 10
351.804670225548989
 20
-46.9999999999999289
 30
0.0000000000000104
 11
351.804670225548989
 21
-34.9999999999999076
 31
0.0000000000000078
210
0.0
220
1.0
230
-0.0000000000000002
  0
LINE
  5
12F1
  8
0
  6
VERDECKT
 62
     1
 10
362.804670225548989
 20
-46.9999999999999289
 30
0.0000000000000104
 11
362.804670225548989
 21
-34.9999999999999076
 31
0.0000000000000078
210
0.0
220
1.0
230
-0.0000000000000002
  0
LINE
  5
12F2
  8
0
  6
VERDECKT
 62
     1
 10
410.804670225548989
 20
-34.9999999999999076
 30
0.0000000000000078
 11
410.804670225548989
 21
-46.9999999999999289
 31
0.0000000000000104
210
0.0
220
1.0
230
-0.0000000000000002
  0
LINE
  5
12F3
  8
0
  6
VERDECKT
 62
     1
 10
399.804670225548989
 20
-34.9999999999999076
 30
0.0000000000000078
 11
399.804670225548989
 21
-46.9999999999999289
 31
0.0000000000000104
210
0.0
220
1.0
230
-0.0000000000000002
  0
LINE
  5
12F4
  8
0
  6
VERDECKT
 62
     1
 10
327.804670225548989
 20
-46.9999999999999289
 30
0.0000000000000104
 11
327.804670225548989
 21
-34.9999999999999076
 31
0.0000000000000078
210
0.0
220
1.0
230
-0.0000000000000002
  0
LINE
  5
12F5
  8
0
  6
VERDECKT
 62
     1
 10
338.804670225548989
 20
-46.9999999999999289
 30
0.0000000000000104
 11
338.804670225548989
 21
-34.9999999999999076
 31
0.0000000000000078
210
0.0
220
1.0
230
-0.0000000000000002
  0
LINE
  5
12F6
  8
0
  6
VERDECKT
 62
     1
 10
350.6046702255490004
 20
-46.9999999999999289
 30
0.0000000000000104
 11
350.6046702255490004
 21
-34.9999999999999503
 31
0.0000000000000078
210
0.0
220
1.0
230
-0.0000000000000002
  0
LINE
  5
12F7
  8
0
  6
VERDECKT
 62
     1
 10
412.0046702255489208
 20
-46.9999999999999289
 30
0.0000000000000104
 11
412.0046702255489208
 21
-34.9999999999999076
 31
0.0000000000000078
210
0.0
220
1.0
230
-0.0000000000000002
  0
ENDBLK
  5
12F9
  8
0
  0
ENDSEC
  0
SECTION
  2
ENTITIES
  0
TEXT
  5
8F
  8
VOLL
 10
78.076754716981128
 20
31.025947764705851
 30
0.0
 40
1.8
  1

  7
GREEKS
  0
INSERT
  5
74F
  8
ADSK_ASSOC_ENTITY_BACKUPS
  2
*S2
 10
0.0
 20
0.0
 30
0.0
  0
INSERT
  5
12CC
  8
STEMPEL
  2
A$C6D782D52
 10
152.7011086699226041
 20
-140.7229876165426958
 30
-60.981759187233159
  0
INSERT
  5
12FA
  8
STEMPEL
  2
A$CD1ED6AFB
 10
152.7011086699226041
 20
211.6206869868842091
 30
-60.9817591872332514
  0
VIEWPORT
  5
72E
 67
     1
  8
0
 10
33.0198360937142468
 20
183.4226416777540862
 30
0.0
 40
533.9969448798290159
 41
299.1239570917758783
 68
     1
 69
     1
1001
ACAD
1000
MVIEW
1002
{
1070
    16
1010
0.0
1020
0.0
1030
0.0
1010
0.0
1020
0.0
1030
1.0
1040
0.0
1040
299.1239570917758783
1040
33.0198360937142468
1040
183.4226416777540862
1040
50.0
1040
0.0
1040
0.0
1070
     0
1070
  1500
1070
     1
1070
     1
1070
     0
1070
     0
1070
     0
1070
     0
1040
0.0
1040
0.0
1040
0.0
1040
10.0
1040
10.0
1040
10.0
1040
10.0
1070
     0
1002
{
1002
}
1002
}
  0
ENDSEC
  0
EOF
