  0
SECTION
  2
HEADER
  9
$ACADVER
  1
AC1009
  9
$INSBASE
 10
0.0
 20
0.0
 30
0.0
  9
$EXTMIN
 10
655.3643917314423106
 20
93.4038219445765776
 30
-38.492137871519887
  9
$EXTMAX
 10
855.3643917314421969
 20
511.4884265653698208
 30
-38.4921378715198514
  9
$LIMMIN
 10
0.0
 20
0.0
  9
$LIMMAX
 10
210.0
 20
297.0
  9
$ORTHOMODE
 70
     1
  9
$REGENMODE
 70
     1
  9
$FILLMODE
 70
     1
  9
$QTEXTMODE
 70
     0
  9
$MIRRTEXT
 70
     1
  9
$DRAGMODE
 70
     2
  9
$LTSCALE
 40
10.0
  9
$OSMODE
 70
  2495
  9
$ATTMODE
 70
     1
  9
$TEXTSIZE
 40
3.5
  9
$TRACEWID
 40
0.5
  9
$TEXTSTYLE
  7
STANDARD
  9
$CLAYER
  8
STEMPEL
  9
$CELTYPE
  6
BYLAYER
  9
$CECOLOR
 62
   256
  9
$DIMSCALE
 40
1.0
  9
$DIMASZ
 40
3.5
  9
$DIMEXO
 40
1.0
  9
$DIMDLI
 40
7.0
  9
$DIMRND
 40
0.0
  9
$DIMDLE
 40
0.0
  9
$DIMEXE
 40
1.0
  9
$DIMTP
 40
0.0
  9
$DIMTM
 40
0.0
  9
$DIMTXT
 40
3.5
  9
$DIMCEN
 40
1.5
  9
$DIMTSZ
 40
0.0
  9
$DIMTOL
 70
     0
  9
$DIMLIM
 70
     0
  9
$DIMTIH
 70
     0
  9
$DIMTOH
 70
     0
  9
$DIMSE1
 70
     0
  9
$DIMSE2
 70
     0
  9
$DIMTAD
 70
     1
  9
$DIMZIN
 70
     8
  9
$DIMBLK
  1

  9
$DIMASO
 70
     1
  9
$DIMSHO
 70
     0
  9
$DIMPOST
  1

  9
$DIMAPOST
  1

  9
$DIMALT
 70
     0
  9
$DIMALTD
 70
     2
  9
$DIMALTF
 40
25.3999999999999986
  9
$DIMLFAC
 40
1.0
  9
$DIMTOFL
 70
     1
  9
$DIMTVP
 40
0.0
  9
$DIMTIX
 70
     0
  9
$DIMSOXD
 70
     0
  9
$DIMSAH
 70
     0
  9
$DIMBLK1
  1

  9
$DIMBLK2
  1

  9
$DIMSTYLE
  2
STANDARD
  9
$DIMCLRD
 70
     0
  9
$DIMCLRE
 70
     0
  9
$DIMCLRT
 70
     1
  9
$DIMTFAC
 40
0.5
  9
$DIMGAP
 40
1.5
  9
$LUNITS
 70
     2
  9
$LUPREC
 70
     2
  9
$SKETCHINC
 40
1.0
  9
$FILLETRAD
 40
0.0
  9
$AUNITS
 70
     0
  9
$AUPREC
 70
     0
  9
$MENU
  1
ACAD
  9
$ELEVATION
 40
0.0
  9
$PELEVATION
 40
0.0
  9
$THICKNESS
 40
0.0
  9
$LIMCHECK
 70
     0
  9
$BLIPMODE
 70
     0
  9
$CHAMFERA
 40
0.0
  9
$CHAMFERB
 40
0.0
  9
$SKPOLY
 70
     0
  9
$TDCREATE
 40
2455397.8646990740671754
  9
$TDUPDATE
 40
2459627.5745833339169621
  9
$TDINDWG
 40
0.0628975926
  9
$TDUSRTIMER
 40
0.0628975926
  9
$USRTIMER
 70
     1
  9
$ANGBASE
 50
0.0
  9
$ANGDIR
 70
     0
  9
$PDMODE
 70
     0
  9
$PDSIZE
 40
0.0
  9
$PLINEWID
 40
0.0
  9
$COORDS
 70
     1
  9
$SPLFRAME
 70
     0
  9
$SPLINETYPE
 70
     6
  9
$SPLINESEGS
 70
     8
  9
$ATTDIA
 70
     1
  9
$ATTREQ
 70
     1
  9
$HANDLING
 70
     1
  9
$HANDSEED
  5
FB7
  9
$SURFTAB1
 70
     6
  9
$SURFTAB2
 70
     6
  9
$SURFTYPE
 70
     6
  9
$SURFU
 70
     6
  9
$SURFV
 70
     6
  9
$UCSNAME
  2

  9
$UCSORG
 10
0.0
 20
0.0
 30
0.0
  9
$UCSXDIR
 10
1.0
 20
0.0
 30
0.0
  9
$UCSYDIR
 10
0.0
 20
1.0
 30
0.0
  9
$PUCSNAME
  2

  9
$PUCSORG
 10
0.0
 20
0.0
 30
0.0
  9
$PUCSXDIR
 10
1.0
 20
0.0
 30
0.0
  9
$PUCSYDIR
 10
0.0
 20
1.0
 30
0.0
  9
$USERI1
 70
     0
  9
$USERI2
 70
     0
  9
$USERI3
 70
     0
  9
$USERI4
 70
     0
  9
$USERI5
 70
     0
  9
$USERR1
 40
0.0
  9
$USERR2
 40
0.0
  9
$USERR3
 40
0.0
  9
$USERR4
 40
0.0
  9
$USERR5
 40
0.0
  9
$WORLDVIEW
 70
     1
  9
$SHADEDGE
 70
     3
  9
$SHADEDIF
 70
    70
  9
$TILEMODE
 70
     1
  9
$MAXACTVP
 70
    16
  9
$PLIMCHECK
 70
     0
  9
$PEXTMIN
 10
1.0000000000000000E+20
 20
1.0000000000000000E+20
 30
1.0000000000000000E+20
  9
$PEXTMAX
 10
-1.0000000000000000E+20
 20
-1.0000000000000000E+20
 30
-1.0000000000000000E+20
  9
$PLIMMIN
 10
-88.8663919185830764
 20
-124.944170079026506
  9
$PLIMMAX
 10
121.1336080814168952
 20
172.0558299209735083
  9
$UNITMODE
 70
     0
  9
$VISRETAIN
 70
     0
  9
$PLINEGEN
 70
     0
  9
$PSLTSCALE
 70
     0
  0
ENDSEC
  0
SECTION
  2
TABLES
  0
TABLE
  2
VPORT
 70
     1
  0
VPORT
  2
*ACTIVE
 70
     0
 10
0.0
 20
0.0
 11
1.0
 21
1.0
 12
-0.6370156278367177
 22
-168.9642957444486058
 13
0.0
 23
0.0
 14
1.0
 24
1.0
 15
10.0
 25
10.0
 16
-0.0000000000001137
 26
0.0
 36
765.7434416487029694
 17
756.0014073592790282
 27
471.4104199994217765
 37
-19.2460689357598902
 40
421.074482603778506
 41
1.7852028639618129
 42
50.0
 43
0.0
 44
0.0
 50
0.0
 51
0.0
 71
     0
 72
  1500
 73
     1
 74
     0
 75
     0
 76
     0
 77
     0
 78
     0
  0
ENDTAB
  0
TABLE
  2
LTYPE
 70
     6
  0
LTYPE
  2
CONTINUOUS
 70
     0
  3
Solid line
 72
    65
 73
     0
 40
0.0
  0
LTYPE
  2
PHANTOM2
 70
     0
  3
Phantom (.5x) ___ _ _ ___ _ _ ___ _ _ ___ _ _
 72
    65
 73
     6
 40
1.25
 49
0.625
 49
-0.125
 49
0.125
 49
-0.125
 49
0.125
 49
-0.125
  0
LTYPE
  2
VERDECKT
 70
     0
  3
Verdeckt __ __ __ __ __ __ __ __ __ __ __ __ __
 72
    65
 73
     2
 40
0.375
 49
0.25
 49
-0.125
  0
ENDTAB
  0
TABLE
  2
LAYER
 70
    14
  0
LAYER
  2
0
 70
     0
 62
     7
  6
CONTINUOUS
  0
LAYER
  2
VOLL
 70
     0
 62
     1
  6
CONTINUOUS
  0
LAYER
  2
STEMPEL
 70
     0
 62
     3
  6
CONTINUOUS
  0
LAYER
  2
DEFPOINTS
 70
     0
 62
     7
  6
CONTINUOUS
  0
LAYER
  2
ADSK_ASSOC_ENTITY_BACKUPS
 70
     1
 62
    -7
  6
CONTINUOUS
  0
ENDTAB
  0
TABLE
  2
STYLE
 70
     4
  0
STYLE
  2
STANDARD
 70
     0
 40
0.0
 41
0.8
 50
0.0
 71
     0
 42
3.5
  3
simplex.shx
  4

  0
STYLE
  2
GREEKS
 70
     0
 40
0.0
 41
0.8
 50
0.0
 71
     0
 42
2.5
  3
SIMPLEX.shx
  4

  0
ENDTAB
  0
TABLE
  2
VIEW
 70
     1
  0
ENDTAB
  0
TABLE
  2
UCS
 70
     0
  0
ENDTAB
  0
TABLE
  2
APPID
 70
    20
  0
APPID
  2
ACAD
 70
     0
  0
APPID
  2
ACAD_NAV_VCDISPLAY
 70
     0
  0
APPID
  2
ACAD_MLEADERVER
 70
     0
  0
APPID
  2
ACAD_EXEMPT_FROM_CAD_STANDARDS
 70
     0
  0
APPID
  2
ACAD_PSEXT
 70
     0
  0
APPID
  2
ACAECLAYERSTANDARD
 70
     0
  0
APPID
  2
ACAUTHENVIRON
 70
     0
  0
APPID
  2
ACCMTRANSPARENCY
 70
     0
  0
APPID
  2
ACSYNERGY
 70
     0
  0
APPID
  2
SYNERGY_BODY_TBR_ID
 70
     0
  0
APPID
  2
ACAD_VIEW_EDGE_ID
 70
     0
  0
APPID
  2
ACAD_MODELDOC_XFORM
 70
     0
  0
APPID
  2
GRADIENTCOLOR1ACI
 70
     0
  0
APPID
  2
GRADIENTCOLOR2ACI
 70
     0
  0
APPID
  2
ACAD_DSTYLE_DIMRADIAL_EXTENSION
 70
     0
  0
APPID
  2
ACAD_DIMASSOC_CALC_DIMLFAC
 70
     0
  0
APPID
  2
ACAD_DIMASSOC_DIMLFAC
 70
     0
  0
APPID
  2
ACAD_DIMASSOC_OVERRIDDEN_D
 70
     0
  0
APPID
  2
ACSYNERGYSKETCH
 70
     0
  0
APPID
  2
AcDbAttr
 70
     0
  0
ENDTAB
  0
TABLE
  2
DIMSTYLE
 70
     2
  0
DIMSTYLE
  2
STANDARD
 70
     0
  3

  4

  5

  6

  7

 40
1.0
 41
0.18
 42
0.0625
 43
0.38
 44
0.18
 45
0.0
 46
0.0
 47
0.0
 48
0.0
140
0.18
141
0.09
142
0.0
143
25.3999999999999986
144
1.0
145
0.0
146
1.0
147
0.09
 71
     0
 72
     0
 73
     1
 74
     1
 75
     0
 76
     0
 77
     0
 78
     0
170
     0
171
     2
172
     0
173
     0
174
     0
175
     0
176
     0
177
     0
178
     0
  0
ENDTAB
  0
ENDSEC
  0
SECTION
  2
BLOCKS
  0
BLOCK
  8
0
  2
$MODEL_SPACE
 70
     0
 10
0.0
 20
0.0
 30
0.0
  3
$MODEL_SPACE
  1

  0
ENDBLK
  5
36
  8
0
  0
BLOCK
 67
     1
  8
0
  2
$PAPER_SPACE
 70
     0
 10
0.0
 20
0.0
 30
0.0
  3
$PAPER_SPACE
  1

  0
ENDBLK
  5
34
 67
     1
  8
0
  0
BLOCK
  8
0
  2
*S4
 70
     1
 10
0.0
 20
0.0
 30
0.0
  3
*S4
  1

  0
ENDBLK
  5
9C6
  8
0
  0
BLOCK
  8
0
  2
A$CD2EF0547
 70
     0
 10
0.0
 20
0.0
 30
0.0
  3
A$CD2EF0547
  1

  0
CIRCLE
  5
EFB
  8
0
 10
472.0036316444662816
 20
401.6444270265017167
 30
0.0000000000000995
 40
64.0
  0
CIRCLE
  5
EFC
  8
0
 10
472.0036316444662816
 20
401.6444270265017167
 30
0.0000000000000995
 40
70.5285743976223785
  0
CIRCLE
  5
EFD
  8
0
 10
472.0036316444662816
 20
401.6444270265017167
 30
0.0000000000000995
 40
72.7584447974063551
  0
CIRCLE
  5
EFE
  8
0
 10
472.0036316444662816
 20
401.6444270265017167
 30
0.0000000000000995
 40
76.0
  0
CIRCLE
  5
EFF
  8
0
 10
472.0036316444662816
 20
401.6444270265017167
 30
0.0000000000000995
 40
68.999553268413635
  0
CIRCLE
  5
F00
  8
0
 10
400.8101361394710125
 20
349.9193248247639758
 30
0.0000000000000853
 40
5.5
  0
CIRCLE
  5
F01
  8
0
 10
499.1971271494618918
 20
317.9514535925283099
 30
0.0000000000000995
 40
5.5
  0
CIRCLE
  5
F02
  8
0
 10
560.0036316444663953
 20
401.6444270265017167
 30
0.0000000000001137
 40
5.5
  0
CIRCLE
  5
F03
  8
0
 10
499.1971271494617213
 20
485.3374004604751804
 30
0.0000000000000995
 40
5.5000000000000018
  0
CIRCLE
  5
F04
  8
0
 10
400.8101361394710125
 20
453.3695292282394007
 30
0.0000000000000853
 40
5.5000000000000009
  0
CIRCLE
  5
F05
  8
0
 10
444.8101361394710125
 20
485.337400460475294
 30
0.0000000000000995
 40
5.5000000000000027
  0
CIRCLE
  5
F06
  8
0
 10
543.1971271494616076
 20
453.3695292282394007
 30
0.0000000000001137
 40
5.5
  0
CIRCLE
  5
F07
  8
0
 10
543.1971271494619486
 20
349.9193248247640895
 30
0.0000000000001137
 40
5.5
  0
CIRCLE
  5
F08
  8
0
 10
444.8101361394711262
 20
317.9514535925281962
 30
0.0000000000000995
 40
5.4999999999999991
  0
CIRCLE
  5
F09
  8
0
 10
384.0036316444663953
 20
401.6444270265017167
 30
0.0000000000000853
 40
5.5000000000000009
  0
CIRCLE
  5
F0A
  8
0
 10
472.0036316444662816
 20
401.6444270265017167
 30
0.0000000000000995
 40
100.0
  0
CIRCLE
  5
F0B
  8
0
  6
VERDECKT
 62
     1
 10
472.0036316444662816
 20
401.6444270265017167
 30
0.0000000000000995
 40
72.6413180959356168
  0
CIRCLE
  5
F0C
  8
0
  6
VERDECKT
 62
     1
 10
472.0036316444662816
 20
401.6444270265017167
 30
0.0000000000000995
 40
70.550000000000054
  0
CIRCLE
  5
F0D
  8
0
  6
VERDECKT
 62
     1
 10
472.0036316444662816
 20
401.6444270265017167
 30
0.0000000000000995
 40
69.0
  0
CIRCLE
  5
F0E
  8
0
  6
VERDECKT
 62
     1
 10
472.0036316444662816
 20
401.6444270265017167
 30
0.0000000000000995
 40
73.5
  0
CIRCLE
  5
F0F
  8
0
  6
VERDECKT
 62
     1
 10
472.0036316444662816
 20
401.6444270265017167
 30
0.0000000000000995
 40
71.5
  0
CIRCLE
  5
F10
  8
0
  6
VERDECKT
 62
     1
 10
472.0036316444662816
 20
401.6444270265017167
 30
0.0000000000000995
 40
66.5
  0
CIRCLE
  5
F11
  8
0
  6
VERDECKT
 62
     1
 10
472.0036316444662816
 20
401.6444270265017167
 30
0.0000000000000995
 40
70.5499999999999829
  0
ENDBLK
  5
F13
  8
0
  0
BLOCK
  8
0
  2
A$CD0D92B55
 70
     0
 10
0.0
 20
0.0
 30
0.0
  3
A$CD0D92B55
  1

  0
LINE
  5
F17
  8
0
 10
399.3623135485307785
 20
-66.1301866471623185
 30
0.0000000000000147
 11
544.6449497404020121
 21
-66.1301866471623185
 31
0.0000000000000147
210
0.0
220
1.0
230
-0.0000000000000002
  0
LINE
  5
F18
  8
0
 10
399.2451868470599834
 20
67.5000000000000142
 30
-0.000000000000015
 11
544.7620764418727504
 21
67.5000000000000142
 31
-0.000000000000015
210
0.0
220
1.0
230
-0.0000000000000002
  0
LINE
  5
F19
  8
0
 10
401.4536316444663271
 20
-67.5000000000000853
 30
0.000000000000015
 11
399.3623135485307785
 21
-66.1301866471623327
 31
0.0000000000000147
210
0.0
220
1.0
230
-0.0000000000000002
  0
LINE
  5
F1A
  8
0
 10
542.5536316444663498
 20
-67.5000000000000853
 30
0.000000000000015
 11
544.6449497404020121
 21
-66.1301866471623327
 31
0.0000000000000147
210
0.0
220
1.0
230
-0.0000000000000002
  0
LINE
  5
F1B
  8
0
 10
544.7620764418727504
 20
67.5000000000000284
 30
-0.000000000000015
 11
545.1928652555657209
 21
66.5761704077571324
 31
-0.0000000000000148
210
0.0
220
1.0
230
-0.0000000000000002
  0
LINE
  5
F1C
  8
0
 10
399.2451868470599834
 20
67.5000000000000284
 30
-0.000000000000015
 11
398.8143980333671266
 21
66.5761704077571324
 31
-0.0000000000000148
210
0.0
220
1.0
230
-0.0000000000000002
  0
ARC
  5
F1D
  8
0
 10
-426.0036316444662816
 20
53.8976225555357686
 30
0.0
 40
30.0
210
0.0
220
-0.0000000000000002
230
-1.0
 50
359.9999999999998863
 51
25.0000000000007887
  0
ARC
  5
F1E
  8
0
 10
-518.0036316444661679
 20
53.8976225555357402
 30
0.0
 40
30.0000000000001208
210
0.0
220
-0.0000000000000002
230
-1.0
 50
154.9999999999992042
 51
180.0
  0
LINE
  5
F1F
  8
0
 10
548.0036316444663953
 20
53.8976225555356976
 30
-0.000000000000012
 11
548.0036316444663953
 21
34.7909999999999471
 31
-0.0000000000000077
210
0.0
220
1.0
230
-0.0000000000000002
  0
LINE
  5
F20
  8
0
 10
396.0036316444663953
 20
53.8976225555356976
 30
-0.000000000000012
 11
396.0036316444663953
 21
34.7909999999999471
 31
-0.0000000000000077
210
0.0
220
1.0
230
-0.0000000000000002
  0
ARC
  5
F21
  8
0
 10
-426.0061815114606247
 20
34.7921894103715132
 30
0.0
 40
30.0025498905704602
210
0.0
220
-0.0000000000000002
230
-1.0
 50
334.9928416634538166
 51
359.9977285865812746
  0
ARC
  5
F22
  8
0
 10
-518.0010817774710858
 20
34.7921894103718898
 30
0.0
 40
30.0025498905715899
210
0.0
220
-0.0000000000000002
230
-1.0
 50
180.0022714134192938
 51
205.0071583365460128
  0
ARC
  5
F23
  8
0
 10
-382.5036316444487738
 20
14.4999999999962892
 30
0.0
 40
18.0000000000175611
210
0.0
220
-0.0000000000000002
230
-1.0
 50
154.9928416634514861
 51
180.0000000000015916
  0
ARC
  5
F24
  8
0
 10
-561.5036316444839031
 20
14.4999999999962892
 30
0.0
 40
18.0000000000175113
210
0.0
220
-0.0000000000000002
230
-1.0
 50
359.999999999998181
 51
25.0071583365485495
  0
LINE
  5
F25
  8
0
 10
543.5036316444663953
 20
14.4999999999957403
 30
-0.0000000000000032
 11
543.5036316444663953
 21
0.9687194226711996
 31
-0.0000000000000002
210
0.0
220
1.0
230
-0.0000000000000002
  0
LINE
  5
F26
  8
0
 10
400.5036316444662816
 20
14.4999999999957403
 30
-0.0000000000000032
 11
400.5036316444662816
 21
0.9687194226711996
 31
-0.0000000000000002
210
0.0
220
1.0
230
-0.0000000000000002
  0
ARC
  5
F27
  8
0
 10
-418.5036316444684985
 20
0.9687194226718316
 30
0.0
 40
18.00000000000216
210
0.0
220
-0.0000000000000002
230
-1.0
 50
325.2280559680526153
 51
359.9999999999980105
  0
ARC
  5
F28
  8
0
 10
-525.5036316444641216
 20
0.9687194226718499
 30
0.0
 40
18.0000000000022702
210
0.0
220
-0.0000000000000002
230
-1.0
 50
180.0000000000019895
 51
214.7719440319472142
  0
ARC
  5
F29
  8
0
 10
-395.5036316444659974
 20
-15.0000000000002895
 30
0.0
 40
10.0000000000004494
210
0.0
220
-0.0000000000000002
230
-1.0
 50
145.228055968054008
 51
179.9999999999986073
  0
ARC
  5
F2A
  8
0
 10
-548.50363164446685
 20
-15.0000000000002895
 30
0.0
 40
10.0000000000004494
210
0.0
220
-0.0000000000000002
230
-1.0
 50
0.0000000000012849
 51
34.7719440319459068
  0
LINE
  5
F2B
  8
0
 10
538.503631644466509
 20
-15.0000000000000604
 30
0.0000000000000033
 11
538.503631644466509
 21
-54.3673396388002317
 31
0.0000000000000121
210
0.0
220
1.0
230
-0.0000000000000002
  0
LINE
  5
F2C
  8
0
 10
405.5036316444662248
 20
-15.0000000000000604
 30
0.0000000000000033
 11
405.5036316444662248
 21
-54.3673396388002317
 31
0.0000000000000121
210
0.0
220
1.0
230
-0.0000000000000002
  0
ARC
  5
F2D
  8
0
 10
-397.5036316444659974
 20
-54.3673396388000825
 30
0.0
 40
8.0000000000001137
210
0.0
220
-0.0000000000000002
230
-1.0
 50
180.0000000000009948
 51
213.2247988012107101
  0
ARC
  5
F2E
  8
0
 10
-546.5036316444667364
 20
-54.3673396388000825
 30
0.0
 40
8.0000000000001084
210
0.0
220
-0.0000000000000002
230
-1.0
 50
326.7752011987893184
 51
359.9999999999989768
  0
LINE
  5
F2F
  8
0
 10
539.8114137374728898
 20
-58.7507423678808465
 30
0.000000000000013
 11
544.6449497404020121
 21
-66.1301866471623327
 31
0.0000000000000147
210
0.0
220
1.0
230
-0.0000000000000002
  0
LINE
  5
F30
  8
0
 10
404.1958495514599008
 20
-58.7507423678808465
 30
0.000000000000013
 11
399.3623135485307785
 21
-66.1301866471623327
 31
0.0000000000000147
210
0.0
220
1.0
230
-0.0000000000000002
  0
LINE
  5
F31
  8
0
 10
572.0036316444662816
 20
-67.5000000000000711
 30
0.000000000000015
 11
372.0036316444663953
 21
-67.5000000000000711
 31
0.000000000000015
210
0.0
220
1.0
230
-0.0000000000000002
  0
LINE
  5
F32
  8
0
 10
372.0036316444663953
 20
-87.5000000000000711
 30
0.0000000000000194
 11
572.0036316444662816
 21
-87.5000000000000711
 31
0.0000000000000194
210
0.0
220
1.0
230
-0.0000000000000002
  0
LINE
  5
F33
  8
0
 10
572.0036316444662816
 20
-67.5000000000000711
 30
0.000000000000015
 11
572.0036316444662816
 21
-87.5000000000000711
 31
0.0000000000000194
210
0.0
220
1.0
230
-0.0000000000000002
  0
LINE
  5
F34
  8
0
 10
372.0036316444663953
 20
-67.5000000000000711
 30
0.000000000000015
 11
372.0036316444663953
 21
-87.5000000000000711
 31
0.0000000000000194
210
0.0
220
1.0
230
-0.0000000000000002
  0
LINE
  5
F35
  8
0
  6
VERDECKT
 62
     1
 10
401.4750572468440168
 20
66.3664685462945414
 30
-0.0000000000000147
 11
542.5322060420887738
 21
66.3664685462945414
 31
-0.0000000000000147
210
0.0
220
1.0
230
-0.0000000000000002
  0
LINE
  5
F36
  8
0
  6
VERDECKT
 62
     1
 10
537.7200956415374549
 20
-60.1205557207191532
 30
0.0000000000000133
 11
542.5536316444663498
 21
-67.5000000000000568
 31
0.000000000000015
210
0.0
220
1.0
230
-0.0000000000000002
  0
LINE
  5
F37
  8
0
  6
VERDECKT
 62
     1
 10
406.2871676473952789
 20
-60.1205557207191532
 30
0.0000000000000133
 11
401.4536316444663271
 21
-67.5000000000000568
 31
0.000000000000015
210
0.0
220
1.0
230
-0.0000000000000002
  0
ARC
  5
F38
  8
0
  6
VERDECKT
 62
     1
 10
-397.5036316444659974
 20
-54.3673396388005088
 30
0.0
 40
10.5000000000001101
210
0.0
220
-0.0000000000000002
230
-1.0
 50
179.9999999999982094
 51
213.2247988012117901
  0
ARC
  5
F39
  8
0
  6
VERDECKT
 62
     1
 10
-546.5036316444667364
 20
-54.367339638800523
 30
0.0
 40
10.5000000000001101
210
0.0
220
-0.0000000000000002
230
-1.0
 50
326.7752011987881247
 51
0.0000000000018638
  0
LINE
  5
F3A
  8
0
  6
VERDECKT
 62
     1
 10
536.003631644466509
 20
-14.9999999999999396
 30
0.0000000000000033
 11
536.003631644466509
 21
-54.3673396388001677
 31
0.0000000000000121
210
0.0
220
1.0
230
-0.0000000000000002
  0
LINE
  5
F3B
  8
0
  6
VERDECKT
 62
     1
 10
408.0036316444662816
 20
-14.9999999999999396
 30
0.0000000000000033
 11
408.0036316444662816
 21
-54.3673396388001677
 31
0.0000000000000121
210
0.0
220
1.0
230
-0.0000000000000002
  0
ARC
  5
F3C
  8
0
  6
VERDECKT
 62
     1
 10
-395.5036316444663953
 20
-15.0000000000001794
 30
0.0
 40
12.4999999999999503
210
0.0
220
-0.0000000000000002
230
-1.0
 50
145.22805596805199
 51
179.9999999999990052
  0
ARC
  5
F3D
  8
0
  6
VERDECKT
 62
     1
 10
-548.503631644466509
 20
-15.0000000000002007
 30
0.0
 40
12.5000000000001101
210
0.0
220
-0.0000000000000002
230
-1.0
 50
0.0000000000011323
 51
34.7719440319476831
  0
ARC
  5
F3E
  8
0
  6
VERDECKT
 62
     1
 10
-418.5036316444658837
 20
0.9687194226709926
 30
0.0
 40
15.4999999999995399
210
0.0
220
-0.0000000000000002
230
-1.0
 50
325.2280559680503984
 51
0.0000000000005457
  0
ARC
  5
F3F
  8
0
  6
VERDECKT
 62
     1
 10
-525.50363164446685
 20
0.9687194226709847
 30
0.0
 40
15.4999999999995399
210
0.0
220
-0.0000000000000002
230
-1.0
 50
179.9999999999994031
 51
214.7719440319496016
  0
LINE
  5
F40
  8
0
  6
VERDECKT
 62
     1
 10
541.0036316444663953
 20
14.4999999999999503
 30
-0.0000000000000032
 11
541.0036316444663953
 21
0.9687194226711427
 31
-0.0000000000000002
210
0.0
220
1.0
230
-0.0000000000000002
  0
LINE
  5
F41
  8
0
  6
VERDECKT
 62
     1
 10
403.0036316444663953
 20
14.4999999999999503
 30
-0.0000000000000032
 11
403.0036316444663953
 21
0.9687194226711427
 31
-0.0000000000000002
210
0.0
220
1.0
230
-0.0000000000000002
  0
ARC
  5
F42
  8
0
  6
VERDECKT
 62
     1
 10
-383.1103280861045732
 20
14.6333196672782595
 30
0.0
 40
19.8937502899482084
210
0.0
220
-0.0000000000000002
230
-1.0
 50
154.8288522569305883
 51
180.3839754358967866
  0
ARC
  5
F43
  8
0
  6
VERDECKT
 62
     1
 10
-560.8969352028284447
 20
14.63331966727824
 30
0.0
 40
19.8937502899484286
210
0.0
220
-0.0000000000000002
230
-1.0
 50
359.6160245641032134
 51
25.1711477430691311
  0
ARC
  5
F44
  8
0
  6
VERDECKT
 62
     1
 10
-426.0036316444840736
 20
34.7910000000038266
 30
0.0
 40
27.5000000000177387
210
0.0
220
-0.0000000000000002
230
-1.0
 50
334.8288522569314978
 51
360.0
  0
ARC
  5
F45
  8
0
  6
VERDECKT
 62
     1
 10
-518.0036316444485465
 20
34.791000000003848
 30
0.0
 40
27.5000000000177387
210
0.0
220
-0.0000000000000002
230
-1.0
 50
180.0
 51
205.1711477430685875
  0
LINE
  5
F46
  8
0
  6
VERDECKT
 62
     1
 10
545.5036316444663953
 20
53.8976225555356976
 30
-0.000000000000012
 11
545.5036316444663953
 21
34.7910000000038124
 31
-0.0000000000000077
210
0.0
220
1.0
230
-0.0000000000000002
  0
LINE
  5
F47
  8
0
  6
VERDECKT
 62
     1
 10
398.5036316444663953
 20
53.8976225555356976
 30
-0.000000000000012
 11
398.5036316444663953
 21
34.7910000000038124
 31
-0.0000000000000077
210
0.0
220
1.0
230
-0.0000000000000002
  0
ARC
  5
F48
  8
0
  6
VERDECKT
 62
     1
 10
-426.0036316444421232
 20
53.8976225555409982
 30
0.0
 40
27.4999999999757314
210
0.0
220
-0.0000000000000002
230
-1.0
 50
359.9999999999889724
 51
25.0000000000010587
  0
ARC
  5
F49
  8
0
  6
VERDECKT
 62
     1
 10
-518.0036316444907243
 20
53.8976225555409911
 30
0.0
 40
27.4999999999756817
210
0.0
220
-0.0000000000000002
230
-1.0
 50
154.9999999999988916
 51
180.0000000000109992
  0
LINE
  5
F4A
  8
0
  6
VERDECKT
 62
     1
 10
542.5322060420887738
 20
66.3664685462945698
 30
-0.0000000000000147
 11
542.9270957879763273
 21
65.5196247534004641
 31
-0.0000000000000145
210
0.0
220
1.0
230
-0.0000000000000002
  0
LINE
  5
F4B
  8
0
  6
VERDECKT
 62
     1
 10
401.4750572468440168
 20
66.3664685462945698
 30
-0.0000000000000147
 11
401.0801675009564065
 21
65.5196247534004641
 31
-0.0000000000000145
210
0.0
220
1.0
230
-0.0000000000000002
  0
LINE
  5
F4C
  8
0
  6
VERDECKT
 62
     1
 10
401.4750572468440168
 20
66.3664685462945414
 30
-0.0000000000000147
 11
399.2451868470599834
 21
67.5000000000000142
 31
-0.000000000000015
210
0.0
220
1.0
230
-0.0000000000000002
  0
LINE
  5
F4D
  8
0
  6
VERDECKT
 62
     1
 10
542.5322060420887738
 20
66.3664685462945414
 30
-0.0000000000000147
 11
544.7620764418727504
 21
67.5000000000000142
 31
-0.000000000000015
210
0.0
220
1.0
230
-0.0000000000000002
  0
LINE
  5
F4E
  8
0
  6
VERDECKT
 62
     1
 10
395.3101361394711262
 20
-87.5000000000000711
 30
0.0000000000000194
 11
395.3101361394711262
 21
-67.5000000000000711
 31
0.000000000000015
210
0.0
220
1.0
230
-0.0000000000000002
  0
LINE
  5
F4F
  8
0
  6
VERDECKT
 62
     1
 10
406.3101361394711262
 20
-87.5000000000000711
 30
0.0000000000000194
 11
406.3101361394711262
 21
-67.5000000000000711
 31
0.000000000000015
210
0.0
220
1.0
230
-0.0000000000000002
  0
LINE
  5
F50
  8
0
  6
VERDECKT
 62
     1
 10
493.6971271494618918
 20
-87.5000000000000711
 30
0.0000000000000194
 11
493.6971271494618918
 21
-67.5000000000000711
 31
0.000000000000015
210
0.0
220
1.0
230
-0.0000000000000002
  0
LINE
  5
F51
  8
0
  6
VERDECKT
 62
     1
 10
504.6971271494618918
 20
-87.5000000000000711
 30
0.0000000000000194
 11
504.6971271494618918
 21
-67.5000000000000711
 31
0.000000000000015
210
0.0
220
1.0
230
-0.0000000000000002
  0
LINE
  5
F52
  8
0
  6
VERDECKT
 62
     1
 10
554.5036316444662816
 20
-87.5000000000000711
 30
0.0000000000000194
 11
554.5036316444662816
 21
-67.5000000000000711
 31
0.000000000000015
210
0.0
220
1.0
230
-0.0000000000000002
  0
LINE
  5
F53
  8
0
  6
VERDECKT
 62
     1
 10
565.5036316444663953
 20
-87.5000000000000711
 30
0.0000000000000194
 11
565.5036316444663953
 21
-67.5000000000000711
 31
0.000000000000015
210
0.0
220
1.0
230
-0.0000000000000002
  0
LINE
  5
F54
  8
0
  6
VERDECKT
 62
     1
 10
537.6971271494619486
 20
-87.5000000000000711
 30
0.0000000000000194
 11
537.6971271494619486
 21
-67.5000000000000711
 31
0.000000000000015
210
0.0
220
1.0
230
-0.0000000000000002
  0
LINE
  5
F55
  8
0
  6
VERDECKT
 62
     1
 10
548.6971271494619486
 20
-87.5000000000000711
 30
0.0000000000000194
 11
548.6971271494619486
 21
-67.5000000000000711
 31
0.000000000000015
210
0.0
220
1.0
230
-0.0000000000000002
  0
LINE
  5
F56
  8
0
  6
VERDECKT
 62
     1
 10
439.3101361394711262
 20
-87.5000000000000711
 30
0.0000000000000194
 11
439.3101361394711262
 21
-67.5000000000000711
 31
0.000000000000015
210
0.0
220
1.0
230
-0.0000000000000002
  0
LINE
  5
F57
  8
0
  6
VERDECKT
 62
     1
 10
450.3101361394711262
 20
-87.5000000000000711
 30
0.0000000000000194
 11
450.3101361394711262
 21
-67.5000000000000711
 31
0.000000000000015
210
0.0
220
1.0
230
-0.0000000000000002
  0
LINE
  5
F58
  8
0
  6
VERDECKT
 62
     1
 10
378.5036316444663953
 20
-87.5000000000000711
 30
0.0000000000000194
 11
378.5036316444663953
 21
-67.5000000000000711
 31
0.000000000000015
210
0.0
220
1.0
230
-0.0000000000000002
  0
LINE
  5
F59
  8
0
  6
VERDECKT
 62
     1
 10
389.5036316444663953
 20
-87.5000000000000711
 30
0.0000000000000194
 11
389.5036316444663953
 21
-67.5000000000000711
 31
0.000000000000015
210
0.0
220
1.0
230
-0.0000000000000002
  0
LINE
  5
F5A
  8
0
  6
VERDECKT
 62
     1
 10
401.4536316444663271
 20
-87.5000000000000711
 30
0.0000000000000194
 11
401.4536316444663271
 21
-67.5000000000000711
 31
0.000000000000015
210
0.0
220
1.0
230
-0.0000000000000002
  0
LINE
  5
F5B
  8
0
  6
VERDECKT
 62
     1
 10
542.5536316444663498
 20
-87.5000000000000711
 30
0.0000000000000194
 11
542.5536316444663498
 21
-67.5000000000000711
 31
0.000000000000015
210
0.0
220
1.0
230
-0.0000000000000002
  0
ENDBLK
  5
F5D
  8
0
  0
ENDSEC
  0
SECTION
  2
ENTITIES
  0
TEXT
  5
8F
  8
VOLL
 10
78.076754716981128
 20
31.025947764705851
 30
0.0
 40
1.8
  1

  7
GREEKS
  0
INSERT
  5
9C8
  8
ADSK_ASSOC_ENTITY_BACKUPS
  2
*S4
 10
0.0
 20
0.0
 30
0.0
  0
INSERT
  5
F14
  8
STEMPEL
  2
A$CD2EF0547
 10
283.3607600869759153
 20
-208.2406050819251107
 30
-38.492137871519958
  0
INSERT
  5
F5E
  8
STEMPEL
  2
A$CD0D92B55
 10
283.3607600869759153
 20
443.9884265653697071
 30
-38.4921378715198728
  0
VIEWPORT
  5
9A9
 67
     1
  8
0
 10
16.13360808141692
 20
23.5558299209735083
 30
0.0
 40
533.9969448798291296
 41
299.1239570917758783
 68
     1
 69
     1
1001
ACAD
1000
MVIEW
1002
{
1070
    16
1010
0.0
1020
0.0
1030
0.0
1010
0.0
1020
0.0
1030
1.0
1040
0.0
1040
299.1239570917758783
1040
16.13360808141692
1040
23.5558299209735083
1040
50.0
1040
0.0
1040
0.0
1070
     0
1070
  1500
1070
     1
1070
     1
1070
     0
1070
     0
1070
     0
1070
     0
1040
0.0
1040
0.0
1040
0.0
1040
10.0
1040
10.0
1040
10.0
1040
10.0
1070
     0
1002
{
1002
}
1002
}
  0
ENDSEC
  0
EOF
