  0
SECTION
  2
HEADER
  9
$ACADVER
  1
AC1009
  9
$INSBASE
 10
0.0
 20
0.0
 30
0.0
  9
$EXTMIN
 10
324.907924475552079
 20
-118.263608648955298
 30
-70.9036422662546926
  9
$EXTMAX
 10
496.9079244755524201
 20
248.6648690159036903
 30
-70.9036422662546499
  9
$LIMMIN
 10
0.0
 20
0.0
  9
$LIMMAX
 10
210.0
 20
297.0
  9
$ORTHOMODE
 70
     1
  9
$REGENMODE
 70
     1
  9
$FILLMODE
 70
     1
  9
$QTEXTMODE
 70
     0
  9
$MIRRTEXT
 70
     1
  9
$DRAGMODE
 70
     2
  9
$LTSCALE
 40
10.0
  9
$OSMODE
 70
  2495
  9
$ATTMODE
 70
     1
  9
$TEXTSIZE
 40
3.5
  9
$TRACEWID
 40
0.5
  9
$TEXTSTYLE
  7
STANDARD
  9
$CLAYER
  8
STEMPEL
  9
$CELTYPE
  6
BYLAYER
  9
$CECOLOR
 62
   256
  9
$DIMSCALE
 40
1.0
  9
$DIMASZ
 40
3.5
  9
$DIMEXO
 40
1.0
  9
$DIMDLI
 40
7.0
  9
$DIMRND
 40
0.0
  9
$DIMDLE
 40
0.0
  9
$DIMEXE
 40
1.0
  9
$DIMTP
 40
0.0
  9
$DIMTM
 40
0.0
  9
$DIMTXT
 40
3.5
  9
$DIMCEN
 40
1.5
  9
$DIMTSZ
 40
0.0
  9
$DIMTOL
 70
     0
  9
$DIMLIM
 70
     0
  9
$DIMTIH
 70
     0
  9
$DIMTOH
 70
     0
  9
$DIMSE1
 70
     0
  9
$DIMSE2
 70
     0
  9
$DIMTAD
 70
     1
  9
$DIMZIN
 70
     8
  9
$DIMBLK
  1

  9
$DIMASO
 70
     1
  9
$DIMSHO
 70
     0
  9
$DIMPOST
  1

  9
$DIMAPOST
  1

  9
$DIMALT
 70
     0
  9
$DIMALTD
 70
     2
  9
$DIMALTF
 40
25.3999999999999986
  9
$DIMLFAC
 40
2.0
  9
$DIMTOFL
 70
     1
  9
$DIMTVP
 40
0.0
  9
$DIMTIX
 70
     0
  9
$DIMSOXD
 70
     0
  9
$DIMSAH
 70
     0
  9
$DIMBLK1
  1

  9
$DIMBLK2
  1

  9
$DIMSTYLE
  2
STANDARD
  9
$DIMCLRD
 70
     0
  9
$DIMCLRE
 70
     0
  9
$DIMCLRT
 70
     1
  9
$DIMTFAC
 40
0.5
  9
$DIMGAP
 40
1.5
  9
$LUNITS
 70
     2
  9
$LUPREC
 70
     2
  9
$SKETCHINC
 40
1.0
  9
$FILLETRAD
 40
0.0
  9
$AUNITS
 70
     0
  9
$AUPREC
 70
     0
  9
$MENU
  1
ACAD
  9
$ELEVATION
 40
0.0
  9
$PELEVATION
 40
0.0
  9
$THICKNESS
 40
0.0
  9
$LIMCHECK
 70
     0
  9
$BLIPMODE
 70
     0
  9
$CHAMFERA
 40
0.0
  9
$CHAMFERB
 40
0.0
  9
$SKPOLY
 70
     0
  9
$TDCREATE
 40
2455397.8646990740671754
  9
$TDUPDATE
 40
2459627.5718287038616836
  9
$TDINDWG
 40
0.1337309259
  9
$TDUSRTIMER
 40
0.1337309259
  9
$USRTIMER
 70
     1
  9
$ANGBASE
 50
0.0
  9
$ANGDIR
 70
     0
  9
$PDMODE
 70
     0
  9
$PDSIZE
 40
0.0
  9
$PLINEWID
 40
0.0
  9
$COORDS
 70
     1
  9
$SPLFRAME
 70
     0
  9
$SPLINETYPE
 70
     6
  9
$SPLINESEGS
 70
     8
  9
$ATTDIA
 70
     1
  9
$ATTREQ
 70
     1
  9
$HANDLING
 70
     1
  9
$HANDSEED
  5
1312
  9
$SURFTAB1
 70
     6
  9
$SURFTAB2
 70
     6
  9
$SURFTYPE
 70
     6
  9
$SURFU
 70
     6
  9
$SURFV
 70
     6
  9
$UCSNAME
  2

  9
$UCSORG
 10
0.0
 20
0.0
 30
0.0
  9
$UCSXDIR
 10
1.0
 20
0.0
 30
0.0
  9
$UCSYDIR
 10
0.0
 20
1.0
 30
0.0
  9
$PUCSNAME
  2

  9
$PUCSORG
 10
0.0
 20
0.0
 30
0.0
  9
$PUCSXDIR
 10
1.0
 20
0.0
 30
0.0
  9
$PUCSYDIR
 10
0.0
 20
1.0
 30
0.0
  9
$USERI1
 70
     0
  9
$USERI2
 70
     0
  9
$USERI3
 70
     0
  9
$USERI4
 70
     0
  9
$USERI5
 70
     0
  9
$USERR1
 40
0.0
  9
$USERR2
 40
0.0
  9
$USERR3
 40
0.0
  9
$USERR4
 40
0.0
  9
$USERR5
 40
0.0
  9
$WORLDVIEW
 70
     1
  9
$SHADEDGE
 70
     3
  9
$SHADEDIF
 70
    70
  9
$TILEMODE
 70
     1
  9
$MAXACTVP
 70
    16
  9
$PLIMCHECK
 70
     0
  9
$PEXTMIN
 10
1.0000000000000000E+20
 20
1.0000000000000000E+20
 30
1.0000000000000000E+20
  9
$PEXTMAX
 10
-1.0000000000000000E+20
 20
-1.0000000000000000E+20
 30
-1.0000000000000000E+20
  9
$PLIMMIN
 10
-77.7262900331598132
 20
65.8561067240127187
  9
$PLIMMAX
 10
132.2737099668401868
 20
362.8561067240127045
  9
$UNITMODE
 70
     0
  9
$VISRETAIN
 70
     0
  9
$PLINEGEN
 70
     0
  9
$PSLTSCALE
 70
     0
  0
ENDSEC
  0
SECTION
  2
TABLES
  0
TABLE
  2
VPORT
 70
     1
  0
VPORT
  2
*ACTIVE
 70
     0
 10
0.0
 20
0.0
 11
1.0
 21
1.0
 12
2.8849339160800578
 22
-107.9222291862203065
 13
0.0
 23
0.0
 14
1.0
 24
1.0
 15
10.0
 25
10.0
 16
-0.0000000000001137
 26
0.0
 36
639.858091500557066
 17
408.0229905594720776
 27
173.1228593696945097
 37
-35.4518211331273605
 40
369.5525192214611252
 41
1.7852028639618129
 42
50.0
 43
0.0
 44
0.0
 50
0.0
 51
0.0
 71
     0
 72
  1500
 73
     1
 74
     0
 75
     0
 76
     0
 77
     0
 78
     0
  0
ENDTAB
  0
TABLE
  2
LTYPE
 70
     6
  0
LTYPE
  2
CONTINUOUS
 70
     0
  3
Solid line
 72
    65
 73
     0
 40
0.0
  0
LTYPE
  2
PHANTOM2
 70
     0
  3
Phantom (.5x) ___ _ _ ___ _ _ ___ _ _ ___ _ _
 72
    65
 73
     6
 40
1.25
 49
0.625
 49
-0.125
 49
0.125
 49
-0.125
 49
0.125
 49
-0.125
  0
LTYPE
  2
VERDECKT
 70
     0
  3
Verdeckt __ __ __ __ __ __ __ __ __ __ __ __ __
 72
    65
 73
     2
 40
0.375
 49
0.25
 49
-0.125
  0
ENDTAB
  0
TABLE
  2
LAYER
 70
    14
  0
LAYER
  2
0
 70
     0
 62
     7
  6
CONTINUOUS
  0
LAYER
  2
VOLL
 70
     0
 62
     1
  6
CONTINUOUS
  0
LAYER
  2
STEMPEL
 70
     0
 62
     3
  6
CONTINUOUS
  0
LAYER
  2
ADSK_ASSOC_ENTITY_BACKUPS
 70
     1
 62
    -7
  6
CONTINUOUS
  0
LAYER
  2
DEFPOINTS
 70
     0
 62
     7
  6
CONTINUOUS
  0
ENDTAB
  0
TABLE
  2
STYLE
 70
     5
  0
STYLE
  2
STANDARD
 70
     0
 40
0.0
 41
0.8
 50
0.0
 71
     0
 42
3.5
  3
simplex.shx
  4

  0
STYLE
  2
GREEKS
 70
     0
 40
0.0
 41
0.8
 50
0.0
 71
     0
 42
2.5
  3
SIMPLEX.shx
  4

  0
ENDTAB
  0
TABLE
  2
VIEW
 70
     1
  0
ENDTAB
  0
TABLE
  2
UCS
 70
     0
  0
ENDTAB
  0
TABLE
  2
APPID
 70
    23
  0
APPID
  2
ACAD
 70
     0
  0
APPID
  2
ACAD_NAV_VCDISPLAY
 70
     0
  0
APPID
  2
ACAD_MLEADERVER
 70
     0
  0
APPID
  2
ACAD_EXEMPT_FROM_CAD_STANDARDS
 70
     0
  0
APPID
  2
ACAD_PSEXT
 70
     0
  0
APPID
  2
ACAECLAYERSTANDARD
 70
     0
  0
APPID
  2
ACCMTRANSPARENCY
 70
     0
  0
APPID
  2
ACSYNERGY
 70
     0
  0
APPID
  2
SYNERGY_BODY_TBR_ID
 70
     0
  0
APPID
  2
ACAD_VIEW_EDGE_ID
 70
     0
  0
APPID
  2
ACAD_STEPID
 70
     0
  0
APPID
  2
ACSYNERGYSKETCH
 70
     0
  0
APPID
  2
ACAD_MODELDOC_XFORM
 70
     0
  0
APPID
  2
ACAD_DSTYLE_DIMJAG
 70
     0
  0
APPID
  2
ACAD_DSTYLE_DIMTALN
 70
     0
  0
APPID
  2
ACADANNOMONITORALERTICONDI
 70
     0
  0
APPID
  2
ACAD_DIMASSOC_CALC_DIMLFAC
 70
     0
  0
APPID
  2
ACAD_DIMASSOC_DIMLFAC
 70
     0
  0
APPID
  2
ACAD_DIMASSOC_OVERRIDDEN_D
 70
     0
  0
APPID
  2
ACAD_DSTYLE_DIMRADIAL_EXTENSION
 70
     0
  0
APPID
  2
GRADIENTCOLOR1ACI
 70
     0
  0
APPID
  2
GRADIENTCOLOR2ACI
 70
     0
  0
APPID
  2
AcDbAttr
 70
     0
  0
ENDTAB
  0
TABLE
  2
DIMSTYLE
 70
     3
  0
DIMSTYLE
  2
STANDARD
 70
     0
  3

  4

  5

  6

  7

 40
1.0
 41
0.18
 42
0.0625
 43
0.38
 44
0.18
 45
0.0
 46
0.0
 47
0.0
 48
0.0
140
0.18
141
0.09
142
0.0
143
25.3999999999999986
144
1.0
145
0.0
146
1.0
147
0.09
 71
     0
 72
     0
 73
     1
 74
     1
 75
     0
 76
     0
 77
     0
 78
     0
170
     0
171
     2
172
     0
173
     0
174
     0
175
     0
176
     0
177
     0
178
     0
  0
ENDTAB
  0
ENDSEC
  0
SECTION
  2
BLOCKS
  0
BLOCK
  8
0
  2
$MODEL_SPACE
 70
     0
 10
0.0
 20
0.0
 30
0.0
  3
$MODEL_SPACE
  1

  0
ENDBLK
  5
36
  8
0
  0
BLOCK
 67
     1
  8
0
  2
$PAPER_SPACE
 70
     0
 10
0.0
 20
0.0
 30
0.0
  3
$PAPER_SPACE
  1

  0
ENDBLK
  5
34
 67
     1
  8
0
  0
BLOCK
  8
0
  2
*S2
 70
     1
 10
0.0
 20
0.0
 30
0.0
  3
*S2
  1

  0
ENDBLK
  5
741
  8
0
  0
BLOCK
  8
0
  2
A$C8E7F5D9D
 70
     0
 10
0.0
 20
0.0
 30
0.0
  3
A$C8E7F5D9D
  1

  0
CIRCLE
  5
1259
  8
0
 10
170.5429039475768036
 20
225.5939850592797882
 30
-0.0000000000000355
 40
5.5000000000001137
  0
CIRCLE
  5
125A
  8
0
 10
216.2774191150691081
 20
225.5939850592797882
 30
-0.0000000000000497
 40
5.5000000000001137
  0
CIRCLE
  5
125B
  8
0
 10
119.4101615313227995
 20
155.215802853438305
 30
-0.0000000000000284
 40
5.5000000000001128
  0
CIRCLE
  5
125C
  8
0
 10
170.5429039475768036
 20
84.8376206475968928
 30
-0.0000000000000355
 40
5.5000000000001137
  0
CIRCLE
  5
125D
  8
0
 10
253.2774191150691934
 20
111.7196941837952977
 30
-0.0000000000000568
 40
5.5000000000001137
  0
CIRCLE
  5
125E
  8
0
 10
267.4101615313231264
 20
155.215802853438305
 30
-0.0000000000000568
 40
5.5000000000001128
  0
CIRCLE
  5
125F
  8
0
 10
216.2774191150691081
 20
84.8376206475968928
 30
-0.0000000000000497
 40
5.5000000000001137
  0
CIRCLE
  5
1260
  8
0
 10
133.5429039475766899
 20
111.7196941837952977
 30
-0.0000000000000284
 40
5.5000000000001137
  0
CIRCLE
  5
1261
  8
0
 10
133.5429039475766899
 20
198.7119115230813975
 30
-0.0000000000000284
 40
5.5000000000001137
  0
CIRCLE
  5
1262
  8
0
 10
253.2774191150691934
 20
198.7119115230813975
 30
-0.0000000000000568
 40
5.5000000000001137
  0
CIRCLE
  5
1263
  8
0
 10
193.410161531322899
 20
155.215802853438305
 30
-0.0000000000000426
 40
86.0000000000001137
  0
CIRCLE
  5
1264
  8
0
 10
193.4101615313230127
 20
155.215802853438305
 30
-0.0000000000000426
 40
55.7067558379250087
  0
CIRCLE
  5
1265
  8
0
 10
193.410161531322899
 20
155.215802853438305
 30
-0.0000000000000426
 40
59.3192208867887985
  0
CIRCLE
  5
1266
  8
0
 10
193.4101615313230127
 20
155.215802853438305
 30
-0.0000000000000409
 40
49.0
  0
CIRCLE
  5
1267
  8
0
 10
193.4101615313230127
 20
155.215802853438305
 30
-0.0000000000000426
 40
52.9999999999998934
  0
CIRCLE
  5
1268
  8
0
 10
193.4101615313230127
 20
155.215802853438305
 30
-0.0000000000000426
 40
53.8898160223773104
  0
CIRCLE
  5
1269
  8
0
 10
193.4101615313230127
 20
155.215802853438305
 30
-0.0000000000000426
 40
58.9999999990744683
  0
CIRCLE
  5
126A
  8
0
  6
VERDECKT
 62
     1
 10
193.410161531322899
 20
155.215802853438305
 30
-0.0000000000000426
 40
57.7000000000003794
  0
CIRCLE
  5
126B
  8
0
  6
VERDECKT
 62
     1
 10
193.4101615313230127
 20
155.215802853438305
 30
-0.0000000000000426
 40
54.9999999999998934
  0
CIRCLE
  5
126C
  8
0
  6
VERDECKT
 62
     1
 10
193.4101615313230127
 20
155.215802853438305
 30
-0.0000000000000409
 40
50.9999999999998792
  0
CIRCLE
  5
126D
  8
0
  6
VERDECKT
 62
     1
 10
193.410161531322899
 20
155.215802853438305
 30
-0.0000000000000426
 40
57.7000000000001592
  0
CIRCLE
  5
126E
  8
0
  6
VERDECKT
 62
     1
 10
193.4101615313230127
 20
155.215802853438305
 30
-0.0000000000000426
 40
57.0024686954657582
  0
ENDBLK
  5
1270
  8
0
  0
BLOCK
  8
0
  2
A$C7D4B7B35
 70
     0
 10
0.0
 20
0.0
 30
0.0
  3
A$C7D4B7B35
  1

  0
LINE
  5
1274
  8
0
 10
279.4101615313230127
 20
-39.4999999999983586
 30
0.0000000000000088
 11
107.4101615313227995
 21
-39.4999999999982521
 31
0.0000000000000088
210
0.0
220
1.0
230
-0.0000000000000002
  0
LINE
  5
1275
  8
0
 10
279.4101615313230127
 20
-57.4999999999983586
 30
0.0000000000000128
 11
107.410161531322899
 21
-57.4999999999982521
 31
0.0000000000000128
210
0.0
220
1.0
230
-0.0000000000000002
  0
LINE
  5
1276
  8
0
 10
107.410161531322899
 20
-57.4999999999982521
 30
0.0000000000000128
 11
107.410161531322899
 21
-39.4999999999982379
 31
0.0000000000000088
210
0.0
220
1.0
230
-0.0000000000000002
  0
LINE
  5
1277
  8
0
 10
279.4101615313230127
 20
-57.4999999999983586
 30
0.0000000000000128
 11
279.4101615313230127
 21
-39.4999999999983586
 31
0.0000000000000088
210
0.0
220
1.0
230
-0.0000000000000002
  0
LINE
  5
1278
  8
0
 10
137.7034056933979969
 20
84.500000000001549
 30
-0.0000000000000188
 11
249.1169173692481138
 21
84.500000000001549
 31
-0.0000000000000188
210
0.0
220
1.0
230
-0.0000000000000002
  0
LINE
  5
1279
  8
0
 10
134.0909406445341006
 20
-38.3260648570762399
 30
0.0000000000000085
 11
252.7293824181118111
 21
-38.3260648570763607
 31
0.0000000000000085
210
0.0
220
1.0
230
-0.0000000000000002
  0
ARC
  5
127A
  8
0
 10
-160.1793207954459888
 20
71.8951275509219698
 30
0.0
 40
25.7691592631974515
210
0.0
220
-0.0000000000000002
230
-1.0
 50
359.9997139057919071
 51
29.2844438278486017
  0
ARC
  5
127B
  8
0
 10
-226.6410022672002071
 20
71.8951275509219556
 30
0.0
 40
25.7691592631973982
210
0.0
220
-0.0000000000000002
230
-1.0
 50
150.7155561721513948
 51
180.0002860942080929
  0
LINE
  5
127C
  8
0
 10
134.4102522206235051
 20
53.7329998806402998
 30
-0.0000000000000119
 11
134.4101615325699015
 21
71.8949988781423031
 31
-0.000000000000016
210
0.0
220
1.0
230
-0.0000000000000002
  0
LINE
  5
127D
  8
0
 10
252.4100708420226056
 20
53.7329998806402571
 30
-0.0000000000000119
 11
252.4101615300762944
 21
71.8949988781422604
 31
-0.000000000000016
210
0.0
220
1.0
230
-0.0000000000000002
  0
ARC
  5
127E
  8
0
 10
-159.4101615313252864
 20
53.7330000000023205
 30
0.0
 40
24.9999093107018702
210
0.0
220
-0.0000000000000002
230
-1.0
 50
333.1122293409810027
 51
359.9999997264413878
  0
ARC
  5
127F
  8
0
 10
-227.4101615313207105
 20
53.7330000000022707
 30
0.0
 40
24.9999093107018986
210
0.0
220
-0.0000000000000002
230
-1.0
 50
180.0000002735584985
 51
206.8877706590189973
  0
ARC
  5
1280
  8
0
 10
-126.4101615313229985
 20
37.0000000000018119
 30
0.0
 40
12.0000000000001297
210
0.0
220
-0.0000000000000002
230
-1.0
 50
153.112229340980889
 51
180.000000000000199
  0
ARC
  5
1281
  8
0
 10
-260.4101615313235811
 20
37.0000000000015774
 30
0.0
 40
12.0000000000006501
210
0.0
220
-0.0000000000000002
230
-1.0
 50
0.0000000000006107
 51
26.887770659018809
  0
LINE
  5
1282
  8
0
 10
248.4101615313230127
 20
37.0000000000017195
 30
-0.0000000000000082
 11
248.4101615313230127
 21
21.4274888769492691
 31
-0.0000000000000048
210
0.0
220
1.0
230
-0.0000000000000002
  0
LINE
  5
1283
  8
0
 10
138.4101615313232116
 20
37.0000000000017621
 30
-0.0000000000000082
 11
138.4101615313232116
 21
21.4274888769493685
 31
-0.0000000000000048
210
0.0
220
1.0
230
-0.0000000000000002
  0
ARC
  5
1284
  8
0
 10
-153.4101615313225864
 20
21.427488876949301
 30
0.0
 40
14.9999999999995204
210
0.0
220
-0.0000000000000002
230
-1.0
 50
325.698847243207922
 51
0.0000000000002544
  0
ARC
  5
1285
  8
0
 10
-233.4101615313238085
 20
21.4274888769491696
 30
0.0
 40
14.9999999999992006
210
0.0
220
-0.0000000000000002
230
-1.0
 50
179.9999999999996021
 51
214.3011527567927033
  0
ARC
  5
1286
  8
0
 10
-134.410161531323098
 20
8.4660074801337242
 30
0.0
 40
7.9999999999998881
210
0.0
220
-0.0000000000000002
230
-1.0
 50
145.6988472432084052
 51
179.9999999999996874
  0
ARC
  5
1287
  8
0
 10
-252.410161531322899
 20
8.4660074801335821
 30
0.0
 40
8.0000000000000284
210
0.0
220
-0.0000000000000002
230
-1.0
 50
0.0
 51
34.3011527567916872
  0
LINE
  5
1288
  8
0
 10
244.410161531322899
 20
8.4660074801336709
 30
-0.0000000000000019
 11
244.410161531322899
 21
-24.256387135121269
 31
0.0000000000000054
210
0.0
220
1.0
230
-0.0000000000000002
  0
LINE
  5
1289
  8
0
 10
142.4101615313230127
 20
8.4660074801337633
 30
-0.0000000000000019
 11
142.4101615313230127
 21
-24.2563871351211802
 31
0.0000000000000054
210
0.0
220
1.0
230
-0.0000000000000002
  0
ARC
  5
128A
  8
0
 10
-134.4101615313225864
 20
-24.2563871351208995
 30
0.0
 40
8.0000000000006253
210
0.0
220
-0.0000000000000002
230
-1.0
 50
180.0000000000017906
 51
215.9421118713823091
  0
ARC
  5
128B
  8
0
 10
-252.4101615313232969
 20
-24.256387135120999
 30
0.0
 40
8.0000000000006235
210
0.0
220
-0.0000000000000002
230
-1.0
 50
324.0578881286177193
 51
359.9999999999981242
  0
LINE
  5
128C
  8
0
 10
245.9332779841676881
 20
-28.9521277068087706
 30
0.0000000000000064
 11
252.7293824181118111
 21
-38.3260648570763465
 31
0.0000000000000085
210
0.0
220
1.0
230
-0.0000000000000002
  0
LINE
  5
128D
  8
0
 10
140.8870450784781951
 20
-28.9521277068086818
 30
0.0000000000000064
 11
134.0909406445341006
 21
-38.326064857076247
 31
0.0000000000000085
210
0.0
220
1.0
230
-0.0000000000000002
  0
LINE
  5
128E
  8
0
 10
135.7101615313227967
 20
-39.4999999999982307
 30
0.0000000000000088
 11
134.0909406445341858
 21
-38.3260648570762328
 31
0.0000000000000085
210
0.0
220
1.0
230
-0.0000000000000002
  0
LINE
  5
128F
  8
0
 10
251.1101615313230866
 20
-39.4999999999983231
 30
0.0000000000000088
 11
252.7293824181116975
 21
-38.326064857076318
 31
0.0000000000000085
210
0.0
220
1.0
230
-0.0000000000000002
  0
LINE
  5
1290
  8
0
  6
VERDECKT
 62
     1
 10
113.9101615313227001
 20
-57.4999999999977334
 30
0.0000000000000128
 11
113.9101615313227995
 21
-39.4999999999976978
 31
0.0000000000000088
210
0.0
220
1.0
230
-0.0000000000000002
  0
LINE
  5
1291
  8
0
  6
VERDECKT
 62
     1
 10
124.910161531322899
 20
-57.4999999999983089
 30
0.0000000000000128
 11
124.9101615313229985
 21
-39.4999999999982521
 31
0.0000000000000088
210
0.0
220
1.0
230
-0.0000000000000002
  0
LINE
  5
1292
  8
0
  6
VERDECKT
 62
     1
 10
176.0429039475770026
 20
-39.499999999997911
 30
0.0000000000000088
 11
176.0429039475770026
 21
-57.4999999999979678
 31
0.0000000000000128
210
0.0
220
1.0
230
-0.0000000000000002
  0
LINE
  5
1293
  8
0
  6
VERDECKT
 62
     1
 10
165.0429039475766899
 20
-39.4999999999978968
 30
0.0000000000000088
 11
165.0429039475766899
 21
-57.4999999999979607
 31
0.0000000000000128
210
0.0
220
1.0
230
-0.0000000000000002
  0
LINE
  5
1294
  8
0
  6
VERDECKT
 62
     1
 10
247.7774191150691081
 20
-57.4999999999983018
 30
0.0000000000000128
 11
247.7774191150689944
 21
-39.4999999999982379
 31
0.0000000000000088
210
0.0
220
1.0
230
-0.0000000000000002
  0
LINE
  5
1295
  8
0
  6
VERDECKT
 62
     1
 10
258.7774191150692786
 20
-57.4999999999983231
 30
0.0000000000000128
 11
258.7774191150692218
 21
-39.4999999999982521
 31
0.0000000000000088
210
0.0
220
1.0
230
-0.0000000000000002
  0
LINE
  5
1296
  8
0
  6
VERDECKT
 62
     1
 10
272.9101615313231264
 20
-39.4999999999983089
 30
0.0000000000000088
 11
272.9101615313231832
 21
-57.4999999999983729
 31
0.0000000000000128
210
0.0
220
1.0
230
-0.0000000000000002
  0
LINE
  5
1297
  8
0
  6
VERDECKT
 62
     1
 10
261.910161531322899
 20
-39.4999999999982521
 30
0.0000000000000088
 11
261.9101615313230127
 21
-57.4999999999983089
 31
0.0000000000000128
210
0.0
220
1.0
230
-0.0000000000000002
  0
LINE
  5
1298
  8
0
  6
VERDECKT
 62
     1
 10
210.7774191150689092
 20
-57.4999999999981597
 30
0.0000000000000128
 11
210.7774191150689092
 21
-39.4999999999980673
 31
0.0000000000000088
210
0.0
220
1.0
230
-0.0000000000000002
  0
LINE
  5
1299
  8
0
  6
VERDECKT
 62
     1
 10
221.7774191150691934
 20
-57.4999999999981668
 30
0.0000000000000128
 11
221.7774191150691934
 21
-39.4999999999980815
 31
0.0000000000000088
210
0.0
220
1.0
230
-0.0000000000000002
  0
LINE
  5
129A
  8
0
  6
VERDECKT
 62
     1
 10
139.0429039475768889
 20
-39.4999999999977689
 30
0.0000000000000088
 11
139.0429039475768036
 21
-57.4999999999978328
 31
0.0000000000000128
210
0.0
220
1.0
230
-0.0000000000000002
  0
LINE
  5
129B
  8
0
  6
VERDECKT
 62
     1
 10
128.0429039475766047
 20
-39.4999999999977476
 30
0.0000000000000088
 11
128.0429039475766047
 21
-57.4999999999978186
 31
0.0000000000000128
210
0.0
220
1.0
230
-0.0000000000000002
  0
LINE
  5
129C
  8
0
  6
VERDECKT
 62
     1
 10
135.7101615313227114
 20
-57.4999999999983089
 30
0.0000000000000128
 11
135.7101615313227114
 21
-39.4999999999980886
 31
0.0000000000000088
210
0.0
220
1.0
230
-0.0000000000000002
  0
LINE
  5
129D
  8
0
  6
VERDECKT
 62
     1
 10
251.1101615313232003
 20
-57.4999999999983089
 30
0.0000000000000128
 11
251.1101615313232003
 21
-39.4999999999981881
 31
0.0000000000000088
210
0.0
220
1.0
230
-0.0000000000000002
  0
LINE
  5
129E
  8
0
  6
VERDECKT
 62
     1
 10
139.5203455089456952
 20
83.4449333208337549
 30
-0.0000000000000185
 11
247.299977553700387
 21
83.4449333208336554
 31
-0.0000000000000185
210
0.0
220
1.0
230
-0.0000000000000002
  0
LINE
  5
129F
  8
0
  6
VERDECKT
 62
     1
 10
244.3140570973789067
 20
-30.1260628497305696
 30
0.0000000000000067
 11
251.1101615313230866
 21
-39.49999999999838
 31
0.0000000000000088
210
0.0
220
1.0
230
-0.0000000000000002
  0
LINE
  5
12A0
  8
0
  6
VERDECKT
 62
     1
 10
142.506265965267005
 20
-30.1260628497304914
 30
0.0000000000000067
 11
135.7101615313227967
 21
-39.4999999999982805
 31
0.0000000000000088
210
0.0
220
1.0
230
-0.0000000000000002
  0
ARC
  5
12A1
  8
0
  6
VERDECKT
 62
     1
 10
-134.4101615313217053
 20
-24.25638713512107
 30
0.0
 40
10.00000000000116
210
0.0
220
-0.0000000000000002
230
-1.0
 50
180.0000000000007958
 51
215.9421118713779038
  0
ARC
  5
12A2
  8
0
  6
VERDECKT
 62
     1
 10
-252.4101615313242064
 20
-24.2563871351211802
 30
0.0
 40
10.0000000000011298
210
0.0
220
-0.0000000000000002
230
-1.0
 50
324.0578881286220962
 51
359.9999999999992042
  0
LINE
  5
12A3
  8
0
  6
VERDECKT
 62
     1
 10
242.410161531323098
 20
8.466007480133614
 30
-0.0000000000000019
 11
242.410161531323098
 21
-24.2563871351213187
 31
0.0000000000000054
210
0.0
220
1.0
230
-0.0000000000000002
  0
LINE
  5
12A4
  8
0
  6
VERDECKT
 62
     1
 10
144.4101615313228137
 20
8.4660074801336496
 30
-0.0000000000000019
 11
144.4101615313228137
 21
-24.2563871351212299
 31
0.0000000000000054
210
0.0
220
1.0
230
-0.0000000000000002
  0
ARC
  5
12A5
  8
0
  6
VERDECKT
 62
     1
 10
-134.4101615313234959
 20
8.4660074801339942
 30
0.0
 40
9.9999999999993214
210
0.0
220
-0.0000000000000002
230
-1.0
 50
145.6988472432088031
 51
180.0000000000019043
  0
ARC
  5
12A6
  8
0
  6
VERDECKT
 62
     1
 10
-252.4101615313225864
 20
8.4660074801338681
 30
0.0
 40
9.9999999999994884
210
0.0
220
-0.0000000000000002
230
-1.0
 50
359.9999999999985221
 51
34.3011527567914811
  0
ARC
  5
12A7
  8
0
  6
VERDECKT
 62
     1
 10
-153.4101615313232969
 20
21.4274888769493792
 30
0.0
 40
13.0000000000002007
210
0.0
220
-0.0000000000000002
230
-1.0
 50
325.6988472432087747
 51
360.0
  0
ARC
  5
12A8
  8
0
  6
VERDECKT
 62
     1
 10
-233.410161531322899
 20
21.4274888769492797
 30
0.0
 40
13.0000000000001101
210
0.0
220
-0.0000000000000002
230
-1.0
 50
180.0
 51
214.3011527567911969
  0
LINE
  5
12A9
  8
0
  6
VERDECKT
 62
     1
 10
246.4101615313230127
 20
37.0000000000018332
 30
-0.0000000000000082
 11
246.4101615313230127
 21
21.4274888769492691
 31
-0.0000000000000048
210
0.0
220
1.0
230
-0.0000000000000002
  0
LINE
  5
12AA
  8
0
  6
VERDECKT
 62
     1
 10
140.4101615313232116
 20
37.0000000000018616
 30
-0.0000000000000082
 11
140.4101615313232116
 21
21.4274888769493685
 31
-0.0000000000000048
210
0.0
220
1.0
230
-0.0000000000000002
  0
ARC
  5
12AB
  8
0
  6
VERDECKT
 62
     1
 10
-126.4098689217517943
 20
36.9999300536832223
 30
0.0
 40
14.00029260974609
210
0.0
220
-0.0000000000000002
230
-1.0
 50
153.112515594200687
 51
179.9997137467792925
  0
ARC
  5
12AC
  8
0
  6
VERDECKT
 62
     1
 10
-260.4104541408937052
 20
36.9999300536832507
 30
0.0
 40
14.0002926097455305
210
0.0
220
-0.0000000000000002
230
-1.0
 50
0.000286253220432
 51
26.8874844058001408
  0
ARC
  5
12AD
  8
0
  6
VERDECKT
 62
     1
 10
-159.4106422451523883
 20
53.7331149113579869
 30
0.0
 40
23.0003900248160988
210
0.0
220
-0.0000000000000002
230
-1.0
 50
333.1125155942003744
 51
359.9997139057891786
  0
ARC
  5
12AE
  8
0
  6
VERDECKT
 62
     1
 10
-227.4096808174936939
 20
53.7331149113579585
 30
0.0
 40
23.0003900248161592
210
0.0
220
-0.0000000000000002
230
-1.0
 50
180.0002860942107077
 51
206.8874844057995972
  0
LINE
  5
12AF
  8
0
  6
VERDECKT
 62
     1
 10
136.4102522206231924
 20
53.7330000638336784
 30
-0.0000000000000119
 11
136.4101615324701129
 21
71.8950188339038618
 31
-0.000000000000016
210
0.0
220
1.0
230
-0.0000000000000002
  0
LINE
  5
12B0
  8
0
  6
VERDECKT
 62
     1
 10
250.4100708420228898
 20
53.7330000638336429
 30
-0.0000000000000119
 11
250.4101615301759978
 21
71.8950188339038192
 31
-0.000000000000016
210
0.0
220
1.0
230
-0.0000000000000002
  0
ARC
  5
12B1
  8
0
  6
VERDECKT
 62
     1
 10
-158.11795957935621
 20
72.2224116094634212
 30
0.0
 40
21.7102667434989307
210
0.0
220
-0.0000000000000002
230
-1.0
 50
359.1359417393518925
 51
29.2795353759277788
  0
ARC
  5
12B2
  8
0
  6
VERDECKT
 62
     1
 10
-228.7023634832891048
 20
72.2224116094631654
 30
0.0
 40
21.7102667434997194
210
0.0
220
-0.0000000000000002
230
-1.0
 50
150.7204646240728039
 51
180.8640582606475107
  0
LINE
  5
12B3
  8
0
  6
VERDECKT
 62
     1
 10
247.2999775537003018
 20
83.4449333208336554
 30
-0.0000000000000185
 11
247.6390136495180911
 21
82.8402721545904654
 31
-0.0000000000000184
210
0.0
220
1.0
230
-0.0000000000000002
  0
LINE
  5
12B4
  8
0
  6
VERDECKT
 62
     1
 10
139.5203455089458089
 20
83.4449333208337265
 30
-0.0000000000000185
 11
139.1813094131279911
 21
82.8402721545905081
 31
-0.0000000000000184
210
0.0
220
1.0
230
-0.0000000000000002
  0
LINE
  5
12B5
  8
0
  6
VERDECKT
 62
     1
 10
139.5203455089458089
 20
83.4449333208338118
 30
-0.0000000000000185
 11
137.7034056933981105
 21
84.5000000000017053
 31
-0.0000000000000188
210
0.0
220
1.0
230
-0.0000000000000002
  0
LINE
  5
12B6
  8
0
  6
VERDECKT
 62
     1
 10
247.299977553700387
 20
83.4449333208337265
 30
-0.0000000000000185
 11
249.1169173692481138
 21
84.5000000000016342
 31
-0.0000000000000188
210
0.0
220
1.0
230
-0.0000000000000002
  0
ENDBLK
  5
12B8
  8
0
  0
ENDSEC
  0
SECTION
  2
ENTITIES
  0
TEXT
  5
8F
  8
VOLL
 10
78.076754716981128
 20
31.025947764705851
 30
0.0
 40
1.8
  1

  7
GREEKS
  0
INSERT
  5
743
  8
ADSK_ASSOC_ENTITY_BACKUPS
  2
*S2
 10
0.0
 20
0.0
 30
0.0
  0
INSERT
  5
1271
  8
STEMPEL
  2
A$C8E7F5D9D
 10
217.4977629442292937
 20
-187.4794115023935888
 30
-70.9036422662546215
  0
INSERT
  5
12B9
  8
STEMPEL
  2
A$C7D4B7B35
 10
217.4977629442292937
 20
164.1648690159018997
 30
-70.9036422662546642
  0
VIEWPORT
  5
722
 67
     1
  8
0
 10
27.2737099668401903
 20
214.3561067240127045
 30
0.0
 40
533.9969448798290159
 41
299.1239570917758783
 68
     1
 69
     1
1001
ACAD
1000
MVIEW
1002
{
1070
    16
1010
0.0
1020
0.0
1030
0.0
1010
0.0
1020
0.0
1030
1.0
1040
0.0
1040
299.1239570917758783
1040
27.2737099668401903
1040
214.3561067240127045
1040
50.0
1040
0.0
1040
0.0
1070
     0
1070
  1500
1070
     1
1070
     1
1070
     0
1070
     0
1070
     0
1070
     0
1040
0.0
1040
0.0
1040
0.0
1040
10.0
1040
10.0
1040
10.0
1040
10.0
1070
     0
1002
{
1002
}
1002
}
  0
ENDSEC
  0
EOF
