  0
SECTION
  2
HEADER
  9
$ACADVER
  1
AC1009
  9
$INSBASE
 10
0.0
 20
0.0
 30
0.0
  9
$EXTMIN
 10
400.0871569537383721
 20
150.8067876335379935
 30
-50.4183367984675428
  9
$EXTMAX
 10
550.0871569537387131
 20
481.1582560126045109
 30
-50.4183367984675002
  9
$LIMMIN
 10
0.0
 20
0.0
  9
$LIMMAX
 10
210.0
 20
297.0
  9
$ORTHOMODE
 70
     1
  9
$REGENMODE
 70
     1
  9
$FILLMODE
 70
     1
  9
$QTEXTMODE
 70
     0
  9
$MIRRTEXT
 70
     1
  9
$DRAGMODE
 70
     2
  9
$LTSCALE
 40
10.0
  9
$OSMODE
 70
  2495
  9
$ATTMODE
 70
     1
  9
$TEXTSIZE
 40
3.5
  9
$TRACEWID
 40
0.5
  9
$TEXTSTYLE
  7
STANDARD
  9
$CLAYER
  8
STEMPEL
  9
$CELTYPE
  6
BYLAYER
  9
$CECOLOR
 62
   256
  9
$DIMSCALE
 40
1.0
  9
$DIMASZ
 40
3.5
  9
$DIMEXO
 40
1.0
  9
$DIMDLI
 40
7.0
  9
$DIMRND
 40
0.0
  9
$DIMDLE
 40
0.0
  9
$DIMEXE
 40
1.0
  9
$DIMTP
 40
0.0
  9
$DIMTM
 40
0.0
  9
$DIMTXT
 40
3.5
  9
$DIMCEN
 40
1.5
  9
$DIMTSZ
 40
0.0
  9
$DIMTOL
 70
     0
  9
$DIMLIM
 70
     0
  9
$DIMTIH
 70
     0
  9
$DIMTOH
 70
     0
  9
$DIMSE1
 70
     0
  9
$DIMSE2
 70
     0
  9
$DIMTAD
 70
     1
  9
$DIMZIN
 70
     8
  9
$DIMBLK
  1

  9
$DIMASO
 70
     1
  9
$DIMSHO
 70
     0
  9
$DIMPOST
  1

  9
$DIMAPOST
  1

  9
$DIMALT
 70
     0
  9
$DIMALTD
 70
     2
  9
$DIMALTF
 40
25.3999999999999986
  9
$DIMLFAC
 40
2.0
  9
$DIMTOFL
 70
     1
  9
$DIMTVP
 40
0.0
  9
$DIMTIX
 70
     0
  9
$DIMSOXD
 70
     0
  9
$DIMSAH
 70
     0
  9
$DIMBLK1
  1

  9
$DIMBLK2
  1

  9
$DIMSTYLE
  2
STANDARD
  9
$DIMCLRD
 70
     0
  9
$DIMCLRE
 70
     0
  9
$DIMCLRT
 70
     1
  9
$DIMTFAC
 40
0.5
  9
$DIMGAP
 40
1.5
  9
$LUNITS
 70
     2
  9
$LUPREC
 70
     2
  9
$SKETCHINC
 40
1.0
  9
$FILLETRAD
 40
0.0
  9
$AUNITS
 70
     0
  9
$AUPREC
 70
     0
  9
$MENU
  1
ACAD
  9
$ELEVATION
 40
0.0
  9
$PELEVATION
 40
0.0
  9
$THICKNESS
 40
0.0
  9
$LIMCHECK
 70
     0
  9
$BLIPMODE
 70
     0
  9
$CHAMFERA
 40
0.0
  9
$CHAMFERB
 40
0.0
  9
$SKPOLY
 70
     0
  9
$TDCREATE
 40
2455397.8646990740671754
  9
$TDUPDATE
 40
2459627.5690277782268822
  9
$TDINDWG
 40
0.2072841667
  9
$TDUSRTIMER
 40
0.2072841667
  9
$USRTIMER
 70
     1
  9
$ANGBASE
 50
0.0
  9
$ANGDIR
 70
     0
  9
$PDMODE
 70
     0
  9
$PDSIZE
 40
0.0
  9
$PLINEWID
 40
0.0
  9
$COORDS
 70
     1
  9
$SPLFRAME
 70
     0
  9
$SPLINETYPE
 70
     6
  9
$SPLINESEGS
 70
     8
  9
$ATTDIA
 70
     1
  9
$ATTREQ
 70
     1
  9
$HANDLING
 70
     1
  9
$HANDSEED
  5
18D4
  9
$SURFTAB1
 70
     6
  9
$SURFTAB2
 70
     6
  9
$SURFTYPE
 70
     6
  9
$SURFU
 70
     6
  9
$SURFV
 70
     6
  9
$UCSNAME
  2

  9
$UCSORG
 10
0.0
 20
0.0
 30
0.0
  9
$UCSXDIR
 10
1.0
 20
0.0
 30
0.0
  9
$UCSYDIR
 10
0.0
 20
1.0
 30
0.0
  9
$PUCSNAME
  2

  9
$PUCSORG
 10
0.0
 20
0.0
 30
0.0
  9
$PUCSXDIR
 10
1.0
 20
0.0
 30
0.0
  9
$PUCSYDIR
 10
0.0
 20
1.0
 30
0.0
  9
$USERI1
 70
     0
  9
$USERI2
 70
     0
  9
$USERI3
 70
     0
  9
$USERI4
 70
     0
  9
$USERI5
 70
     0
  9
$USERR1
 40
0.0
  9
$USERR2
 40
0.0
  9
$USERR3
 40
0.0
  9
$USERR4
 40
0.0
  9
$USERR5
 40
0.0
  9
$WORLDVIEW
 70
     1
  9
$SHADEDGE
 70
     3
  9
$SHADEDIF
 70
    70
  9
$TILEMODE
 70
     1
  9
$MAXACTVP
 70
    16
  9
$PLIMCHECK
 70
     0
  9
$PEXTMIN
 10
1.0000000000000000E+20
 20
1.0000000000000000E+20
 30
1.0000000000000000E+20
  9
$PEXTMAX
 10
-1.0000000000000000E+20
 20
-1.0000000000000000E+20
 30
-1.0000000000000000E+20
  9
$PLIMMIN
 10
-72.595107265238795
 20
83.8978105286084315
  9
$PLIMMAX
 10
137.404892734761205
 20
380.8978105286084883
  9
$UNITMODE
 70
     0
  9
$VISRETAIN
 70
     0
  9
$PLINEGEN
 70
     0
  9
$PSLTSCALE
 70
     0
  0
ENDSEC
  0
SECTION
  2
TABLES
  0
TABLE
  2
VPORT
 70
     1
  0
VPORT
  2
*ACTIVE
 70
     0
 10
0.0
 20
0.0
 11
1.0
 21
1.0
 12
5.8193474461999406
 22
-5.2422088644435973
 13
0.0
 23
0.0
 14
1.0
 24
1.0
 15
10.0
 25
10.0
 16
-0.0000000000002274
 26
0.0
 36
899.994492366294935
 17
469.2678095075385727
 27
321.2247306875149206
 37
-25.2091683992337394
 40
332.7139341839226745
 41
1.7852028639618129
 42
50.0
 43
0.0
 44
0.0
 50
0.0
 51
0.0
 71
     0
 72
  1500
 73
     1
 74
     0
 75
     0
 76
     0
 77
     0
 78
     0
  0
ENDTAB
  0
TABLE
  2
LTYPE
 70
     6
  0
LTYPE
  2
CONTINUOUS
 70
     0
  3
Solid line
 72
    65
 73
     0
 40
0.0
  0
LTYPE
  2
PHANTOM2
 70
     0
  3
Phantom (.5x) ___ _ _ ___ _ _ ___ _ _ ___ _ _
 72
    65
 73
     6
 40
1.25
 49
0.625
 49
-0.125
 49
0.125
 49
-0.125
 49
0.125
 49
-0.125
  0
LTYPE
  2
VERDECKT
 70
     0
  3
Verdeckt __ __ __ __ __ __ __ __ __ __ __ __ __
 72
    65
 73
     2
 40
0.375
 49
0.25
 49
-0.125
  0
ENDTAB
  0
TABLE
  2
LAYER
 70
    14
  0
LAYER
  2
0
 70
     0
 62
     7
  6
CONTINUOUS
  0
LAYER
  2
VOLL
 70
     0
 62
     1
  6
CONTINUOUS
  0
LAYER
  2
STEMPEL
 70
     0
 62
     3
  6
CONTINUOUS
  0
LAYER
  2
ADSK_ASSOC_ENTITY_BACKUPS
 70
     1
 62
    -7
  6
CONTINUOUS
  0
LAYER
  2
DEFPOINTS
 70
     0
 62
     7
  6
CONTINUOUS
  0
ENDTAB
  0
TABLE
  2
STYLE
 70
     4
  0
STYLE
  2
STANDARD
 70
     0
 40
0.0
 41
0.8
 50
0.0
 71
     0
 42
3.5
  3
simplex.shx
  4

  0
STYLE
  2
GREEKS
 70
     0
 40
0.0
 41
0.8
 50
0.0
 71
     0
 42
2.5
  3
SIMPLEX.shx
  4

  0
ENDTAB
  0
TABLE
  2
VIEW
 70
     1
  0
ENDTAB
  0
TABLE
  2
UCS
 70
     0
  0
ENDTAB
  0
TABLE
  2
APPID
 70
    23
  0
APPID
  2
ACAD
 70
     0
  0
APPID
  2
ACAD_NAV_VCDISPLAY
 70
     0
  0
APPID
  2
ACAD_MLEADERVER
 70
     0
  0
APPID
  2
ACAD_EXEMPT_FROM_CAD_STANDARDS
 70
     0
  0
APPID
  2
ACAD_PSEXT
 70
     0
  0
APPID
  2
ACAECLAYERSTANDARD
 70
     0
  0
APPID
  2
ACCMTRANSPARENCY
 70
     0
  0
APPID
  2
ACDBDYNAMICBLOCKGUID
 70
     0
  0
APPID
  2
ACADANNOPO
 70
     0
  0
APPID
  2
ACAUTHENVIRON
 70
     0
  0
APPID
  2
ACSYNERGY
 70
     0
  0
APPID
  2
SYNERGY_BODY_TBR_ID
 70
     0
  0
APPID
  2
ACAD_VIEW_EDGE_ID
 70
     0
  0
APPID
  2
ACSYNERGYSKETCH
 70
     0
  0
APPID
  2
ACAD_MODELDOC_XFORM
 70
     0
  0
APPID
  2
ACAD_DSTYLE_DIMJAG
 70
     0
  0
APPID
  2
ACAD_DSTYLE_DIMTALN
 70
     0
  0
APPID
  2
ACADANNOMONITORALERTICONDI
 70
     0
  0
APPID
  2
ACAD_DIMASSOC_CALC_DIMLFAC
 70
     0
  0
APPID
  2
ACAD_DIMASSOC_DIMLFAC
 70
     0
  0
APPID
  2
ACAD_DIMASSOC_OVERRIDDEN_D
 70
     0
  0
APPID
  2
ACAD_DSTYLE_DIMRADIAL_EXTENSION
 70
     0
  0
APPID
  2
AcDbAttr
 70
     0
  0
ENDTAB
  0
TABLE
  2
DIMSTYLE
 70
     2
  0
DIMSTYLE
  2
STANDARD
 70
     0
  3

  4

  5

  6

  7

 40
1.0
 41
0.18
 42
0.0625
 43
0.38
 44
0.18
 45
0.0
 46
0.0
 47
0.0
 48
0.0
140
0.18
141
0.09
142
0.0
143
25.3999999999999986
144
1.0
145
0.0
146
1.0
147
0.09
 71
     0
 72
     0
 73
     1
 74
     1
 75
     0
 76
     0
 77
     0
 78
     0
170
     0
171
     2
172
     0
173
     0
174
     0
175
     0
176
     0
177
     0
178
     0
  0
ENDTAB
  0
ENDSEC
  0
SECTION
  2
BLOCKS
  0
BLOCK
  8
0
  2
$MODEL_SPACE
 70
     0
 10
0.0
 20
0.0
 30
0.0
  3
$MODEL_SPACE
  1

  0
ENDBLK
  5
36
  8
0
  0
BLOCK
 67
     1
  8
0
  2
$PAPER_SPACE
 70
     0
 10
0.0
 20
0.0
 30
0.0
  3
$PAPER_SPACE
  1

  0
ENDBLK
  5
34
 67
     1
  8
0
  0
BLOCK
  8
0
  2
*S2
 70
     1
 10
0.0
 20
0.0
 30
0.0
  3
*S2
  1

  0
ENDBLK
  5
EC6
  8
0
  0
BLOCK
  8
0
  2
A$CFDB59121
 70
     0
 10
0.0
 20
0.0
 30
0.0
  3
A$CFDB59121
  1

  0
CIRCLE
  5
181C
  8
0
 10
211.9874630238610109
 20
234.4444487410233933
 30
0.000000000000048
 40
42.8999999999999915
  0
CIRCLE
  5
181D
  8
0
 10
211.9874630238610109
 20
234.4444487410233933
 30
0.0000000000000497
 40
51.0999999999999872
  0
CIRCLE
  5
181E
  8
0
 10
211.9874630238610962
 20
234.4444487410233933
 30
0.0000000000000426
 40
47.765404670339862
  0
CIRCLE
  5
181F
  8
0
 10
211.9874630238610962
 20
234.4444487410233933
 30
0.0000000000000426
 40
46.3153122110812916
  0
CIRCLE
  5
1820
  8
0
 10
211.9874630238610109
 20
234.4444487410233933
 30
0.0000000000000497
 40
46.0
  0
CIRCLE
  5
1821
  8
0
 10
211.9874630238610109
 20
234.4444487410233933
 30
0.0000000000000497
 40
51.1000932431256274
  0
CIRCLE
  5
1822
  8
0
 10
148.9874630238610109
 20
234.4444487410233933
 30
0.0000000000000355
 40
5.5
  0
CIRCLE
  5
1823
  8
0
 10
167.4397358091086119
 20
278.9921759557760197
 30
0.0000000000000355
 40
5.5
  0
CIRCLE
  5
1824
  8
0
 10
211.9874630238610109
 20
297.4444487410233933
 30
0.0000000000000497
 40
5.5
  0
CIRCLE
  5
1825
  8
0
 10
256.5351902386136089
 20
278.992175955775906
 30
0.0000000000000568
 40
5.5
  0
CIRCLE
  5
1826
  8
0
 10
274.9874630238609825
 20
234.4444487410233933
 30
0.0000000000000639
 40
5.5
  0
CIRCLE
  5
1827
  8
0
 10
256.5351902386134952
 20
189.8967215262707953
 30
0.0000000000000568
 40
5.5
  0
CIRCLE
  5
1828
  8
0
 10
211.9874630238610109
 20
171.4444487410233933
 30
0.0000000000000497
 40
5.5
  0
CIRCLE
  5
1829
  8
0
 10
167.4397358091084982
 20
189.896721526270909
 30
0.0000000000000355
 40
5.5
  0
CIRCLE
  5
182A
  8
0
 10
211.9874630238610109
 20
234.4444487410233933
 30
0.0000000000000497
 40
75.0000000000001137
  0
CIRCLE
  5
182B
  8
0
  6
VERDECKT
 62
     1
 10
211.9874630238610109
 20
234.4444487410233933
 30
0.000000000000048
 40
44.4999999999999929
  0
CIRCLE
  5
182C
  8
0
  6
VERDECKT
 62
     1
 10
211.9874630238610109
 20
234.4444487410233933
 30
0.0000000000000497
 40
47.5999999999999019
  0
CIRCLE
  5
182D
  8
0
  6
VERDECKT
 62
     1
 10
211.9874630238610109
 20
234.4444487410233933
 30
0.0000000000000497
 40
49.4999999999999929
  0
CIRCLE
  5
182E
  8
0
  6
VERDECKT
 62
     1
 10
211.9874630238610109
 20
234.4444487410233933
 30
0.0000000000000497
 40
45.1499999999999702
  0
CIRCLE
  5
182F
  8
0
  6
VERDECKT
 62
     1
 10
211.9874630238610109
 20
234.4444487410233933
 30
0.0000000000000497
 40
46.7109756097560691
  0
CIRCLE
  5
1830
  8
0
  6
VERDECKT
 62
     1
 10
211.9874630238610109
 20
234.4444487410233933
 30
0.0000000000000497
 40
49.5000932431256331
  0
CIRCLE
  5
1831
  8
0
  6
VERDECKT
 62
     1
 10
211.9874630238610109
 20
234.4444487410233933
 30
0.0000000000000497
 40
45.1499999999999702
  0
ENDBLK
  5
1833
  8
0
  0
BLOCK
  8
0
  2
A$C9D1B35FE
 70
     0
 10
0.0
 20
0.0
 30
0.0
  3
A$C9D1B35FE
  1

  0
LINE
  5
1837
  8
0
 10
631.0639130258821297
 20
245.8110427726857097
 30
-0.0000000000000151
 11
726.5947223665618822
 21
245.8110427726857097
 31
-0.0000000000000151
210
0.0
220
1.0
230
-0.0000000000000002
  0
LINE
  5
1838
  8
0
 10
725.540293305978139
 20
127.1622622848806969
 30
0.0000000000000113
 11
632.1183420864659865
 21
127.1622622848807964
 31
0.0000000000000113
210
0.0
220
1.0
230
-0.0000000000000002
  0
ARC
  5
1839
  8
0
 10
-626.3293176962215512
 20
180.5044431081171865
 30
-0.0000000000000395
 40
8.0000000000005134
210
0.0
220
-0.0000000000000002
230
-1.0
 50
147.671935877839104
 51
180.0
  0
ARC
  5
183A
  8
0
 10
-731.3293176962218922
 20
180.5044431081174139
 30
-0.0000000000000395
 40
7.9999999999999432
210
0.0
220
-0.0000000000000002
230
-1.0
 50
359.9999999999984084
 51
32.3280641221639513
  0
ARC
  5
183B
  8
0
 10
-643.2293176962218695
 20
191.1997691901026997
 30
-0.0000000000000395
 40
11.9999999999998295
210
0.0
220
-0.0000000000000002
230
-1.0
 50
327.6719358778391893
 51
0.0
  0
ARC
  5
183C
  8
0
 10
-714.4293176962221423
 20
191.1997691901026997
 30
-0.0000000000000395
 40
11.9999999999998295
210
0.0
220
-0.0000000000000002
230
-1.0
 50
180.0
 51
212.3280641221608107
  0
LINE
  5
183D
  8
0
 10
726.429317696221915
 20
210.4706900816061079
 30
-0.0000000000000072
 11
726.429317696221915
 21
191.1997691901026997
 31
-0.0000000000000029
210
0.0
220
1.0
230
-0.0000000000000002
  0
LINE
  5
183E
  8
0
 10
631.2293176962220969
 20
210.4706900816059942
 30
-0.0000000000000072
 11
631.2293176962220969
 21
191.1997691901026997
 31
-0.0000000000000029
210
0.0
220
1.0
230
-0.0000000000000002
  0
ARC
  5
183F
  8
0
 10
-619.2293176962224379
 20
210.4706900816061932
 30
-0.0000000000000395
 40
11.9999999999996891
210
0.0
220
-0.0000000000000002
230
-1.0
 50
154.8776318845214064
 51
180.0000000000015916
  0
ARC
  5
1840
  8
0
 10
-738.4293176962211191
 20
210.4706900816063921
 30
-0.0000000000000395
 40
11.9999999999991402
210
0.0
220
-0.0000000000000002
230
-1.0
 50
359.9999999999984084
 51
25.1223681154786114
  0
ARC
  5
1841
  8
0
 10
-652.7293176962225516
 20
226.1791877818957062
 30
-0.0000000000000395
 40
25.0000932431262406
210
0.0
220
-0.0000000000000002
230
-1.0
 50
334.8776318845214064
 51
0.156485954349001
  0
ARC
  5
1842
  8
0
 10
-704.9293176962207781
 20
226.1791877818957914
 30
-0.0000000000000395
 40
25.0000932431269298
210
0.0
220
-0.0000000000000002
230
-1.0
 50
179.8435140456510055
 51
205.1223681154785936
  0
LINE
  5
1843
  8
0
 10
729.9293176962220286
 20
233.2062913101148069
 30
-0.0000000000000123
 11
729.9293176962220286
 21
226.2474678300852986
 31
-0.0000000000000107
210
0.0
220
1.0
230
-0.0000000000000002
  0
LINE
  5
1844
  8
0
 10
627.7293176962220969
 20
233.2062913101148069
 30
-0.0000000000000123
 11
627.7293176962220969
 21
226.2474678300852986
 31
-0.0000000000000107
210
0.0
220
1.0
230
-0.0000000000000002
  0
ARC
  5
1845
  8
0
 10
-652.3293176962258713
 20
233.2062913101136985
 30
-0.0000000000000395
 40
24.6000000000039485
210
0.0
220
-0.0000000000000002
230
-1.0
 50
0.0000000000032569
 51
24.999999999997879
  0
ARC
  5
1846
  8
0
 10
-705.3293176962197322
 20
233.2062913101140111
 30
-0.0000000000000395
 40
24.6000000000022716
210
0.0
220
-0.0000000000000002
230
-1.0
 50
155.0000000000005969
 51
179.9999999999984084
  0
LINE
  5
1847
  8
0
 10
726.5947223665618822
 20
245.8110427726857097
 30
-0.0000000000000151
 11
727.6244892573234893
 21
243.6027005489358999
 31
-0.0000000000000146
210
0.0
220
1.0
230
-0.0000000000000002
  0
LINE
  5
1848
  8
0
 10
631.0639130258822433
 20
245.8110427726857097
 30
-0.0000000000000151
 11
630.0341461351206362
 21
243.6027005489358999
 31
-0.0000000000000146
210
0.0
220
1.0
230
-0.0000000000000002
  0
ARC
  5
1849
  8
0
 10
-733.3293176962207554
 20
138.0999316615738906
 30
-0.0000000000000395
 40
9.9999999999985771
210
0.0
220
-0.0000000000000002
230
-1.0
 50
347.3196165081789104
 51
0.0
  0
ARC
  5
184A
  8
0
 10
-624.3293176962232565
 20
138.0999316615740042
 30
-0.0000000000000395
 40
9.9999999999985505
210
0.0
220
-0.0000000000000002
230
-1.0
 50
180.0
 51
192.6803834918210043
  0
LINE
  5
184B
  8
0
 10
634.3293176962218922
 20
138.0999316615740895
 30
0.0000000000000088
 11
634.3293176962218922
 21
180.5044431081171865
 31
-0.0000000000000006
210
0.0
220
1.0
230
-0.0000000000000002
  0
LINE
  5
184C
  8
0
 10
723.3293176962222333
 20
138.0999316615740042
 30
0.0000000000000088
 11
723.3293176962222333
 21
180.5044431081171865
 31
-0.0000000000000006
210
0.0
220
1.0
230
-0.0000000000000002
  0
LINE
  5
184D
  8
0
 10
633.6793176962221423
 20
126.8110427726856955
 30
0.0000000000000114
 11
632.1183420864659865
 21
127.1622622848807964
 31
0.0000000000000113
210
0.0
220
1.0
230
-0.0000000000000002
  0
LINE
  5
184E
  8
0
 10
723.9793176962220969
 20
126.811042772685596
 30
0.0000000000000114
 11
725.540293305978139
 21
127.1622622848806969
 31
0.0000000000000113
210
0.0
220
1.0
230
-0.0000000000000002
  0
LINE
  5
184F
  8
0
 10
723.5732201352466291
 20
135.9048097103546127
 30
0.0000000000000093
 11
725.540293305978139
 21
127.1622622848806969
 31
0.0000000000000113
210
0.0
220
1.0
230
-0.0000000000000002
  0
LINE
  5
1850
  8
0
 10
634.0854152571973827
 20
135.9048097103546127
 30
0.0000000000000093
 11
632.1183420864659865
 21
127.1622622848807964
 31
0.0000000000000113
210
0.0
220
1.0
230
-0.0000000000000002
  0
LINE
  5
1851
  8
0
 10
753.8293176962222333
 20
126.8110427726856955
 30
0.0000000000000114
 11
603.8293176962220059
 21
126.8110427726856955
 31
0.0000000000000114
210
0.0
220
1.0
230
-0.0000000000000002
  0
LINE
  5
1852
  8
0
 10
753.8293176962222333
 20
110.8110427726856955
 30
0.0000000000000149
 11
603.8293176962220059
 21
110.8110427726856955
 31
0.0000000000000149
210
0.0
220
1.0
230
-0.0000000000000002
  0
LINE
  5
1853
  8
0
 10
603.8293176962220059
 20
110.8110427726856955
 30
0.0000000000000149
 11
603.8293176962220059
 21
126.8110427726856955
 31
0.0000000000000114
210
0.0
220
1.0
230
-0.0000000000000002
  0
LINE
  5
1854
  8
0
 10
753.8293176962222333
 20
110.8110427726856955
 30
0.0000000000000149
 11
753.8293176962222333
 21
126.8110427726856955
 31
0.0000000000000114
210
0.0
220
1.0
230
-0.0000000000000002
  0
LINE
  5
1855
  8
0
  6
VERDECKT
 62
     1
 10
632.5140054851408422
 20
245.1348535539007116
 30
-0.0000000000000149
 11
725.144629907303397
 21
245.1348535539007116
 31
-0.0000000000000149
210
0.0
220
1.0
230
-0.0000000000000002
  0
ARC
  5
1856
  8
0
  6
VERDECKT
 62
     1
 10
-643.2293176962217558
 20
191.199769190102586
 30
-0.0000000000000395
 40
10.3999999999996398
210
0.0
220
-0.0000000000000002
230
-1.0
 50
327.6719358778391893
 51
0.0
  0
ARC
  5
1857
  8
0
  6
VERDECKT
 62
     1
 10
-714.429317696222256
 20
191.199769190102586
 30
-0.0000000000000395
 40
10.3999999999995794
210
0.0
220
-0.0000000000000002
230
-1.0
 50
180.0
 51
212.3280641221608107
  0
ARC
  5
1858
  8
0
  6
VERDECKT
 62
     1
 10
-626.3293176962217785
 20
180.5044431081173002
 30
-0.0000000000000395
 40
9.6000000000003052
210
0.0
220
-0.0000000000000002
230
-1.0
 50
147.671935877839104
 51
180.0
  0
ARC
  5
1859
  8
0
  6
VERDECKT
 62
     1
 10
-731.3293176962224607
 20
180.5044431081173002
 30
-0.0000000000000395
 40
9.6000000000003336
210
0.0
220
-0.0000000000000002
230
-1.0
 50
0.0
 51
32.3280641221608391
  0
LINE
  5
185A
  8
0
  6
VERDECKT
 62
     1
 10
632.5140054851408422
 20
245.1348535539007116
 30
-0.0000000000000149
 11
631.0639130258821297
 21
245.8110427726857097
 31
-0.0000000000000151
210
0.0
220
1.0
230
-0.0000000000000002
  0
LINE
  5
185B
  8
0
  6
VERDECKT
 62
     1
 10
725.144629907303397
 20
245.1348535539007116
 30
-0.0000000000000149
 11
726.5947223665618822
 21
245.8110427726857097
 31
-0.0000000000000151
210
0.0
220
1.0
230
-0.0000000000000002
  0
LINE
  5
185C
  8
0
  6
VERDECKT
 62
     1
 10
725.144629907303397
 20
245.1348535539007116
 30
-0.0000000000000149
 11
726.1743967980648904
 21
242.9265113301509018
 31
-0.0000000000000144
210
0.0
220
1.0
230
-0.0000000000000002
  0
LINE
  5
185D
  8
0
  6
VERDECKT
 62
     1
 10
632.5140054851407285
 20
245.1348535539007116
 30
-0.0000000000000149
 11
631.4842385943791214
 21
242.9265113301509018
 31
-0.0000000000000144
210
0.0
220
1.0
230
-0.0000000000000002
  0
ARC
  5
185E
  8
0
  6
VERDECKT
 62
     1
 10
-652.3293176962248481
 20
233.2062913101138975
 30
-0.0000000000000395
 40
23.0000000000028102
210
0.0
220
-0.0000000000000002
230
-1.0
 50
0.0
 51
24.9999999999964011
  0
ARC
  5
185F
  8
0
  6
VERDECKT
 62
     1
 10
-705.3293176962185953
 20
233.2062913101136985
 30
-0.0000000000000395
 40
23.0000000000034106
210
0.0
220
-0.0000000000000002
230
-1.0
 50
155.0000000000005969
 51
179.9999999999967031
  0
LINE
  5
1860
  8
0
  6
VERDECKT
 62
     1
 10
728.3293176962220059
 20
233.2062913101150912
 30
-0.0000000000000123
 11
728.3293176962220059
 21
226.2452467477812945
 31
-0.0000000000000107
210
0.0
220
1.0
230
-0.0000000000000002
  0
LINE
  5
1861
  8
0
  6
VERDECKT
 62
     1
 10
629.3293176962220059
 20
233.2062913101150912
 30
-0.0000000000000123
 11
629.3293176962220059
 21
226.2452467477812093
 31
-0.0000000000000107
210
0.0
220
1.0
230
-0.0000000000000002
  0
ARC
  5
1862
  8
0
  6
VERDECKT
 62
     1
 10
-652.7293176962225516
 20
226.1791877818955925
 30
-0.0000000000000395
 40
23.4000932431261504
210
0.0
220
-0.0000000000000002
230
-1.0
 50
334.8776318845214064
 51
0.1617474311839475
  0
ARC
  5
1863
  8
0
  6
VERDECKT
 62
     1
 10
-704.9293176962215739
 20
226.1791877818957062
 30
-0.0000000000000395
 40
23.4000932431261184
210
0.0
220
-0.0000000000000002
230
-1.0
 50
179.8382525688159888
 51
205.1223681154785936
  0
ARC
  5
1864
  8
0
  6
VERDECKT
 62
     1
 10
-619.2293176962216421
 20
210.4706900816061079
 30
-0.0000000000000395
 40
13.6000000000004508
210
0.0
220
-0.0000000000000002
230
-1.0
 50
154.8776318845214064
 51
180.0
  0
ARC
  5
1865
  8
0
  6
VERDECKT
 62
     1
 10
-738.4293176962230518
 20
210.4706900816061079
 30
-0.0000000000000395
 40
13.6000000000009909
210
0.0
220
-0.0000000000000002
230
-1.0
 50
0.0
 51
25.1223681154757514
  0
LINE
  5
1866
  8
0
  6
VERDECKT
 62
     1
 10
724.8293176962220059
 20
210.4706900816063069
 30
-0.0000000000000072
 11
724.8293176962220059
 21
191.1997691901026997
 31
-0.0000000000000029
210
0.0
220
1.0
230
-0.0000000000000002
  0
LINE
  5
1867
  8
0
  6
VERDECKT
 62
     1
 10
632.8293176962221196
 20
210.4706900816061932
 30
-0.0000000000000072
 11
632.8293176962221196
 21
191.1997691901026997
 31
-0.0000000000000029
210
0.0
220
1.0
230
-0.0000000000000002
  0
LINE
  5
1868
  8
0
  6
VERDECKT
 62
     1
 10
635.9293176962221423
 20
138.0999316615740895
 30
0.0000000000000088
 11
635.9293176962221423
 21
180.5044431081171865
 31
-0.0000000000000006
210
0.0
220
1.0
230
-0.0000000000000002
  0
LINE
  5
1869
  8
0
  6
VERDECKT
 62
     1
 10
721.7293176962220969
 20
138.0999316615740042
 30
0.0000000000000088
 11
721.7293176962220969
 21
180.5044431081171865
 31
-0.0000000000000006
210
0.0
220
1.0
230
-0.0000000000000002
  0
ARC
  5
186A
  8
0
  6
VERDECKT
 62
     1
 10
-733.3293176962191637
 20
138.0999316615744021
 30
-0.0000000000000395
 40
11.5999999999971806
210
0.0
220
-0.0000000000000002
230
-1.0
 50
347.3196165081749882
 51
359.9999999999984084
  0
ARC
  5
186B
  8
0
  6
VERDECKT
 62
     1
 10
-624.3293176962248481
 20
138.0999316615744874
 30
-0.0000000000000395
 40
11.5999999999971504
210
0.0
220
-0.0000000000000002
230
-1.0
 50
180.0000000000015916
 51
192.6803834918250118
  0
LINE
  5
186C
  8
0
  6
VERDECKT
 62
     1
 10
722.0122445254904733
 20
135.5535901981594975
 30
0.0000000000000094
 11
723.9793176962220969
 21
126.811042772685596
 31
0.0000000000000114
210
0.0
220
1.0
230
-0.0000000000000002
  0
LINE
  5
186D
  8
0
  6
VERDECKT
 62
     1
 10
635.6463908669536522
 20
135.5535901981594975
 30
0.0000000000000094
 11
633.6793176962221423
 21
126.8110427726856955
 31
0.0000000000000114
210
0.0
220
1.0
230
-0.0000000000000002
  0
LINE
  5
186E
  8
0
  6
VERDECKT
 62
     1
 10
610.3293176962218922
 20
110.8110427726856955
 30
0.0000000000000149
 11
610.3293176962218922
 21
126.8110427726856955
 31
0.0000000000000114
210
0.0
220
1.0
230
-0.0000000000000002
  0
LINE
  5
186F
  8
0
  6
VERDECKT
 62
     1
 10
621.3293176962220059
 20
110.8110427726856955
 30
0.0000000000000149
 11
621.3293176962220059
 21
126.8110427726856955
 31
0.0000000000000114
210
0.0
220
1.0
230
-0.0000000000000002
  0
LINE
  5
1870
  8
0
  6
VERDECKT
 62
     1
 10
736.3293176962220059
 20
110.8110427726856955
 30
0.0000000000000149
 11
736.3293176962220059
 21
126.8110427726856955
 31
0.0000000000000114
210
0.0
220
1.0
230
-0.0000000000000002
  0
LINE
  5
1871
  8
0
  6
VERDECKT
 62
     1
 10
747.3293176962218922
 20
110.8110427726856955
 30
0.0000000000000149
 11
747.3293176962218922
 21
126.8110427726856955
 31
0.0000000000000114
210
0.0
220
1.0
230
-0.0000000000000002
  0
LINE
  5
1872
  8
0
  6
VERDECKT
 62
     1
 10
633.6793176962221423
 20
110.8110427726856955
 30
0.0000000000000149
 11
633.6793176962221423
 21
126.8110427726856955
 31
0.0000000000000114
210
0.0
220
1.0
230
-0.0000000000000002
  0
LINE
  5
1873
  8
0
  6
VERDECKT
 62
     1
 10
723.9793176962220969
 20
110.8110427726856955
 30
0.0000000000000149
 11
723.9793176962220969
 21
126.8110427726856955
 31
0.0000000000000114
210
0.0
220
1.0
230
-0.0000000000000002
  0
LINE
  5
1874
  8
0
  6
VERDECKT
 62
     1
 10
717.8770449109745186
 20
110.8110427726856955
 30
0.0000000000000149
 11
717.8770449109745186
 21
126.8110427726856955
 31
0.0000000000000114
210
0.0
220
1.0
230
-0.0000000000000002
  0
LINE
  5
1875
  8
0
  6
VERDECKT
 62
     1
 10
728.8770449109745186
 20
110.8110427726856955
 30
0.0000000000000149
 11
728.8770449109745186
 21
126.8110427726856955
 31
0.0000000000000114
210
0.0
220
1.0
230
-0.0000000000000002
  0
LINE
  5
1876
  8
0
  6
VERDECKT
 62
     1
 10
673.3293176962220059
 20
110.8110427726856955
 30
0.0000000000000149
 11
673.3293176962220059
 21
126.8110427726856955
 31
0.0000000000000114
210
0.0
220
1.0
230
-0.0000000000000002
  0
LINE
  5
1877
  8
0
  6
VERDECKT
 62
     1
 10
684.3293176962220059
 20
110.8110427726856955
 30
0.0000000000000149
 11
684.3293176962220059
 21
126.8110427726856955
 31
0.0000000000000114
210
0.0
220
1.0
230
-0.0000000000000002
  0
LINE
  5
1878
  8
0
  6
VERDECKT
 62
     1
 10
628.7815904814696069
 20
110.8110427726856955
 30
0.0000000000000149
 11
628.7815904814696069
 21
126.8110427726856955
 31
0.0000000000000114
210
0.0
220
1.0
230
-0.0000000000000002
  0
LINE
  5
1879
  8
0
  6
VERDECKT
 62
     1
 10
639.7815904814696069
 20
110.8110427726856955
 30
0.0000000000000149
 11
639.7815904814696069
 21
126.8110427726856955
 31
0.0000000000000114
210
0.0
220
1.0
230
-0.0000000000000002
  0
ENDBLK
  5
187B
  8
0
  0
ENDSEC
  0
SECTION
  2
ENTITIES
  0
TEXT
  5
8F
  8
VOLL
 10
78.076754716981128
 20
31.025947764705851
 30
0.0
 40
1.8
  1

  7
GREEKS
  0
INSERT
  5
EC8
  8
ADSK_ASSOC_ENTITY_BACKUPS
  2
*S2
 10
0.0
 20
0.0
 30
0.0
  0
INSERT
  5
1834
  8
STEMPEL
  2
A$CFDB59121
 10
263.0996939298775033
 20
-8.6376611074852008
 30
-50.4183367984675712
  0
INSERT
  5
187C
  8
STEMPEL
  2
A$C9D1B35FE
 10
-203.7421607424836054
 20
235.3472132399188013
 30
-50.4183367984675286
  0
VIEWPORT
  5
EA9
 67
     1
  8
0
 10
32.4048927347612121
 20
232.397810528608403
 30
0.0
 40
533.9969448798290159
 41
299.1239570917758783
 68
     1
 69
     1
1001
ACAD
1000
MVIEW
1002
{
1070
    16
1010
0.0
1020
0.0
1030
0.0
1010
0.0
1020
0.0
1030
1.0
1040
0.0
1040
299.1239570917758783
1040
32.4048927347612121
1040
232.397810528608403
1040
50.0
1040
0.0
1040
0.0
1070
     0
1070
  1500
1070
     1
1070
     1
1070
     0
1070
     0
1070
     0
1070
     0
1040
0.0
1040
0.0
1040
0.0
1040
10.0
1040
10.0
1040
10.0
1040
10.0
1070
     0
1002
{
1002
}
1002
}
  0
ENDSEC
  0
EOF
