  0
SECTION
  2
HEADER
  9
$ACADVER
  1
AC1009
  9
$INSBASE
 10
0.0
 20
0.0
 30
0.0
  9
$EXTMIN
 10
312.3093363398377278
 20
-85.3893121520398637
 30
-30.4264690750692601
  9
$EXTMAX
 10
452.3543414039031063
 20
213.7814489588857043
 30
-30.4241478259534617
  9
$LIMMIN
 10
0.0
 20
0.0
  9
$LIMMAX
 10
210.0
 20
297.0
  9
$ORTHOMODE
 70
     1
  9
$REGENMODE
 70
     1
  9
$FILLMODE
 70
     1
  9
$QTEXTMODE
 70
     0
  9
$MIRRTEXT
 70
     1
  9
$DRAGMODE
 70
     2
  9
$LTSCALE
 40
10.0
  9
$OSMODE
 70
  2495
  9
$ATTMODE
 70
     1
  9
$TEXTSIZE
 40
3.5
  9
$TRACEWID
 40
0.5
  9
$TEXTSTYLE
  7
STANDARD
  9
$CLAYER
  8
STEMPEL
  9
$CELTYPE
  6
BYLAYER
  9
$CECOLOR
 62
   256
  9
$DIMSCALE
 40
1.0
  9
$DIMASZ
 40
3.5
  9
$DIMEXO
 40
1.0
  9
$DIMDLI
 40
7.0
  9
$DIMRND
 40
0.0
  9
$DIMDLE
 40
0.0
  9
$DIMEXE
 40
1.0
  9
$DIMTP
 40
0.0
  9
$DIMTM
 40
0.0
  9
$DIMTXT
 40
3.5
  9
$DIMCEN
 40
1.5
  9
$DIMTSZ
 40
0.0
  9
$DIMTOL
 70
     0
  9
$DIMLIM
 70
     0
  9
$DIMTIH
 70
     0
  9
$DIMTOH
 70
     0
  9
$DIMSE1
 70
     0
  9
$DIMSE2
 70
     0
  9
$DIMTAD
 70
     1
  9
$DIMZIN
 70
     8
  9
$DIMBLK
  1

  9
$DIMASO
 70
     1
  9
$DIMSHO
 70
     0
  9
$DIMPOST
  1

  9
$DIMAPOST
  1

  9
$DIMALT
 70
     0
  9
$DIMALTD
 70
     2
  9
$DIMALTF
 40
25.3999999999999986
  9
$DIMLFAC
 40
2.0
  9
$DIMTOFL
 70
     1
  9
$DIMTVP
 40
0.0
  9
$DIMTIX
 70
     0
  9
$DIMSOXD
 70
     0
  9
$DIMSAH
 70
     0
  9
$DIMBLK1
  1

  9
$DIMBLK2
  1

  9
$DIMSTYLE
  2
STANDARD
  9
$DIMCLRD
 70
     0
  9
$DIMCLRE
 70
     0
  9
$DIMCLRT
 70
     1
  9
$DIMTFAC
 40
0.5
  9
$DIMGAP
 40
1.5
  9
$LUNITS
 70
     2
  9
$LUPREC
 70
     2
  9
$SKETCHINC
 40
1.0
  9
$FILLETRAD
 40
0.0
  9
$AUNITS
 70
     0
  9
$AUPREC
 70
     0
  9
$MENU
  1
ACAD
  9
$ELEVATION
 40
0.0
  9
$PELEVATION
 40
0.0
  9
$THICKNESS
 40
0.0
  9
$LIMCHECK
 70
     0
  9
$BLIPMODE
 70
     0
  9
$CHAMFERA
 40
0.0
  9
$CHAMFERB
 40
0.0
  9
$SKPOLY
 70
     0
  9
$TDCREATE
 40
2455397.8646990740671754
  9
$TDUPDATE
 40
2459627.5663773152045906
  9
$TDINDWG
 40
0.093580463
  9
$TDUSRTIMER
 40
0.093580463
  9
$USRTIMER
 70
     1
  9
$ANGBASE
 50
0.0
  9
$ANGDIR
 70
     0
  9
$PDMODE
 70
     0
  9
$PDSIZE
 40
0.0
  9
$PLINEWID
 40
0.0
  9
$COORDS
 70
     1
  9
$SPLFRAME
 70
     0
  9
$SPLINETYPE
 70
     6
  9
$SPLINESEGS
 70
     8
  9
$ATTDIA
 70
     1
  9
$ATTREQ
 70
     1
  9
$HANDLING
 70
     1
  9
$HANDSEED
  5
1037
  9
$SURFTAB1
 70
     6
  9
$SURFTAB2
 70
     6
  9
$SURFTYPE
 70
     6
  9
$SURFU
 70
     6
  9
$SURFV
 70
     6
  9
$UCSNAME
  2

  9
$UCSORG
 10
0.0
 20
0.0
 30
0.0
  9
$UCSXDIR
 10
1.0
 20
0.0
 30
0.0
  9
$UCSYDIR
 10
0.0
 20
1.0
 30
0.0
  9
$PUCSNAME
  2

  9
$PUCSORG
 10
0.0
 20
0.0
 30
0.0
  9
$PUCSXDIR
 10
1.0
 20
0.0
 30
0.0
  9
$PUCSYDIR
 10
0.0
 20
1.0
 30
0.0
  9
$USERI1
 70
     0
  9
$USERI2
 70
     0
  9
$USERI3
 70
     0
  9
$USERI4
 70
     0
  9
$USERI5
 70
     0
  9
$USERR1
 40
0.0
  9
$USERR2
 40
0.0
  9
$USERR3
 40
0.0
  9
$USERR4
 40
0.0
  9
$USERR5
 40
0.0
  9
$WORLDVIEW
 70
     1
  9
$SHADEDGE
 70
     3
  9
$SHADEDIF
 70
    70
  9
$TILEMODE
 70
     1
  9
$MAXACTVP
 70
    16
  9
$PLIMCHECK
 70
     0
  9
$PEXTMIN
 10
1.0000000000000000E+20
 20
1.0000000000000000E+20
 30
1.0000000000000000E+20
  9
$PEXTMAX
 10
-1.0000000000000000E+20
 20
-1.0000000000000000E+20
 30
-1.0000000000000000E+20
  9
$PLIMMIN
 10
-79.0178512215232161
 20
65.8561067240127187
  9
$PLIMMAX
 10
130.9821487784768124
 20
362.8561067240127045
  9
$UNITMODE
 70
     0
  9
$VISRETAIN
 70
     0
  9
$PLINEGEN
 70
     0
  9
$PSLTSCALE
 70
     0
  0
ENDSEC
  0
SECTION
  2
TABLES
  0
TABLE
  2
VPORT
 70
     1
  0
VPORT
  2
*ACTIVE
 70
     0
 10
0.0
 20
0.0
 11
1.0
 21
1.0
 12
3.6411474934119492
 22
-93.1820301240314564
 13
0.0
 23
0.0
 14
1.0
 24
1.0
 15
10.0
 25
10.0
 16
-0.0000000000001137
 26
0.0
 36
510.8843133105224865
 17
378.6906913784584958
 27
157.3780985274543127
 37
-15.2127703160474308
 40
301.3102421200621279
 41
1.7852028639618129
 42
50.0
 43
0.0
 44
0.0
 50
0.0
 51
0.0
 71
     0
 72
  1500
 73
     1
 74
     0
 75
     0
 76
     0
 77
     0
 78
     0
  0
ENDTAB
  0
TABLE
  2
LTYPE
 70
     3
  0
LTYPE
  2
CONTINUOUS
 70
     0
  3
Solid line
 72
    65
 73
     0
 40
0.0
  0
LTYPE
  2
PHANTOM2
 70
     0
  3
Phantom (.5x) ___ _ _ ___ _ _ ___ _ _ ___ _ _
 72
    65
 73
     6
 40
1.25
 49
0.625
 49
-0.125
 49
0.125
 49
-0.125
 49
0.125
 49
-0.125
  0
LTYPE
  2
VERDECKT
 70
     0
  3
Verdeckt __ __ __ __ __ __ __ __ __ __ __ __ __
 72
    65
 73
     2
 40
0.375
 49
0.25
 49
-0.125
  0
ENDTAB
  0
TABLE
  2
LAYER
 70
     6
  0
LAYER
  2
0
 70
     0
 62
     7
  6
CONTINUOUS
  0
LAYER
  2
VOLL
 70
     0
 62
     1
  6
CONTINUOUS
  0
LAYER
  2
STEMPEL
 70
     0
 62
     3
  6
CONTINUOUS
  0
LAYER
  2
ADSK_ASSOC_ENTITY_BACKUPS
 70
     1
 62
    -7
  6
CONTINUOUS
  0
LAYER
  2
DEFPOINTS
 70
     0
 62
     7
  6
CONTINUOUS
  0
ENDTAB
  0
TABLE
  2
STYLE
 70
     3
  0
STYLE
  2
STANDARD
 70
     0
 40
0.0
 41
0.8
 50
0.0
 71
     0
 42
3.5
  3
simplex.shx
  4

  0
STYLE
  2
GREEKS
 70
     0
 40
0.0
 41
0.8
 50
0.0
 71
     0
 42
2.5
  3
SIMPLEX.shx
  4

  0
ENDTAB
  0
TABLE
  2
VIEW
 70
     0
  0
ENDTAB
  0
TABLE
  2
UCS
 70
     0
  0
ENDTAB
  0
TABLE
  2
APPID
 70
    20
  0
APPID
  2
ACAD
 70
     0
  0
APPID
  2
ACAD_NAV_VCDISPLAY
 70
     0
  0
APPID
  2
ACAD_MLEADERVER
 70
     0
  0
APPID
  2
ACAD_EXEMPT_FROM_CAD_STANDARDS
 70
     0
  0
APPID
  2
ACAD_PSEXT
 70
     0
  0
APPID
  2
ACAECLAYERSTANDARD
 70
     0
  0
APPID
  2
ACCMTRANSPARENCY
 70
     0
  0
APPID
  2
ACSYNERGY
 70
     0
  0
APPID
  2
SYNERGY_BODY_TBR_ID
 70
     0
  0
APPID
  2
ACAD_VIEW_EDGE_ID
 70
     0
  0
APPID
  2
ACAD_STEPID
 70
     0
  0
APPID
  2
ACSYNERGYSKETCH
 70
     0
  0
APPID
  2
ACAD_MODELDOC_XFORM
 70
     0
  0
APPID
  2
ACAD_DSTYLE_DIMJAG
 70
     0
  0
APPID
  2
ACAD_DSTYLE_DIMTALN
 70
     0
  0
APPID
  2
ACADANNOMONITORALERTICONDI
 70
     0
  0
APPID
  2
ACAD_DIMASSOC_CALC_DIMLFAC
 70
     0
  0
APPID
  2
ACAD_DIMASSOC_DIMLFAC
 70
     0
  0
APPID
  2
ACAD_DIMASSOC_OVERRIDDEN_D
 70
     0
  0
APPID
  2
ACAD_DSTYLE_DIMRADIAL_EXTENSION
 70
     0
  0
ENDTAB
  0
TABLE
  2
DIMSTYLE
 70
     1
  0
DIMSTYLE
  2
STANDARD
 70
     0
  3

  4

  5

  6

  7

 40
1.0
 41
0.18
 42
0.0625
 43
0.38
 44
0.18
 45
0.0
 46
0.0
 47
0.0
 48
0.0
140
0.18
141
0.09
142
0.0
143
25.3999999999999986
144
1.0
145
0.0
146
1.0
147
0.09
 71
     0
 72
     0
 73
     1
 74
     1
 75
     0
 76
     0
 77
     0
 78
     0
170
     0
171
     2
172
     0
173
     0
174
     0
175
     0
176
     0
177
     0
178
     0
  0
ENDTAB
  0
ENDSEC
  0
SECTION
  2
BLOCKS
  0
BLOCK
  8
0
  2
$MODEL_SPACE
 70
     0
 10
0.0
 20
0.0
 30
0.0
  3
$MODEL_SPACE
  1

  0
ENDBLK
  5
36
  8
0
  0
BLOCK
 67
     1
  8
0
  2
$PAPER_SPACE
 70
     0
 10
0.0
 20
0.0
 30
0.0
  3
$PAPER_SPACE
  1

  0
ENDBLK
  5
34
 67
     1
  8
0
  0
BLOCK
  8
0
  2
*S0
 70
     1
 10
0.0
 20
0.0
 30
0.0
  3
*S0
  1

  0
ENDBLK
  5
741
  8
0
  0
BLOCK
  8
0
  2
A$C03447AF8
 70
     0
 10
0.0
 20
0.0
 30
0.0
  3
A$C03447AF8
  1

  0
CIRCLE
  5
F70
  8
0
 10
193.410161531322899
 20
155.215802853438305
 30
0.0000000000000355
 40
39.765397328277011
  0
CIRCLE
  5
F71
  8
0
 10
193.410161531322899
 20
155.215802853438305
 30
0.0000000000000355
 40
42.1000000000001435
  0
CIRCLE
  5
F72
  8
0
 10
193.410161531322899
 20
155.215802853438305
 30
0.0000000000000386
 40
34.9000000000000909
  0
CIRCLE
  5
F73
  8
0
 10
193.410161531322899
 20
155.215802853438305
 30
0.0000000000000391
 40
38.0000000000001066
  0
CIRCLE
  5
F74
  8
0
 10
193.410161531322899
 20
155.215802853438305
 30
0.0000000000000355
 40
38.3153108997447589
  0
CIRCLE
  5
F75
  8
0
 10
193.410161531322899
 20
155.215802853438305
 30
0.0000000000000355
 40
42.1000932431261035
  0
CIRCLE
  5
F76
  8
0
 10
193.410161531322899
 20
213.215802853438305
 30
0.0000000000000355
 40
5.5
  0
CIRCLE
  5
F77
  8
0
 10
135.410161531322899
 20
155.215802853438305
 30
0.0000000000000284
 40
5.5
  0
CIRCLE
  5
F78
  8
0
 10
251.410161531322899
 20
155.215802853438305
 30
0.0000000000000497
 40
5.5
  0
CIRCLE
  5
F79
  8
0
 10
193.410161531322899
 20
97.2158028534383334
 30
0.0000000000000355
 40
5.5
  0
CIRCLE
  5
F7A
  8
0
 10
234.4223548401427877
 20
114.203609544618601
 30
0.0000000000000497
 40
5.5
  0
CIRCLE
  5
F7B
  8
0
 10
152.3979682225034082
 20
114.203609544618601
 30
0.0000000000000284
 40
5.5
  0
CIRCLE
  5
F7C
  8
0
 10
152.3979682225034082
 20
196.2279961622581084
 30
0.0000000000000284
 40
5.5
  0
CIRCLE
  5
F7D
  8
0
 10
234.4223548401427877
 20
196.2279961622581084
 30
0.0000000000000497
 40
5.5
  0
CIRCLE
  5
F7E
  8
0
 10
193.410161531322899
 20
155.215802853438305
 30
0.0000000000000355
 40
70.0
  0
CIRCLE
  5
F7F
  8
0
  6
VERDECKT
 62
     1
 10
193.410161531322899
 20
155.215802853438305
 30
0.0000000000000391
 40
39.6000000000001435
  0
CIRCLE
  5
F80
  8
0
  6
VERDECKT
 62
     1
 10
193.410161531322899
 20
155.215802853438305
 30
0.0000000000000386
 40
36.5
  0
CIRCLE
  5
F81
  8
0
  6
VERDECKT
 62
     1
 10
193.410161531322899
 20
155.215802853438305
 30
0.0000000000000355
 40
39.9738595105969807
  0
CIRCLE
  5
F82
  8
0
  6
VERDECKT
 62
     1
 10
193.410161531322899
 20
155.215802853438305
 30
0.0000000000000355
 40
38.7000000000000384
  0
CIRCLE
  5
F83
  8
0
  6
VERDECKT
 62
     1
 10
193.410161531322899
 20
155.215802853438305
 30
0.0000000000000355
 40
40.5000000000001066
  0
CIRCLE
  5
F84
  8
0
  6
VERDECKT
 62
     1
 10
193.410161531322899
 20
155.215802853438305
 30
0.0000000000000355
 40
40.5011590716792966
  0
CIRCLE
  5
F85
  8
0
  6
VERDECKT
 62
     1
 10
193.410161531322899
 20
155.215802853438305
 30
0.0000000000000355
 40
38.7000000000001592
  0
ENDBLK
  5
F87
  8
0
  0
BLOCK
  8
0
  2
A$C575B40AA
 70
     0
 10
0.0
 20
0.0
 30
0.0
  3
A$C575B40AA
  1

  0
LINE
  5
F8B
  8
0
 10
153.6447642030458951
 20
57.4999999999983586
 30
-0.0000000000000128
 11
233.1755588595999882
 21
57.4999999999983586
 31
-0.0000000000000128
210
0.0
220
1.0
230
-0.0000000000000002
  0
LINE
  5
F8C
  8
0
 10
153.4363020207258899
 20
-42.5318667719446921
 30
0.0000000000000094
 11
233.3840210419199082
 21
-42.5318667719446921
 31
0.0000000000000094
210
0.0
220
1.0
230
-0.0000000000000002
  0
ARC
  5
F8D
  8
0
 10
-176.3101615313235015
 20
46.9510775928829318
 30
0.0
 40
25.0000000000006786
210
0.0
220
-0.0000000000000002
230
-1.0
 50
0.0000000000003944
 51
24.9581963123065087
  0
ARC
  5
F8E
  8
0
 10
-210.5101615313222965
 20
46.9510775928829318
 30
0.0
 40
25.000000000000739
210
0.0
220
-0.0000000000000002
230
-1.0
 50
155.0418036876934877
 51
179.9999999999996021
  0
LINE
  5
F8F
  8
0
 10
235.5101615313230923
 20
46.9510775928831094
 30
-0.0000000000000104
 11
235.5101615313230923
 21
37.9382800482726026
 31
-0.0000000000000084
210
0.0
220
1.0
230
-0.0000000000000002
  0
LINE
  5
F90
  8
0
 10
151.310161531322791
 20
46.9510775928831094
 30
-0.0000000000000104
 11
151.310161531322791
 21
37.9382800482726026
 31
-0.0000000000000084
210
0.0
220
1.0
230
-0.0000000000000002
  0
ARC
  5
F91
  8
0
 10
-176.3101615313196078
 20
37.8700000000018235
 30
0.0
 40
25.0000932431227696
210
0.0
220
-0.0000000000000002
230
-1.0
 50
338.8168456069627155
 51
0.1564859545349261
  0
ARC
  5
F92
  8
0
 10
-210.5101615313247123
 20
37.8700000000021291
 30
0.0
 40
25.0000932431243506
210
0.0
220
-0.0000000000000002
230
-1.0
 50
179.843514045465696
 51
201.1831543930366024
  0
ARC
  5
F93
  8
0
 10
-141.8101615313233026
 20
24.5000000000018083
 30
0.0
 40
11.99999999999946
210
0.0
220
-0.0000000000000002
230
-1.0
 50
158.816845606961607
 51
180.0000000000001137
  0
ARC
  5
F94
  8
0
 10
-245.0101615313226091
 20
24.5000000000018012
 30
0.0
 40
11.9999999999995399
210
0.0
220
-0.0000000000000002
230
-1.0
 50
0.0
 51
21.1831543930384782
  0
LINE
  5
F95
  8
0
 10
233.0101615313230923
 20
24.5000000000017693
 30
-0.0000000000000054
 11
233.0101615313230923
 21
7.8887264174188099
 31
-0.0000000000000018
210
0.0
220
1.0
230
-0.0000000000000002
  0
LINE
  5
F96
  8
0
 10
153.810161531322791
 20
24.5000000000017693
 30
-0.0000000000000054
 11
153.810161531322791
 21
7.8887264174188099
 31
-0.0000000000000018
210
0.0
220
1.0
230
-0.0000000000000002
  0
ARC
  5
F97
  8
0
 10
-165.8101615313242121
 20
7.8887264174193543
 30
0.0
 40
12.0000000000014193
210
0.0
220
-0.0000000000000002
230
-1.0
 50
327.671935877837484
 51
359.9999999999973852
  0
ARC
  5
F98
  8
0
 10
-221.0101615313216996
 20
7.888726417419357
 30
0.0
 40
12.0000000000014495
210
0.0
220
-0.0000000000000002
230
-1.0
 50
180.0000000000025011
 51
212.3280641221624023
  0
ARC
  5
F99
  8
0
 10
-148.9101615313227001
 20
-2.8065996645668561
 30
0.0
 40
8.0000000000002256
210
0.0
220
-0.0000000000000002
230
-1.0
 50
147.6719358778395019
 51
179.9999999999996874
  0
ARC
  5
F9A
  8
0
 10
-237.9101615313232116
 20
-2.8065996645668592
 30
0.0
 40
8.0000000000002274
210
0.0
220
-0.0000000000000002
230
-1.0
 50
0.0000000000002926
 51
32.3280641221603986
  0
LINE
  5
F9B
  8
0
 10
229.910161531322899
 20
-2.8065996645668179
 30
0.0000000000000006
 11
229.910161531322899
 21
-35.265993969068532
 31
0.0000000000000078
210
0.0
220
1.0
230
-0.0000000000000002
  0
LINE
  5
F9C
  8
0
 10
156.910161531322899
 20
-2.8065996645668179
 30
0.0000000000000006
 11
156.910161531322899
 21
-35.265993969068532
 31
0.0000000000000078
210
0.0
220
1.0
230
-0.0000000000000002
  0
ARC
  5
F9D
  8
0
 10
-148.9101615313225011
 20
-35.2659939690682975
 30
0.0
 40
8.0000000000004832
210
0.0
220
-0.0000000000000002
230
-1.0
 50
180.0000000000015064
 51
217.2348339815725069
  0
ARC
  5
F9E
  8
0
 10
-237.9101615313234959
 20
-35.2659939690682904
 30
0.0
 40
8.0000000000005418
210
0.0
220
-0.0000000000000002
230
-1.0
 50
322.7651660184275784
 51
359.9999999999982947
  0
LINE
  5
F9F
  8
0
 10
231.5408639783381091
 20
-40.106660109336822
 30
0.0000000000000089
 11
233.3840210419199082
 21
-42.5318667719447134
 31
0.0000000000000094
210
0.0
220
1.0
230
-0.0000000000000002
  0
LINE
  5
FA0
  8
0
 10
155.2794590843078026
 20
-40.106660109336822
 30
0.0000000000000089
 11
153.4363020207258899
 21
-42.5318667719447134
 31
0.0000000000000094
210
0.0
220
1.0
230
-0.0000000000000002
  0
LINE
  5
FA1
  8
0
 10
154.7101615313229104
 20
-43.4999999999984013
 30
0.0000000000000097
 11
153.4363020207258899
 21
-42.5318667719447419
 31
0.0000000000000094
210
0.0
220
1.0
230
-0.0000000000000002
  0
LINE
  5
FA2
  8
0
 10
232.1101615313230013
 20
-43.4999999999984013
 30
0.0000000000000097
 11
233.3840210419199934
 21
-42.5318667719447419
 31
0.0000000000000094
210
0.0
220
1.0
230
-0.0000000000000002
  0
LINE
  5
FA3
  8
0
 10
263.410161531322899
 20
-43.4999999999983018
 30
0.0000000000000097
 11
123.410161531322899
 21
-43.4999999999981881
 31
0.0000000000000097
210
0.0
220
1.0
230
-0.0000000000000002
  0
LINE
  5
FA4
  8
0
 10
263.410161531322899
 20
-57.4999999999983586
 30
0.0000000000000128
 11
123.410161531322899
 21
-57.4999999999982521
 31
0.0000000000000128
210
0.0
220
1.0
230
-0.0000000000000002
  0
LINE
  5
FA5
  8
0
 10
123.410161531322899
 20
-57.4999999999982521
 30
0.0000000000000128
 11
123.410161531322899
 21
-43.4999999999981881
 31
0.0000000000000097
210
0.0
220
1.0
230
-0.0000000000000002
  0
LINE
  5
FA6
  8
0
 10
263.410161531322899
 20
-57.4999999999983586
 30
0.0000000000000128
 11
263.410161531322899
 21
-43.4999999999983018
 31
0.0000000000000097
210
0.0
220
1.0
230
-0.0000000000000002
  0
LINE
  5
FA7
  8
0
  6
VERDECKT
 62
     1
 10
155.094850631578197
 20
56.8238135933870225
 30
-0.0000000000000126
 11
231.7254724310676863
 21
56.8238135933870225
 31
-0.0000000000000126
210
0.0
220
1.0
230
-0.0000000000000002
  0
LINE
  5
FA8
  8
0
  6
VERDECKT
 62
     1
 10
230.2670044677408896
 20
-41.0747933373904033
 30
0.0000000000000091
 11
232.1101615313228876
 21
-43.4999999999983871
 31
0.0000000000000097
210
0.0
220
1.0
230
-0.0000000000000002
  0
LINE
  5
FA9
  8
0
  6
VERDECKT
 62
     1
 10
156.5533185949049937
 20
-41.0747933373904033
 30
0.0000000000000091
 11
154.7101615313229956
 21
-43.4999999999983871
 31
0.0000000000000097
210
0.0
220
1.0
230
-0.0000000000000002
  0
ARC
  5
FAA
  8
0
  6
VERDECKT
 62
     1
 10
-148.9101615313215063
 20
-35.2659939690684183
 30
0.0
 40
9.6000000000011596
210
0.0
220
-0.0000000000000002
230
-1.0
 50
180.0000000000007958
 51
217.2348339815677889
  0
ARC
  5
FAB
  8
0
  6
VERDECKT
 62
     1
 10
-237.9101615313244054
 20
-35.2659939690684396
 30
0.0
 40
9.6000000000011063
210
0.0
220
-0.0000000000000002
230
-1.0
 50
322.7651660184321258
 51
359.9999999999990905
  0
LINE
  5
FAC
  8
0
  6
VERDECKT
 62
     1
 10
228.3101615313231889
 20
-2.8065996645668179
 30
0.0000000000000006
 11
228.3101615313231889
 21
-35.2659939690685817
 31
0.0000000000000078
210
0.0
220
1.0
230
-0.0000000000000002
  0
LINE
  5
FAD
  8
0
  6
VERDECKT
 62
     1
 10
158.5101615313226944
 20
-2.8065996645668179
 30
0.0000000000000006
 11
158.5101615313226944
 21
-35.2659939690685817
 31
0.0000000000000078
210
0.0
220
1.0
230
-0.0000000000000002
  0
ARC
  5
FAE
  8
0
  6
VERDECKT
 62
     1
 10
-148.9101615313198863
 20
-2.8065996645676221
 30
0.0
 40
9.6000000000029218
210
0.0
220
-0.0000000000000002
230
-1.0
 50
147.6719358778408946
 51
179.9999999999951115
  0
ARC
  5
FAF
  8
0
  6
VERDECKT
 62
     1
 10
-237.910161531325997
 20
-2.8065996645676332
 30
0.0
 40
9.6000000000029502
210
0.0
220
-0.0000000000000002
230
-1.0
 50
0.0000000000048217
 51
32.3280641221590699
  0
ARC
  5
FB0
  8
0
  6
VERDECKT
 62
     1
 10
-165.8101615313231889
 20
7.8887264174188418
 30
0.0
 40
10.4000000000003396
210
0.0
220
-0.0000000000000002
230
-1.0
 50
327.6719358778402125
 51
359.9999999999997726
  0
ARC
  5
FB1
  8
0
  6
VERDECKT
 62
     1
 10
-221.0101615313226944
 20
7.8887264174188401
 30
0.0
 40
10.4000000000003396
210
0.0
220
-0.0000000000000002
230
-1.0
 50
180.0000000000001137
 51
212.3280641221597875
  0
LINE
  5
FB2
  8
0
  6
VERDECKT
 62
     1
 10
231.4101615313230127
 20
24.5000000000017693
 30
-0.0000000000000054
 11
231.4101615313230127
 21
7.8887264174188099
 31
-0.0000000000000018
210
0.0
220
1.0
230
-0.0000000000000002
  0
LINE
  5
FB3
  8
0
  6
VERDECKT
 62
     1
 10
155.4101615313228137
 20
24.5000000000017693
 30
-0.0000000000000054
 11
155.4101615313228137
 21
7.8887264174188099
 31
-0.0000000000000018
210
0.0
220
1.0
230
-0.0000000000000002
  0
ARC
  5
FB4
  8
0
  6
VERDECKT
 62
     1
 10
-141.6016948897674865
 20
24.4610182466756605
 30
0.0
 40
13.8085216648284899
210
0.0
220
-0.0000000000000002
230
-1.0
 50
158.9785930383301888
 51
179.8382525686351983
  0
ARC
  5
FB5
  8
0
  6
VERDECKT
 62
     1
 10
-245.2186281728783115
 20
24.4610182466756712
 30
0.0
 40
13.8085216648284295
210
0.0
220
-0.0000000000000002
230
-1.0
 50
0.1617474313647665
 51
21.0214069616698396
  0
ARC
  5
FB6
  8
0
  6
VERDECKT
 62
     1
 10
-176.6662125973631134
 20
37.9360589659624665
 30
0.0
 40
23.7560510660402109
210
0.0
220
-0.0000000000000002
230
-1.0
 50
338.9785930383313257
 51
359.9999999999988063
  0
ARC
  5
FB7
  8
0
  6
VERDECKT
 62
     1
 10
-210.1541104652825993
 20
37.936058965962502
 30
0.0
 40
23.7560510660403317
210
0.0
220
-0.0000000000000002
230
-1.0
 50
180.0000000000011084
 51
201.021406961668589
  0
LINE
  5
FB8
  8
0
  6
VERDECKT
 62
     1
 10
233.9101615313230127
 20
46.9510775928831094
 30
-0.0000000000000104
 11
233.9101615313230127
 21
37.9360589659619976
 31
-0.0000000000000084
210
0.0
220
1.0
230
-0.0000000000000002
  0
LINE
  5
FB9
  8
0
  6
VERDECKT
 62
     1
 10
152.910161531322899
 20
46.9510775928831094
 30
-0.0000000000000104
 11
152.910161531322899
 21
37.9360589659619976
 31
-0.0000000000000084
210
0.0
220
1.0
230
-0.0000000000000002
  0
ARC
  5
FBA
  8
0
  6
VERDECKT
 62
     1
 10
-175.2300824227561975
 20
47.1785465354255535
 30
0.0
 40
22.3210799631125489
210
0.0
220
-0.0000000000000002
230
-1.0
 50
359.4161019093363052
 51
24.3697343251239893
  0
ARC
  5
FBB
  8
0
  6
VERDECKT
 62
     1
 10
-211.5902406398897995
 20
47.1785465354255678
 30
0.0
 40
22.3210799631124601
210
0.0
220
-0.0000000000000002
230
-1.0
 50
155.6302656748758864
 51
180.5838980906636095
  0
LINE
  5
FBC
  8
0
  6
VERDECKT
 62
     1
 10
231.7254724310676011
 20
56.8238135933869799
 30
-0.0000000000000126
 11
231.9225514455089865
 21
56.3887445801670282
 31
-0.0000000000000125
210
0.0
220
1.0
230
-0.0000000000000002
  0
LINE
  5
FBD
  8
0
  6
VERDECKT
 62
     1
 10
155.094850631578197
 20
56.8238135933869799
 30
-0.0000000000000126
 11
154.8977716171368968
 21
56.3887445801670282
 31
-0.0000000000000125
210
0.0
220
1.0
230
-0.0000000000000002
  0
LINE
  5
FBE
  8
0
  6
VERDECKT
 62
     1
 10
155.094850631578197
 20
56.8238135933870367
 30
-0.0000000000000126
 11
153.6447642030458951
 21
57.4999999999983871
 31
-0.0000000000000128
210
0.0
220
1.0
230
-0.0000000000000002
  0
LINE
  5
FBF
  8
0
  6
VERDECKT
 62
     1
 10
231.7254724310676863
 20
56.8238135933870367
 30
-0.0000000000000126
 11
233.1755588595999882
 21
57.4999999999983871
 31
-0.0000000000000128
210
0.0
220
1.0
230
-0.0000000000000002
  0
LINE
  5
FC0
  8
0
  6
VERDECKT
 62
     1
 10
129.910161531322899
 20
-57.4999999999983586
 30
0.0000000000000128
 11
129.910161531322899
 21
-43.4999999999983018
 31
0.0000000000000097
210
0.0
220
1.0
230
-0.0000000000000002
  0
LINE
  5
FC1
  8
0
  6
VERDECKT
 62
     1
 10
140.910161531322899
 20
-57.4999999999983586
 30
0.0000000000000128
 11
140.910161531322899
 21
-43.4999999999982379
 31
0.0000000000000097
210
0.0
220
1.0
230
-0.0000000000000002
  0
LINE
  5
FC2
  8
0
  6
VERDECKT
 62
     1
 10
256.9101615313230127
 20
-43.4999999999983018
 30
0.0000000000000097
 11
256.9101615313230127
 21
-57.4999999999983729
 31
0.0000000000000128
210
0.0
220
1.0
230
-0.0000000000000002
  0
LINE
  5
FC3
  8
0
  6
VERDECKT
 62
     1
 10
245.9101615313230127
 20
-43.4999999999982379
 30
0.0000000000000097
 11
245.9101615313230127
 21
-57.4999999999983586
 31
0.0000000000000128
210
0.0
220
1.0
230
-0.0000000000000002
  0
LINE
  5
FC4
  8
0
  6
VERDECKT
 62
     1
 10
187.910161531322899
 20
-57.4999999999983586
 30
0.0000000000000128
 11
187.910161531322899
 21
-43.4999999999983018
 31
0.0000000000000097
210
0.0
220
1.0
230
-0.0000000000000002
  0
LINE
  5
FC5
  8
0
  6
VERDECKT
 62
     1
 10
198.910161531322899
 20
-57.4999999999983729
 30
0.0000000000000128
 11
198.910161531322899
 21
-43.4999999999983018
 31
0.0000000000000097
210
0.0
220
1.0
230
-0.0000000000000002
  0
LINE
  5
FC6
  8
0
  6
VERDECKT
 62
     1
 10
228.9223548401427877
 20
-57.4999999999983586
 30
0.0000000000000128
 11
228.9223548401427877
 21
-43.4999999999983018
 31
0.0000000000000097
210
0.0
220
1.0
230
-0.0000000000000002
  0
LINE
  5
FC7
  8
0
  6
VERDECKT
 62
     1
 10
239.9223548401427877
 20
-57.4999999999983729
 30
0.0000000000000128
 11
239.9223548401427877
 21
-43.4999999999983018
 31
0.0000000000000097
210
0.0
220
1.0
230
-0.0000000000000002
  0
LINE
  5
FC8
  8
0
  6
VERDECKT
 62
     1
 10
157.8979682225034082
 20
-43.4999999999983018
 30
0.0000000000000097
 11
157.8979682225034082
 21
-57.4999999999983729
 31
0.0000000000000128
210
0.0
220
1.0
230
-0.0000000000000002
  0
LINE
  5
FC9
  8
0
  6
VERDECKT
 62
     1
 10
146.8979682225034082
 20
-43.4999999999983018
 30
0.0000000000000097
 11
146.8979682225034082
 21
-57.4999999999983586
 31
0.0000000000000128
210
0.0
220
1.0
230
-0.0000000000000002
  0
LINE
  5
FCA
  8
0
  6
VERDECKT
 62
     1
 10
232.1101615313237119
 20
-43.4999999999982379
 30
0.0000000000000097
 11
232.1101615313237119
 21
-57.4999999999983089
 31
0.0000000000000128
210
0.0
220
1.0
230
-0.0000000000000002
  0
LINE
  5
FCB
  8
0
  6
VERDECKT
 62
     1
 10
154.7101615313221998
 20
-43.4999999999981526
 30
0.0000000000000097
 11
154.7101615313221998
 21
-57.4999999999983089
 31
0.0000000000000128
210
0.0
220
1.0
230
-0.0000000000000002
  0
ENDBLK
  5
FCD
  8
0
  0
ENDSEC
  0
SECTION
  2
ENTITIES
  0
TEXT
  5
8F
  8
VOLL
 10
78.076754716981128
 20
31.025947764705851
 30
0.0
 40
1.8
  1

  7
GREEKS
  0
INSERT
  5
743
  8
ADSK_ASSOC_ENTITY_BACKUPS
  2
*S0
 10
0.0
 20
0.0
 30
0.0
  0
INSERT
  5
F88
  8
STEMPEL
  2
A$C03447AF8
 10
188.9303744817298139
 20
-170.5932656213182099
 30
-30.4255406320949398
  0
INSERT
  5
FCE
  8
STEMPEL
  2
A$C575B40AA
 10
188.9303744817298139
 20
156.2736001212711017
 30
-30.4255406320949113
  0
VIEWPORT
  5
722
 67
     1
  8
0
 10
25.9821487784767911
 20
214.3561067240127045
 30
0.0
 40
533.9969448798290159
 41
299.1239570917758783
 68
     1
 69
     1
1001
ACAD
1000
MVIEW
1002
{
1070
    16
1010
0.0
1020
0.0
1030
0.0
1010
0.0
1020
0.0
1030
1.0
1040
0.0
1040
299.1239570917758783
1040
25.9821487784767911
1040
214.3561067240127045
1040
50.0
1040
0.0
1040
0.0
1070
     0
1070
  1500
1070
     1
1070
     1
1070
     0
1070
     0
1070
     0
1070
     0
1040
0.0
1040
0.0
1040
0.0
1040
10.0
1040
10.0
1040
10.0
1040
10.0
1070
     0
1002
{
1002
}
1002
}
  0
ENDSEC
  0
EOF
