  0
SECTION
  2
HEADER
  9
$ACADVER
  1
AC1009
  9
$INSBASE
 10
0.0
 20
0.0
 30
0.0
  9
$EXTMIN
 10
464.6107163178523933
 20
-0.0887871302804797
 30
-34.4439721169043267
  9
$EXTMAX
 10
584.6107163178522796
 20
252.7492819962249087
 30
-34.4439721169043125
  9
$LIMMIN
 10
0.0
 20
0.0
  9
$LIMMAX
 10
210.0
 20
297.0
  9
$ORTHOMODE
 70
     1
  9
$REGENMODE
 70
     1
  9
$FILLMODE
 70
     1
  9
$QTEXTMODE
 70
     0
  9
$MIRRTEXT
 70
     1
  9
$DRAGMODE
 70
     2
  9
$LTSCALE
 40
10.0
  9
$OSMODE
 70
  2495
  9
$ATTMODE
 70
     1
  9
$TEXTSIZE
 40
3.5
  9
$TRACEWID
 40
0.5
  9
$TEXTSTYLE
  7
STANDARD
  9
$CLAYER
  8
STEMPEL
  9
$CELTYPE
  6
BYLAYER
  9
$CECOLOR
 62
   256
  9
$DIMSCALE
 40
1.0
  9
$DIMASZ
 40
3.5
  9
$DIMEXO
 40
1.0
  9
$DIMDLI
 40
7.0
  9
$DIMRND
 40
0.0
  9
$DIMDLE
 40
0.0
  9
$DIMEXE
 40
1.0
  9
$DIMTP
 40
0.0
  9
$DIMTM
 40
0.0
  9
$DIMTXT
 40
3.5
  9
$DIMCEN
 40
1.5
  9
$DIMTSZ
 40
0.0
  9
$DIMTOL
 70
     0
  9
$DIMLIM
 70
     0
  9
$DIMTIH
 70
     0
  9
$DIMTOH
 70
     0
  9
$DIMSE1
 70
     0
  9
$DIMSE2
 70
     0
  9
$DIMTAD
 70
     1
  9
$DIMZIN
 70
     8
  9
$DIMBLK
  1

  9
$DIMASO
 70
     1
  9
$DIMSHO
 70
     0
  9
$DIMPOST
  1

  9
$DIMAPOST
  1

  9
$DIMALT
 70
     0
  9
$DIMALTD
 70
     2
  9
$DIMALTF
 40
25.3999999999999986
  9
$DIMLFAC
 40
2.0
  9
$DIMTOFL
 70
     1
  9
$DIMTVP
 40
0.0
  9
$DIMTIX
 70
     0
  9
$DIMSOXD
 70
     0
  9
$DIMSAH
 70
     0
  9
$DIMBLK1
  1

  9
$DIMBLK2
  1

  9
$DIMSTYLE
  2
STANDARD
  9
$DIMCLRD
 70
     0
  9
$DIMCLRE
 70
     0
  9
$DIMCLRT
 70
     1
  9
$DIMTFAC
 40
0.5
  9
$DIMGAP
 40
1.5
  9
$LUNITS
 70
     2
  9
$LUPREC
 70
     2
  9
$SKETCHINC
 40
1.0
  9
$FILLETRAD
 40
0.0
  9
$AUNITS
 70
     0
  9
$AUPREC
 70
     0
  9
$MENU
  1
ACAD
  9
$ELEVATION
 40
0.0
  9
$PELEVATION
 40
0.0
  9
$THICKNESS
 40
0.0
  9
$LIMCHECK
 70
     0
  9
$BLIPMODE
 70
     0
  9
$CHAMFERA
 40
0.0
  9
$CHAMFERB
 40
0.0
  9
$SKPOLY
 70
     0
  9
$TDCREATE
 40
2455397.8646990740671754
  9
$TDUPDATE
 40
2459627.5634953710250556
  9
$TDINDWG
 40
0.1352124074
  9
$TDUSRTIMER
 40
0.1352124074
  9
$USRTIMER
 70
     1
  9
$ANGBASE
 50
0.0
  9
$ANGDIR
 70
     0
  9
$PDMODE
 70
     0
  9
$PDSIZE
 40
0.0
  9
$PLINEWID
 40
0.0
  9
$COORDS
 70
     1
  9
$SPLFRAME
 70
     0
  9
$SPLINETYPE
 70
     6
  9
$SPLINESEGS
 70
     8
  9
$ATTDIA
 70
     1
  9
$ATTREQ
 70
     1
  9
$HANDLING
 70
     1
  9
$HANDSEED
  5
13A7
  9
$SURFTAB1
 70
     6
  9
$SURFTAB2
 70
     6
  9
$SURFTYPE
 70
     6
  9
$SURFU
 70
     6
  9
$SURFV
 70
     6
  9
$UCSNAME
  2

  9
$UCSORG
 10
0.0
 20
0.0
 30
0.0
  9
$UCSXDIR
 10
1.0
 20
0.0
 30
0.0
  9
$UCSYDIR
 10
0.0
 20
1.0
 30
0.0
  9
$PUCSNAME
  2

  9
$PUCSORG
 10
0.0
 20
0.0
 30
0.0
  9
$PUCSXDIR
 10
1.0
 20
0.0
 30
0.0
  9
$PUCSYDIR
 10
0.0
 20
1.0
 30
0.0
  9
$USERI1
 70
     0
  9
$USERI2
 70
     0
  9
$USERI3
 70
     0
  9
$USERI4
 70
     0
  9
$USERI5
 70
     0
  9
$USERR1
 40
0.0
  9
$USERR2
 40
0.0
  9
$USERR3
 40
0.0
  9
$USERR4
 40
0.0
  9
$USERR5
 40
0.0
  9
$WORLDVIEW
 70
     1
  9
$SHADEDGE
 70
     3
  9
$SHADEDIF
 70
    70
  9
$TILEMODE
 70
     1
  9
$MAXACTVP
 70
    16
  9
$PLIMCHECK
 70
     0
  9
$PEXTMIN
 10
1.0000000000000000E+20
 20
1.0000000000000000E+20
 30
1.0000000000000000E+20
  9
$PEXTMAX
 10
-1.0000000000000000E+20
 20
-1.0000000000000000E+20
 30
-1.0000000000000000E+20
  9
$PLIMMIN
 10
-72.5346806239770387
 20
34.3639353478247429
  9
$PLIMMAX
 10
137.4653193760229044
 20
331.363935347824679
  9
$UNITMODE
 70
     0
  9
$VISRETAIN
 70
     0
  9
$PLINEGEN
 70
     0
  9
$PSLTSCALE
 70
     0
  0
ENDSEC
  0
SECTION
  2
TABLES
  0
TABLE
  2
VPORT
 70
     1
  0
VPORT
  2
*ACTIVE
 70
     0
 10
0.0
 20
0.0
 11
1.0
 21
1.0
 12
3.037272751619212
 22
-78.1971022650440659
 13
0.0
 23
0.0
 14
1.0
 24
1.0
 15
10.0
 25
10.0
 16
-0.0000000000001137
 26
0.0
 36
440.9619935312460939
 17
521.5734435662332089
 27
204.5273496980163088
 37
-17.2219860584521101
 40
254.6462078806877969
 41
1.785202863961814
 42
50.0
 43
0.0
 44
0.0
 50
0.0
 51
0.0
 71
     0
 72
  1500
 73
     1
 74
     0
 75
     0
 76
     0
 77
     0
 78
     0
  0
ENDTAB
  0
TABLE
  2
LTYPE
 70
     6
  0
LTYPE
  2
CONTINUOUS
 70
     0
  3
Solid line
 72
    65
 73
     0
 40
0.0
  0
LTYPE
  2
PHANTOM2
 70
     0
  3
Phantom (.5x) ___ _ _ ___ _ _ ___ _ _ ___ _ _
 72
    65
 73
     6
 40
1.25
 49
0.625
 49
-0.125
 49
0.125
 49
-0.125
 49
0.125
 49
-0.125
  0
LTYPE
  2
VERDECKT
 70
     0
  3
Verdeckt __ __ __ __ __ __ __ __ __ __ __ __ __
 72
    65
 73
     2
 40
0.375
 49
0.25
 49
-0.125
  0
ENDTAB
  0
TABLE
  2
LAYER
 70
    14
  0
LAYER
  2
0
 70
     0
 62
     7
  6
CONTINUOUS
  0
LAYER
  2
VOLL
 70
     0
 62
     1
  6
CONTINUOUS
  0
LAYER
  2
STEMPEL
 70
     0
 62
     3
  6
CONTINUOUS
  0
LAYER
  2
ADSK_ASSOC_ENTITY_BACKUPS
 70
     1
 62
    -7
  6
CONTINUOUS
  0
LAYER
  2
DEFPOINTS
 70
     0
 62
     7
  6
CONTINUOUS
  0
ENDTAB
  0
TABLE
  2
STYLE
 70
     4
  0
STYLE
  2
STANDARD
 70
     0
 40
0.0
 41
0.8
 50
0.0
 71
     0
 42
3.5
  3
simplex.shx
  4

  0
STYLE
  2
GREEKS
 70
     0
 40
0.0
 41
0.8
 50
0.0
 71
     0
 42
2.5
  3
SIMPLEX.shx
  4

  0
ENDTAB
  0
TABLE
  2
VIEW
 70
     1
  0
ENDTAB
  0
TABLE
  2
UCS
 70
     0
  0
ENDTAB
  0
TABLE
  2
APPID
 70
    21
  0
APPID
  2
ACAD
 70
     0
  0
APPID
  2
ACAD_NAV_VCDISPLAY
 70
     0
  0
APPID
  2
ACAD_MLEADERVER
 70
     0
  0
APPID
  2
ACAD_EXEMPT_FROM_CAD_STANDARDS
 70
     0
  0
APPID
  2
ACAD_PSEXT
 70
     0
  0
APPID
  2
ACAECLAYERSTANDARD
 70
     0
  0
APPID
  2
ACCMTRANSPARENCY
 70
     0
  0
APPID
  2
ACAD_STEPID
 70
     0
  0
APPID
  2
ACSYNERGY
 70
     0
  0
APPID
  2
SYNERGY_BODY_TBR_ID
 70
     0
  0
APPID
  2
ACAD_VIEW_EDGE_ID
 70
     0
  0
APPID
  2
ACSYNERGYSKETCH
 70
     0
  0
APPID
  2
ACAD_MODELDOC_XFORM
 70
     0
  0
APPID
  2
ACAD_DSTYLE_DIMJAG
 70
     0
  0
APPID
  2
ACAD_DSTYLE_DIMTALN
 70
     0
  0
APPID
  2
ACADANNOMONITORALERTICONDI
 70
     0
  0
APPID
  2
ACAD_DIMASSOC_CALC_DIMLFAC
 70
     0
  0
APPID
  2
ACAD_DIMASSOC_DIMLFAC
 70
     0
  0
APPID
  2
ACAD_DIMASSOC_OVERRIDDEN_D
 70
     0
  0
APPID
  2
ACAD_DSTYLE_DIMRADIAL_EXTENSION
 70
     0
  0
APPID
  2
AcDbAttr
 70
     0
  0
ENDTAB
  0
TABLE
  2
DIMSTYLE
 70
     2
  0
DIMSTYLE
  2
STANDARD
 70
     0
  3

  4

  5

  6

  7

 40
1.0
 41
0.18
 42
0.0625
 43
0.38
 44
0.18
 45
0.0
 46
0.0
 47
0.0
 48
0.0
140
0.18
141
0.09
142
0.0
143
25.3999999999999986
144
1.0
145
0.0
146
1.0
147
0.09
 71
     0
 72
     0
 73
     1
 74
     1
 75
     0
 76
     0
 77
     0
 78
     0
170
     0
171
     2
172
     0
173
     0
174
     0
175
     0
176
     0
177
     0
178
     0
  0
ENDTAB
  0
ENDSEC
  0
SECTION
  2
BLOCKS
  0
BLOCK
  8
0
  2
$MODEL_SPACE
 70
     0
 10
0.0
 20
0.0
 30
0.0
  3
$MODEL_SPACE
  1

  0
ENDBLK
  5
36
  8
0
  0
BLOCK
 67
     1
  8
0
  2
$PAPER_SPACE
 70
     0
 10
0.0
 20
0.0
 30
0.0
  3
$PAPER_SPACE
  1

  0
ENDBLK
  5
34
 67
     1
  8
0
  0
BLOCK
  8
0
  2
*S2
 70
     1
 10
0.0
 20
0.0
 30
0.0
  3
*S2
  1

  0
ENDBLK
  5
74D
  8
0
  0
BLOCK
  8
0
  2
A$C1D1F7958
 70
     0
 10
0.0
 20
0.0
 30
0.0
  3
A$C1D1F7958
  1

  0
CIRCLE
  5
12F8
  8
0
 10
381.3046702255488754
 20
206.8941908258497051
 30
0.0000000000000924
 40
31.4999999999999716
  0
CIRCLE
  5
12F9
  8
0
 10
381.3046702255488754
 20
206.8941908258497051
 30
0.0000000000000924
 40
29.6063531499383892
  0
CIRCLE
  5
12FA
  8
0
 10
381.3046702255488754
 20
206.8941908258497051
 30
0.0000000000000897
 40
25.0000000000000391
  0
CIRCLE
  5
12FB
  8
0
 10
381.3046702255488754
 20
206.8941908258497051
 30
0.0000000000000888
 40
28.0
  0
CIRCLE
  5
12FC
  8
0
 10
381.3046702255488754
 20
206.8941908258497051
 30
0.0000000000000924
 40
28.2520182922508205
  0
CIRCLE
  5
12FD
  8
0
 10
381.304670225548989
 20
206.8941908258497051
 30
0.0000000000000924
 40
32.0031659052889879
  0
CIRCLE
  5
12FE
  8
0
 10
357.304670225548989
 20
248.4634102075027897
 30
0.0000000000000853
 40
5.5
  0
CIRCLE
  5
12FF
  8
0
 10
429.3046702255488754
 20
206.8941908258497051
 30
0.0000000000000995
 40
5.5
  0
CIRCLE
  5
1300
  8
0
 10
357.304670225548989
 20
165.3249714441967058
 30
0.0000000000000853
 40
5.5
  0
CIRCLE
  5
1301
  8
0
 10
405.304670225548989
 20
165.3249714441967058
 30
0.0000000000000924
 40
5.5
  0
CIRCLE
  5
1302
  8
0
 10
405.304670225548989
 20
248.4634102075027897
 30
0.0000000000000924
 40
5.5
  0
CIRCLE
  5
1303
  8
0
 10
333.304670225548989
 20
206.8941908258497051
 30
0.0000000000000782
 40
5.5
  0
CIRCLE
  5
1304
  8
0
 10
381.304670225548989
 20
206.8941908258497051
 30
0.0000000000000924
 40
59.9999999999999432
  0
CIRCLE
  5
1305
  8
0
  6
VERDECKT
 62
     1
 10
381.3046702255488754
 20
206.8941908258497051
 30
0.0000000000000888
 40
29.4999999999999716
  0
CIRCLE
  5
1306
  8
0
  6
VERDECKT
 62
     1
 10
381.3046702255488754
 20
206.8941908258497051
 30
0.0000000000000897
 40
26.5000000000000497
  0
CIRCLE
  5
1307
  8
0
  6
VERDECKT
 62
     1
 10
381.3046702255488754
 20
206.8941908258497051
 30
0.0000000000000924
 40
29.9999999999999609
  0
CIRCLE
  5
1308
  8
0
  6
VERDECKT
 62
     1
 10
381.304670225548989
 20
206.8941908258497051
 30
0.0000000000000924
 40
30.6999999999999886
  0
CIRCLE
  5
1309
  8
0
  6
VERDECKT
 62
     1
 10
381.304670225548989
 20
206.8941908258497051
 30
0.0000000000000924
 40
30.6999999999999886
  0
ENDBLK
  5
130B
  8
0
  0
BLOCK
  8
0
  2
A$C0581CDE0
 70
     0
 10
0.0
 20
0.0
 30
0.0
  3
A$C0581CDE0
  1

  0
LINE
  5
130F
  8
0
 10
351.6983170756104755
 20
46.9999999999999218
 30
-0.0000000000000104
 11
410.9110233754872183
 21
46.9999999999999787
 31
-0.0000000000000104
210
0.0
220
1.0
230
-0.0000000000000002
  0
LINE
  5
1310
  8
0
 10
349.3015043202599941
 20
-34.2571954339852027
 30
0.0000000000000076
 11
413.3078361308379272
 21
-34.2571954339852027
 31
0.0000000000000076
210
0.0
220
1.0
230
-0.0000000000000002
  0
ARC
  5
1311
  8
0
 10
-369.3046702255462037
 20
38.6174986573431624
 30
0.0
 40
19.4999999999973284
210
0.0
220
-0.0000000000000002
230
-1.0
 50
359.999999999998181
 51
25.4594285688098516
  0
ARC
  5
1312
  8
0
 10
-393.304670225552286
 20
38.6174986573432975
 30
0.0
 40
19.4999999999964793
210
0.0
220
-0.0000000000000002
230
-1.0
 50
154.5405714311891074
 51
180.0000000000019895
  0
LINE
  5
1313
  8
0
 10
412.8046702255487048
 20
38.6174986573425727
 30
-0.0000000000000086
 11
412.8046702255487048
 21
37.1219642979835669
 31
-0.0000000000000082
210
0.0
220
1.0
230
-0.0000000000000002
  0
LINE
  5
1314
  8
0
 10
349.8046702255488754
 20
38.6174986573425514
 30
-0.0000000000000086
 11
349.8046702255488754
 21
37.1219642979835172
 31
-0.0000000000000082
210
0.0
220
1.0
230
-0.0000000000000002
  0
ARC
  5
1315
  8
0
 10
-374.8046702255518881
 20
37.1620000000040918
 30
0.0
 40
25.0000320571311292
210
0.0
220
-0.0000000000000002
230
-1.0
 50
340.5369005553121156
 51
359.9082450082124751
  0
ARC
  5
1316
  8
0
 10
-387.8046702255477953
 20
37.1620000000036512
 30
0.0
 40
25.0000320571292001
210
0.0
220
-0.0000000000000002
230
-1.0
 50
180.0917549917863028
 51
199.4630994446881971
  0
ARC
  5
1317
  8
0
 10
-341.8046702255476816
 20
25.5000000000033715
 30
0.0
 40
10.0000000000011298
210
0.0
220
-0.0000000000000002
230
-1.0
 50
160.5369005553127977
 51
180.0
  0
ARC
  5
1318
  8
0
 10
-420.8046702255500122
 20
25.5000000000034106
 30
0.0
 40
10.0000000000011902
210
0.0
220
-0.0000000000000002
230
-1.0
 50
0.0
 51
19.4630994446871313
  0
LINE
  5
1319
  8
0
 10
410.8046702255488754
 20
25.5000000000034213
 30
-0.0000000000000057
 11
410.8046702255488754
 21
14.4083269131993994
 31
-0.0000000000000032
210
0.0
220
1.0
230
-0.0000000000000002
  0
LINE
  5
131A
  8
0
 10
351.8046702255488754
 20
25.5000000000033609
 30
-0.0000000000000057
 11
351.8046702255488754
 21
14.4083269131993497
 31
-0.0000000000000032
210
0.0
220
1.0
230
-0.0000000000000002
  0
ARC
  5
131B
  8
0
 10
-363.8046702255468858
 20
14.4083269131986906
 30
0.0
 40
11.9999999999979501
210
0.0
220
-0.0000000000000002
230
-1.0
 50
328.2116693829465248
 51
0.0000000000031297
  0
ARC
  5
131C
  8
0
 10
-398.8046702255509217
 20
14.4083269131987404
 30
0.0
 40
11.9999999999980105
210
0.0
220
-0.0000000000000002
230
-1.0
 50
179.9999999999967883
 51
211.7883306170533899
  0
ARC
  5
131D
  8
0
 10
-346.8046702255488754
 20
3.8726731603465558
 30
0.0
 40
7.9999999999999956
210
0.0
220
-0.0000000000000002
230
-1.0
 50
148.211669382947008
 51
179.9999999999994031
  0
ARC
  5
131E
  8
0
 10
-415.8046702255493869
 20
3.8726731603465141
 30
0.0
 40
8.0000000000004547
210
0.0
220
-0.0000000000000002
230
-1.0
 50
0.0000000000012341
 51
31.7883306170513613
  0
LINE
  5
131F
  8
0
 10
407.8046702255488754
 20
3.8726731603466882
 30
-0.0000000000000009
 11
407.8046702255488754
 21
-22.482616578695751
 31
0.000000000000005
210
0.0
220
1.0
230
-0.0000000000000002
  0
LINE
  5
1320
  8
0
 10
354.804670225548989
 20
3.8726731603466371
 30
-0.0000000000000009
 11
354.804670225548989
 21
-22.4826165786957617
 31
0.000000000000005
210
0.0
220
1.0
230
-0.0000000000000002
  0
ARC
  5
1321
  8
0
 10
-346.8046702255484206
 20
-22.4826165786955698
 30
0.0
 40
8.0000000000006253
210
0.0
220
-0.0000000000000002
230
-1.0
 50
180.0000000000013074
 51
209.6831401791222902
  0
ARC
  5
1322
  8
0
 10
-415.8046702255495006
 20
-22.4826165786955485
 30
0.0
 40
8.0000000000005631
210
0.0
220
-0.0000000000000002
230
-1.0
 50
330.3168598208777098
 51
359.9999999999985789
  0
LINE
  5
1323
  8
0
 10
408.8544520640077167
 20
-26.4442409307742601
 30
0.0000000000000059
 11
413.3078361308379272
 21
-34.2571954339851814
 31
0.0000000000000076
210
0.0
220
1.0
230
-0.0000000000000002
  0
LINE
  5
1324
  8
0
 10
353.7548883870903182
 20
-26.4442409307743205
 30
0.0000000000000059
 11
349.3015043202599941
 21
-34.2571954339852311
 31
0.0000000000000076
210
0.0
220
1.0
230
-0.0000000000000002
  0
LINE
  5
1325
  8
0
 10
350.6046702255490004
 20
-34.9999999999999289
 30
0.0000000000000078
 11
349.3015043202599941
 21
-34.2571954339852169
 31
0.0000000000000076
210
0.0
220
1.0
230
-0.0000000000000002
  0
LINE
  5
1326
  8
0
 10
412.0046702255489208
 20
-34.9999999999999218
 30
0.0000000000000078
 11
413.3078361308379272
 21
-34.2571954339852098
 31
0.0000000000000076
210
0.0
220
1.0
230
-0.0000000000000002
  0
LINE
  5
1327
  8
0
 10
321.304670225548989
 20
-46.9999999999999716
 30
0.0000000000000104
 11
441.3046702255488754
 21
-46.9999999999999005
 31
0.0000000000000104
210
0.0
220
1.0
230
-0.0000000000000002
  0
LINE
  5
1328
  8
0
 10
321.304670225548989
 20
-34.9999999999999716
 30
0.0000000000000078
 11
441.3046702255488754
 21
-34.9999999999999005
 31
0.0000000000000078
210
0.0
220
1.0
230
-0.0000000000000002
  0
LINE
  5
1329
  8
0
 10
441.3046702255488754
 20
-34.9999999999999076
 30
0.0000000000000078
 11
441.3046702255488754
 21
-46.9999999999999076
 31
0.0000000000000104
210
0.0
220
1.0
230
-0.0000000000000002
  0
LINE
  5
132A
  8
0
 10
321.304670225548989
 20
-34.9999999999999716
 30
0.0000000000000078
 11
321.304670225548989
 21
-46.9999999999999716
 31
0.0000000000000104
210
0.0
220
1.0
230
-0.0000000000000002
  0
LINE
  5
132B
  8
0
  6
VERDECKT
 62
     1
 10
353.0526519332980797
 20
46.3551922044109475
 30
-0.0000000000000103
 11
409.5566885177996141
 21
46.3551922044109475
 31
-0.0000000000000103
210
0.0
220
1.0
230
-0.0000000000000002
  0
ARC
  5
132C
  8
0
  6
VERDECKT
 62
     1
 10
-346.8046702255422815
 20
3.872673160344231
 30
0.0
 40
9.5000000000068798
210
0.0
220
-0.0000000000000002
230
-1.0
 50
148.2116693829580925
 51
179.9999999999859881
  0
ARC
  5
132D
  8
0
  6
VERDECKT
 62
     1
 10
-415.804670225555526
 20
3.8726731603442661
 30
0.0
 40
9.5000000000068781
210
0.0
220
-0.0000000000000002
230
-1.0
 50
0.0
 51
31.7883306170278601
  0
ARC
  5
132E
  8
0
  6
VERDECKT
 62
     1
 10
-363.8046702255558102
 20
14.4083269132013392
 30
0.0
 40
10.5000000000068692
210
0.0
220
-0.0000000000000002
230
-1.0
 50
328.2116693829581209
 51
359.9999999999890861
  0
ARC
  5
132F
  8
0
  6
VERDECKT
 62
     1
 10
-398.8046702255419973
 20
14.4083269132013907
 30
0.0
 40
10.5000000000069296
210
0.0
220
-0.0000000000000002
230
-1.0
 50
180.0000000000108002
 51
211.7883306170419075
  0
LINE
  5
1330
  8
0
  6
VERDECKT
 62
     1
 10
409.3046702255488185
 20
25.5000000000033289
 30
-0.0000000000000057
 11
409.3046702255488185
 21
14.4083269131993994
 31
-0.0000000000000032
210
0.0
220
1.0
230
-0.0000000000000002
  0
LINE
  5
1331
  8
0
  6
VERDECKT
 62
     1
 10
353.3046702255488754
 20
25.5000000000032792
 30
-0.0000000000000057
 11
353.3046702255488754
 21
14.4083269131993497
 31
-0.0000000000000032
210
0.0
220
1.0
230
-0.0000000000000002
  0
ARC
  5
1332
  8
0
  6
VERDECKT
 62
     1
 10
-341.8046702255473974
 20
25.5000000000032117
 30
0.0
 40
11.5000000000015294
210
0.0
220
-0.0000000000000002
230
-1.0
 50
160.5369005553131956
 51
179.9999999999996021
  0
ARC
  5
1333
  8
0
  6
VERDECKT
 62
     1
 10
-420.8046702255502964
 20
25.5000000000032614
 30
0.0
 40
11.5000000000015294
210
0.0
220
-0.0000000000000002
230
-1.0
 50
0.0
 51
19.4630994446864882
  0
ARC
  5
1334
  8
0
  6
VERDECKT
 62
     1
 10
-374.8046702255504101
 20
37.1620000000033528
 30
0.0
 40
23.5000320571295802
210
0.0
220
-0.0000000000000002
230
-1.0
 50
340.5369005553123998
 51
359.9053619551851284
  0
ARC
  5
1335
  8
0
  6
VERDECKT
 62
     1
 10
-387.8046702255473974
 20
37.1620000000034025
 30
0.0
 40
23.5000320571295802
210
0.0
220
-0.0000000000000002
230
-1.0
 50
180.0946380448147863
 51
199.4630994446876002
  0
LINE
  5
1336
  8
0
  6
VERDECKT
 62
     1
 10
411.3046702255487048
 20
38.6174986573426011
 30
-0.0000000000000086
 11
411.3046702255487048
 21
37.1231839459310109
 31
-0.0000000000000082
210
0.0
220
1.0
230
-0.0000000000000002
  0
LINE
  5
1337
  8
0
  6
VERDECKT
 62
     1
 10
351.304670225548989
 20
38.6174986573425514
 30
-0.0000000000000086
 11
351.304670225548989
 21
37.1231839459309825
 31
-0.0000000000000082
210
0.0
220
1.0
230
-0.0000000000000002
  0
ARC
  5
1338
  8
0
  6
VERDECKT
 62
     1
 10
-369.3046702255415994
 20
38.6174986573441714
 30
0.0
 40
17.9999999999926708
210
0.0
220
-0.0000000000000002
230
-1.0
 50
359.9999999999948272
 51
25.4594285688135713
  0
ARC
  5
1339
  8
0
  6
VERDECKT
 62
     1
 10
-393.3046702255539913
 20
38.6174986573437309
 30
0.0
 40
17.9999999999948308
210
0.0
220
-0.0000000000000002
230
-1.0
 50
154.540571431187999
 51
180.0000000000034959
  0
LINE
  5
133A
  8
0
  6
VERDECKT
 62
     1
 10
353.0526519332980797
 20
46.3551922044108835
 30
-0.0000000000000103
 11
351.6983170756104755
 21
46.9999999999999289
 31
-0.0000000000000104
210
0.0
220
1.0
230
-0.0000000000000002
  0
LINE
  5
133B
  8
0
  6
VERDECKT
 62
     1
 10
409.5566885177996141
 20
46.3551922044109332
 30
-0.0000000000000103
 11
410.9110233754872183
 21
46.9999999999999787
 31
-0.0000000000000104
210
0.0
220
1.0
230
-0.0000000000000002
  0
LINE
  5
133C
  8
0
  6
VERDECKT
 62
     1
 10
407.5512861587187103
 20
-27.1870454967889295
 30
0.000000000000006
 11
412.0046702255489208
 21
-34.9999999999998934
 31
0.0000000000000078
210
0.0
220
1.0
230
-0.0000000000000002
  0
LINE
  5
133D
  8
0
  6
VERDECKT
 62
     1
 10
355.0580542923793246
 20
-27.1870454967890005
 30
0.000000000000006
 11
350.6046702255490004
 21
-34.9999999999999574
 31
0.0000000000000078
210
0.0
220
1.0
230
-0.0000000000000002
  0
ARC
  5
133E
  8
0
  6
VERDECKT
 62
     1
 10
-346.8046702255484774
 20
-22.4826165786955201
 30
0.0
 40
9.5000000000005116
210
0.0
220
-0.0000000000000002
230
-1.0
 50
180.0000000000015064
 51
209.6831401791231997
  0
ARC
  5
133F
  8
0
  6
VERDECKT
 62
     1
 10
-415.8046702255492733
 20
-22.4826165786954917
 30
0.0
 40
9.5000000000003997
210
0.0
220
-0.0000000000000002
230
-1.0
 50
330.3168598208765729
 51
359.9999999999984084
  0
LINE
  5
1340
  8
0
  6
VERDECKT
 62
     1
 10
406.304670225548989
 20
3.8726731603466011
 30
-0.0000000000000009
 11
406.304670225548989
 21
-22.482616578695751
 31
0.000000000000005
210
0.0
220
1.0
230
-0.0000000000000002
  0
LINE
  5
1341
  8
0
  6
VERDECKT
 62
     1
 10
356.3046702255488754
 20
3.872673160346551
 30
-0.0000000000000009
 11
356.3046702255488754
 21
-22.4826165786957617
 31
0.000000000000005
210
0.0
220
1.0
230
-0.0000000000000002
  0
LINE
  5
1342
  8
0
  6
VERDECKT
 62
     1
 10
434.804670225548989
 20
-34.9999999999999076
 30
0.0000000000000078
 11
434.804670225548989
 21
-46.9999999999999289
 31
0.0000000000000104
210
0.0
220
1.0
230
-0.0000000000000002
  0
LINE
  5
1343
  8
0
  6
VERDECKT
 62
     1
 10
423.8046702255488754
 20
-34.9999999999999076
 30
0.0000000000000078
 11
423.8046702255488754
 21
-46.9999999999999289
 31
0.0000000000000104
210
0.0
220
1.0
230
-0.0000000000000002
  0
LINE
  5
1344
  8
0
  6
VERDECKT
 62
     1
 10
351.804670225548989
 20
-46.9999999999999289
 30
0.0000000000000104
 11
351.804670225548989
 21
-34.9999999999999076
 31
0.0000000000000078
210
0.0
220
1.0
230
-0.0000000000000002
  0
LINE
  5
1345
  8
0
  6
VERDECKT
 62
     1
 10
362.804670225548989
 20
-46.9999999999999289
 30
0.0000000000000104
 11
362.804670225548989
 21
-34.9999999999999076
 31
0.0000000000000078
210
0.0
220
1.0
230
-0.0000000000000002
  0
LINE
  5
1346
  8
0
  6
VERDECKT
 62
     1
 10
410.804670225548989
 20
-34.9999999999999076
 30
0.0000000000000078
 11
410.804670225548989
 21
-46.9999999999999289
 31
0.0000000000000104
210
0.0
220
1.0
230
-0.0000000000000002
  0
LINE
  5
1347
  8
0
  6
VERDECKT
 62
     1
 10
399.804670225548989
 20
-34.9999999999999076
 30
0.0000000000000078
 11
399.804670225548989
 21
-46.9999999999999289
 31
0.0000000000000104
210
0.0
220
1.0
230
-0.0000000000000002
  0
LINE
  5
1348
  8
0
  6
VERDECKT
 62
     1
 10
327.804670225548989
 20
-46.9999999999999289
 30
0.0000000000000104
 11
327.804670225548989
 21
-34.9999999999999076
 31
0.0000000000000078
210
0.0
220
1.0
230
-0.0000000000000002
  0
LINE
  5
1349
  8
0
  6
VERDECKT
 62
     1
 10
338.804670225548989
 20
-46.9999999999999289
 30
0.0000000000000104
 11
338.804670225548989
 21
-34.9999999999999076
 31
0.0000000000000078
210
0.0
220
1.0
230
-0.0000000000000002
  0
LINE
  5
134A
  8
0
  6
VERDECKT
 62
     1
 10
350.6046702255490004
 20
-46.9999999999999289
 30
0.0000000000000104
 11
350.6046702255490004
 21
-34.9999999999999503
 31
0.0000000000000078
210
0.0
220
1.0
230
-0.0000000000000002
  0
LINE
  5
134B
  8
0
  6
VERDECKT
 62
     1
 10
412.0046702255489208
 20
-46.9999999999999289
 30
0.0000000000000104
 11
412.0046702255489208
 21
-34.9999999999999076
 31
0.0000000000000078
210
0.0
220
1.0
230
-0.0000000000000002
  0
ENDBLK
  5
134D
  8
0
  0
ENDSEC
  0
SECTION
  2
ENTITIES
  0
TEXT
  5
8F
  8
VOLL
 10
78.076754716981128
 20
31.025947764705851
 30
0.0
 40
1.8
  1

  7
GREEKS
  0
INSERT
  5
74F
  8
ADSK_ASSOC_ENTITY_BACKUPS
  2
*S2
 10
0.0
 20
0.0
 30
0.0
  0
INSERT
  5
130C
  8
STEMPEL
  2
A$C1D1F7958
 10
143.3060460923034043
 20
-146.9829779561302985
 30
-34.443972116904412
  0
INSERT
  5
134E
  8
STEMPEL
  2
A$C0581CDE0
 10
143.3060460923034043
 20
205.7492819962249087
 30
-34.4439721169043196
  0
VIEWPORT
  5
72E
 67
     1
  8
0
 10
32.4653193760229613
 20
182.8639353478247074
 30
0.0
 40
533.9969448798290159
 41
299.1239570917758783
 68
     1
 69
     1
1001
ACAD
1000
MVIEW
1002
{
1070
    16
1010
0.0
1020
0.0
1030
0.0
1010
0.0
1020
0.0
1030
1.0
1040
0.0
1040
299.1239570917758783
1040
32.4653193760229613
1040
182.8639353478247074
1040
50.0
1040
0.0
1040
0.0
1070
     0
1070
  1500
1070
     1
1070
     1
1070
     0
1070
     0
1070
     0
1070
     0
1040
0.0
1040
0.0
1040
0.0
1040
10.0
1040
10.0
1040
10.0
1040
10.0
1070
     0
1002
{
1002
}
1002
}
  0
ENDSEC
  0
EOF
