  0
SECTION
  2
HEADER
  9
$ACADVER
  1
AC1009
  9
$INSBASE
 10
0.0
 20
0.0
 30
0.0
  9
$EXTMIN
 10
492.9003882865457058
 20
39.2244275236999229
 30
-26.61043658794609
  9
$EXTMAX
 10
600.900388286545649
 20
259.8514435674798051
 30
-26.6104365879460687
  9
$LIMMIN
 10
0.0
 20
0.0
  9
$LIMMAX
 10
210.0
 20
297.0000000000001137
  9
$ORTHOMODE
 70
     1
  9
$REGENMODE
 70
     1
  9
$FILLMODE
 70
     1
  9
$QTEXTMODE
 70
     0
  9
$MIRRTEXT
 70
     1
  9
$DRAGMODE
 70
     2
  9
$LTSCALE
 40
10.0
  9
$OSMODE
 70
  2495
  9
$ATTMODE
 70
     1
  9
$TEXTSIZE
 40
3.5
  9
$TRACEWID
 40
0.5
  9
$TEXTSTYLE
  7
STANDARD
  9
$CLAYER
  8
STEMPEL
  9
$CELTYPE
  6
BYLAYER
  9
$CECOLOR
 62
   256
  9
$DIMSCALE
 40
1.0
  9
$DIMASZ
 40
3.5
  9
$DIMEXO
 40
1.0
  9
$DIMDLI
 40
7.0
  9
$DIMRND
 40
0.0
  9
$DIMDLE
 40
0.0
  9
$DIMEXE
 40
1.0
  9
$DIMTP
 40
0.15
  9
$DIMTM
 40
0.15
  9
$DIMTXT
 40
3.5
  9
$DIMCEN
 40
1.5
  9
$DIMTSZ
 40
0.0
  9
$DIMTOL
 70
     0
  9
$DIMLIM
 70
     0
  9
$DIMTIH
 70
     0
  9
$DIMTOH
 70
     0
  9
$DIMSE1
 70
     0
  9
$DIMSE2
 70
     0
  9
$DIMTAD
 70
     1
  9
$DIMZIN
 70
     8
  9
$DIMBLK
  1

  9
$DIMASO
 70
     1
  9
$DIMSHO
 70
     0
  9
$DIMPOST
  1

  9
$DIMAPOST
  1

  9
$DIMALT
 70
     0
  9
$DIMALTD
 70
     2
  9
$DIMALTF
 40
25.3999999999999986
  9
$DIMLFAC
 40
2.0
  9
$DIMTOFL
 70
     1
  9
$DIMTVP
 40
0.0
  9
$DIMTIX
 70
     0
  9
$DIMSOXD
 70
     0
  9
$DIMSAH
 70
     0
  9
$DIMBLK1
  1

  9
$DIMBLK2
  1

  9
$DIMSTYLE
  2
STANDARD
  9
$DIMCLRD
 70
     0
  9
$DIMCLRE
 70
     0
  9
$DIMCLRT
 70
     1
  9
$DIMTFAC
 40
0.5
  9
$DIMGAP
 40
1.5
  9
$LUNITS
 70
     2
  9
$LUPREC
 70
     2
  9
$SKETCHINC
 40
1.0
  9
$FILLETRAD
 40
0.0
  9
$AUNITS
 70
     0
  9
$AUPREC
 70
     0
  9
$MENU
  1
ACAD
  9
$ELEVATION
 40
0.0
  9
$PELEVATION
 40
0.0
  9
$THICKNESS
 40
0.0
  9
$LIMCHECK
 70
     0
  9
$BLIPMODE
 70
     0
  9
$CHAMFERA
 40
0.0
  9
$CHAMFERB
 40
0.0
  9
$SKPOLY
 70
     0
  9
$TDCREATE
 40
2455397.9063657410442829
  9
$TDUPDATE
 40
2459627.5610995371825993
  9
$TDINDWG
 40
0.271414375
  9
$TDUSRTIMER
 40
0.271414375
  9
$USRTIMER
 70
     1
  9
$ANGBASE
 50
0.0
  9
$ANGDIR
 70
     0
  9
$PDMODE
 70
     0
  9
$PDSIZE
 40
0.0
  9
$PLINEWID
 40
0.0
  9
$COORDS
 70
     1
  9
$SPLFRAME
 70
     0
  9
$SPLINETYPE
 70
     6
  9
$SPLINESEGS
 70
     8
  9
$ATTDIA
 70
     1
  9
$ATTREQ
 70
     1
  9
$HANDLING
 70
     1
  9
$HANDSEED
  5
254C
  9
$SURFTAB1
 70
     6
  9
$SURFTAB2
 70
     6
  9
$SURFTYPE
 70
     6
  9
$SURFU
 70
     6
  9
$SURFV
 70
     6
  9
$UCSNAME
  2

  9
$UCSORG
 10
0.0
 20
0.0
 30
0.0
  9
$UCSXDIR
 10
1.0
 20
0.0
 30
0.0
  9
$UCSYDIR
 10
0.0
 20
1.0
 30
0.0
  9
$PUCSNAME
  2

  9
$PUCSORG
 10
0.0
 20
0.0
 30
0.0
  9
$PUCSXDIR
 10
1.0
 20
0.0
 30
0.0
  9
$PUCSYDIR
 10
0.0
 20
1.0
 30
0.0
  9
$USERI1
 70
     0
  9
$USERI2
 70
     0
  9
$USERI3
 70
     0
  9
$USERI4
 70
     0
  9
$USERI5
 70
     0
  9
$USERR1
 40
0.0
  9
$USERR2
 40
0.0
  9
$USERR3
 40
0.0
  9
$USERR4
 40
0.0
  9
$USERR5
 40
0.0
  9
$WORLDVIEW
 70
     1
  9
$SHADEDGE
 70
     3
  9
$SHADEDIF
 70
    70
  9
$TILEMODE
 70
     1
  9
$MAXACTVP
 70
    16
  9
$PLIMCHECK
 70
     0
  9
$PEXTMIN
 10
1.0000000000000000E+20
 20
1.0000000000000000E+20
 30
1.0000000000000000E+20
  9
$PEXTMAX
 10
-1.0000000000000000E+20
 20
-1.0000000000000000E+20
 30
-1.0000000000000000E+20
  9
$PLIMMIN
 10
-8.753918644149536
 20
-24.1761630261918299
  9
$PLIMMAX
 10
201.2460813558504071
 20
272.823836973808227
  9
$UNITMODE
 70
     0
  9
$VISRETAIN
 70
     0
  9
$PLINEGEN
 70
     0
  9
$PSLTSCALE
 70
     0
  0
ENDSEC
  0
SECTION
  2
TABLES
  0
TABLE
  2
VPORT
 70
     1
  0
VPORT
  2
*ACTIVE
 70
     0
 10
0.0
 20
0.0
 11
1.0
 21
1.0
 12
-1.1832338658506381
 22
-68.0940363672021221
 13
0.0
 23
0.0
 14
1.0
 24
1.0
 15
10.0
 25
10.0
 16
-0.0000000000001137
 26
0.0
 36
389.4189223711035197
 17
548.0836221523964014
 27
217.6319719127920109
 37
-13.3052182939729899
 40
222.2048016173945086
 41
1.7852028639618129
 42
50.0
 43
0.0
 44
0.0
 50
0.0
 51
0.0
 71
     0
 72
  1500
 73
     1
 74
     0
 75
     0
 76
     0
 77
     0
 78
     0
  0
ENDTAB
  0
TABLE
  2
LTYPE
 70
     6
  0
LTYPE
  2
CONTINUOUS
 70
     0
  3
Solid line
 72
    65
 73
     0
 40
0.0
  0
LTYPE
  2
PHANTOM2
 70
     0
  3
Phantom (.5x) ___ _ _ ___ _ _ ___ _ _ ___ _ _
 72
    65
 73
     6
 40
1.25
 49
0.625
 49
-0.125
 49
0.125
 49
-0.125
 49
0.125
 49
-0.125
  0
LTYPE
  2
VERDECKT
 70
     0
  3
Verdeckt __ __ __ __ __ __ __ __ __ __ __ __ __
 72
    65
 73
     2
 40
0.375
 49
0.25
 49
-0.125
  0
ENDTAB
  0
TABLE
  2
LAYER
 70
    14
  0
LAYER
  2
0
 70
     0
 62
     7
  6
CONTINUOUS
  0
LAYER
  2
VOLL
 70
     0
 62
     1
  6
CONTINUOUS
  0
LAYER
  2
STEMPEL
 70
     0
 62
     3
  6
CONTINUOUS
  0
LAYER
  2
DEFPOINTS
 70
     0
 62
     7
  6
CONTINUOUS
  0
LAYER
  2
ADSK_ASSOC_ENTITY_BACKUPS
 70
     1
 62
    -7
  6
CONTINUOUS
  0
ENDTAB
  0
TABLE
  2
STYLE
 70
     5
  0
STYLE
  2
STANDARD
 70
     0
 40
0.0
 41
0.8
 50
0.0
 71
     0
 42
3.5
  3
simplex.shx
  4

  0
STYLE
  2
GREEKS
 70
     0
 40
0.0
 41
0.8
 50
0.0
 71
     0
 42
2.5
  3
SIMPLEX.shx
  4

  0
ENDTAB
  0
TABLE
  2
VIEW
 70
     1
  0
ENDTAB
  0
TABLE
  2
UCS
 70
     0
  0
ENDTAB
  0
TABLE
  2
APPID
 70
    24
  0
APPID
  2
ACAD
 70
     0
  0
APPID
  2
ACAD_NAV_VCDISPLAY
 70
     0
  0
APPID
  2
ACAECLAYERSTANDARD
 70
     0
  0
APPID
  2
ACCMTRANSPARENCY
 70
     0
  0
APPID
  2
ACAD_PSEXT
 70
     0
  0
APPID
  2
ACAD_MLEADERVER
 70
     0
  0
APPID
  2
ACAD_OBJECT_CHANGE_GUID
 70
     0
  0
APPID
  2
ACAD_EXEMPT_FROM_CAD_STANDARDS
 70
     0
  0
APPID
  2
ACAD_STEPID
 70
     0
  0
APPID
  2
ACAD_DSTYLE_DIMRADIAL_EXTENSION
 70
     0
  0
APPID
  2
ACSYNERGY
 70
     0
  0
APPID
  2
SYNERGY_BODY_TBR_ID
 70
     0
  0
APPID
  2
ACAD_VIEW_EDGE_ID
 70
     0
  0
APPID
  2
ACSYNERGYSKETCH
 70
     0
  0
APPID
  2
ACAD_MODELDOC_XFORM
 70
     0
  0
APPID
  2
GRADIENTCOLOR1ACI
 70
     0
  0
APPID
  2
GRADIENTCOLOR2ACI
 70
     0
  0
APPID
  2
ACAD_DSTYLE_DIMJAG
 70
     0
  0
APPID
  2
ACAD_DSTYLE_DIMTALN
 70
     0
  0
APPID
  2
ACADANNOMONITORALERTICONDI
 70
     0
  0
APPID
  2
ACAD_DIMASSOC_CALC_DIMLFAC
 70
     0
  0
APPID
  2
ACAD_DIMASSOC_DIMLFAC
 70
     0
  0
APPID
  2
ACAD_DIMASSOC_OVERRIDDEN_D
 70
     0
  0
APPID
  2
AcDbAttr
 70
     0
  0
ENDTAB
  0
TABLE
  2
DIMSTYLE
 70
     3
  0
DIMSTYLE
  2
STANDARD
 70
     0
  3

  4

  5

  6

  7

 40
1.0
 41
0.18
 42
0.0625
 43
0.38
 44
0.18
 45
0.0
 46
0.0
 47
0.0
 48
0.0
140
0.18
141
0.09
142
0.0
143
25.3999999999999986
144
1.0
145
0.0
146
1.0
147
0.09
 71
     0
 72
     0
 73
     1
 74
     1
 75
     0
 76
     0
 77
     0
 78
     0
170
     0
171
     2
172
     0
173
     0
174
     0
175
     0
176
     0
177
     0
178
     0
  0
ENDTAB
  0
ENDSEC
  0
SECTION
  2
BLOCKS
  0
BLOCK
  8
0
  2
$MODEL_SPACE
 70
     0
 10
0.0
 20
0.0
 30
0.0
  3
$MODEL_SPACE
  1

  0
ENDBLK
  5
44
  8
0
  0
BLOCK
 67
     1
  8
0
  2
$PAPER_SPACE
 70
     0
 10
0.0
 20
0.0
 30
0.0
  3
$PAPER_SPACE
  1

  0
ENDBLK
  5
42
 67
     1
  8
0
  0
BLOCK
  8
0
  2
*S2
 70
     1
 10
0.0
 20
0.0
 30
0.0
  3
*S2
  1

  0
ENDBLK
  5
1A6F
  8
0
  0
BLOCK
  8
0
  2
A$C29C246FF
 70
     0
 10
0.0
 20
0.0
 30
0.0
  3
A$C29C246FF
  1

  0
CIRCLE
  5
249F
  8
0
 10
388.3115402491412738
 20
178.767149852756404
 30
0.0000000000000995
 40
5.5
  0
CIRCLE
  5
24A0
  8
0
 10
388.3115402491412738
 20
251.5132837706493945
 30
0.0000000000000995
 40
5.5
  0
CIRCLE
  5
24A1
  8
0
 10
451.3115402491412169
 20
215.1402168117029987
 30
0.0000000000001172
 40
5.5
  0
CIRCLE
  5
24A2
  8
0
 10
430.3115402491412169
 20
251.5132837706493945
 30
0.0000000000001137
 40
5.5
  0
CIRCLE
  5
24A3
  8
0
 10
367.3115402491412738
 20
215.1402168117029987
 30
0.0000000000000959
 40
5.5
  0
CIRCLE
  5
24A4
  8
0
 10
430.3115402491412169
 20
178.767149852756404
 30
0.0000000000001137
 40
5.5
  0
CIRCLE
  5
24A5
  8
0
 10
409.3115402491411032
 20
215.1402168117029987
 30
0.0000000000001066
 40
54.0
  0
CIRCLE
  5
24A6
  8
0
 10
409.3115402491411032
 20
215.1402168117029987
 30
0.0000000000001066
 40
25.8582341875774695
  0
CIRCLE
  5
24A7
  8
0
 10
409.3115402491411032
 20
215.1402168117029987
 30
0.0000000000001066
 40
24.1476030003187994
  0
CIRCLE
  5
24A8
  8
0
 10
409.3115402491411032
 20
215.1402168117029987
 30
0.0000000000001066
 40
19.5
  0
CIRCLE
  5
24A9
  8
0
 10
409.3115402491411032
 20
215.1402168117029987
 30
0.0000000000001066
 40
22.5
  0
CIRCLE
  5
24AA
  8
0
 10
409.3115402491411032
 20
215.1402168117029987
 30
0.0000000000001066
 40
22.7705481821080014
  0
CIRCLE
  5
24AB
  8
0
 10
409.3115402491411032
 20
215.1402168117029987
 30
0.0000000000001066
 40
25.5000000076649016
  0
CIRCLE
  5
24AC
  8
0
  6
VERDECKT
 62
     1
 10
409.3115402491411032
 20
215.1402168117029987
 30
0.0000000000001066
 40
24.6499999999999808
  0
CIRCLE
  5
24AD
  8
0
  6
VERDECKT
 62
     1
 10
409.3115402491411032
 20
215.1402168117029987
 30
0.0000000000001066
 40
24.6500000000000306
  0
CIRCLE
  5
24AE
  8
0
  6
VERDECKT
 62
     1
 10
409.3115402491411032
 20
215.1402168117029987
 30
0.0000000000001066
 40
21.0000000000000604
  0
CIRCLE
  5
24AF
  8
0
  6
VERDECKT
 62
     1
 10
409.3115402491411032
 20
215.1402168117029987
 30
0.0000000000001066
 40
24.0000000069681008
  0
ENDBLK
  5
24B1
  8
0
  0
BLOCK
  8
0
  2
A$CDB91B885
 70
     0
 10
0.0
 20
0.0
 30
0.0
  3
A$CDB91B885
  1

  0
LINE
  5
24B5
  8
0
 10
463.3115402491411032
 20
-43.4999999999998579
 30
0.0000000000000097
 11
355.3115402491412169
 21
-43.4999999999998579
 31
0.0000000000000097
210
0.0
220
1.0
230
-0.0000000000000002
  0
LINE
  5
24B6
  8
0
 10
463.3115402491411032
 20
-31.4999999999998685
 30
0.000000000000007
 11
355.3115402491412169
 21
-31.4999999999998685
 31
0.000000000000007
210
0.0
220
1.0
230
-0.0000000000000002
  0
LINE
  5
24B7
  8
0
 10
355.3115402491412169
 20
-43.4999999999998579
 30
0.0000000000000097
 11
355.3115402491412169
 21
-31.4999999999998685
 31
0.000000000000007
210
0.0
220
1.0
230
-0.0000000000000002
  0
LINE
  5
24B8
  8
0
 10
463.3115402491411032
 20
-43.4999999999998579
 30
0.0000000000000097
 11
463.3115402491411032
 21
-31.4999999999998685
 31
0.000000000000007
210
0.0
220
1.0
230
-0.0000000000000002
  0
LINE
  5
24B9
  8
0
 10
383.4533060615636941
 20
-30.6110848477107389
 30
0.0000000000000068
 11
435.1697744367186829
 21
-30.6110848477107389
 31
0.0000000000000068
210
0.0
220
1.0
230
-0.0000000000000002
  0
LINE
  5
24BA
  8
0
 10
385.1639372488223785
 20
43.4999999999998295
 30
-0.0000000000000097
 11
433.4591432494598848
 21
43.4999999999998295
 31
-0.0000000000000097
210
0.0
220
1.0
230
-0.0000000000000002
  0
ARC
  5
24BB
  8
0
 10
-382.3115402491413874
 20
-22.0382986919117982
 30
0.0
 40
5.9999999999997717
210
0.0
220
-0.0000000000000002
230
-1.0
 50
179.9999999999994884
 51
216.342448522834502
  0
ARC
  5
24BC
  8
0
 10
-436.3115402491408759
 20
-22.0382986919117982
 30
0.0
 40
5.9999999999997762
210
0.0
220
-0.0000000000000002
230
-1.0
 50
323.6575514771653843
 51
0.0000000000003817
  0
LINE
  5
24BD
  8
0
 10
431.4786034988316032
 20
-25.5939593010680895
 30
0.0000000000000057
 11
435.1697744367186829
 21
-30.6110848477107496
 31
0.0000000000000068
210
0.0
220
1.0
230
-0.0000000000000002
  0
LINE
  5
24BE
  8
0
 10
387.1444769994508874
 20
-25.5939593010680895
 30
0.0000000000000057
 11
383.4533060615636941
 21
-30.6110848477107496
 31
0.0000000000000068
210
0.0
220
1.0
230
-0.0000000000000002
  0
LINE
  5
24BF
  8
0
 10
384.6615402491411828
 20
-31.4999999999998295
 30
0.000000000000007
 11
383.4533060615636941
 21
-30.6110848477107389
 31
0.0000000000000068
210
0.0
220
1.0
230
-0.0000000000000002
  0
LINE
  5
24C0
  8
0
 10
433.9615402491411942
 20
-31.4999999999998295
 30
0.000000000000007
 11
435.1697744367186829
 21
-30.6110848477107389
 31
0.0000000000000068
210
0.0
220
1.0
230
-0.0000000000000002
  0
ARC
  5
24C1
  8
0
 10
-400.3091075034918163
 20
36.9583225758368528
 30
0.0
 40
16.4975672620155613
210
0.0
220
-0.0000000000000002
230
-1.0
 50
359.9982534496197104
 51
23.3610410950203509
  0
ARC
  5
24C2
  8
0
 10
-418.3139729947878891
 20
36.958322575836327
 30
0.0
 40
16.4975672620181193
210
0.0
220
-0.0000000000000002
230
-1.0
 50
156.6389589049815072
 51
180.0017465503784138
  0
LINE
  5
24C3
  8
0
 10
383.8116954328759221
 20
31.8670000000003917
 30
-0.0000000000000071
 11
383.8115402491411032
 21
36.9578196795918572
 31
-0.0000000000000082
210
0.0
220
1.0
230
-0.0000000000000002
  0
LINE
  5
24C4
  8
0
 10
434.8113850654065118
 20
31.8670000000003917
 30
-0.0000000000000071
 11
434.8115402491411032
 21
36.9578196795918572
 31
-0.0000000000000082
210
0.0
220
1.0
230
-0.0000000000000002
  0
ARC
  5
24C5
  8
0
 10
-403.8115402491304735
 20
31.8669999999986189
 30
0.0
 40
19.9998448162547184
210
0.0
220
-0.0000000000000002
230
-1.0
 50
341.8060294016120793
 51
0.0000000000050634
  0
ARC
  5
24C6
  8
0
 10
-414.8115402491516761
 20
31.8669999999986295
 30
0.0
 40
19.9998448162547788
210
0.0
220
-0.0000000000000002
230
-1.0
 50
179.9999999999949125
 51
198.1939705983878071
  0
ARC
  5
24C7
  8
0
 10
-375.3115402491442865
 20
22.5000000000008313
 30
0.0
 40
9.9999999999968736
210
0.0
220
-0.0000000000000002
230
-1.0
 50
161.8060294016098055
 51
180.0000000000025864
  0
ARC
  5
24C8
  8
0
 10
-443.31154024913792
 20
22.5000000000008313
 30
0.0
 40
9.9999999999967581
210
0.0
220
-0.0000000000000002
230
-1.0
 50
359.9999999999973284
 51
18.1939705983903117
  0
LINE
  5
24C9
  8
0
 10
433.3115402491412169
 20
22.5000000000003588
 30
-0.000000000000005
 11
433.3115402491412169
 21
18.3218253804967794
 31
-0.0000000000000041
210
0.0
220
1.0
230
-0.0000000000000002
  0
LINE
  5
24CA
  8
0
 10
385.3115402491411032
 20
22.5000000000003588
 30
-0.000000000000005
 11
385.3115402491411032
 21
18.3218253804967794
 31
-0.0000000000000041
210
0.0
220
1.0
230
-0.0000000000000002
  0
ARC
  5
24CB
  8
0
 10
-395.3115402491416717
 20
18.3218253804971205
 30
0.0
 40
10.0000000000006306
210
0.0
220
-0.0000000000000002
230
-1.0
 50
324.3409123038617849
 51
359.9999999999980105
  0
ARC
  5
24CC
  8
0
 10
-423.3115402491405916
 20
18.3218253804971205
 30
0.0
 40
10.0000000000006199
210
0.0
220
-0.0000000000000002
230
-1.0
 50
180.0000000000019043
 51
215.6590876961381866
  0
ARC
  5
24CD
  8
0
 10
-382.3115402491413874
 20
8.9944463274081965
 30
0.0
 40
5.9999999999996598
210
0.0
220
-0.0000000000000002
230
-1.0
 50
144.3409123038611028
 51
180.0000000000015064
  0
ARC
  5
24CE
  8
0
 10
-436.311540249140819
 20
8.9944463274081912
 30
0.0
 40
5.9999999999996581
210
0.0
220
-0.0000000000000002
230
-1.0
 50
359.9999999999984084
 51
35.6590876961389114
  0
LINE
  5
24CF
  8
0
 10
430.3115402491412169
 20
8.9944463274080295
 30
-0.000000000000002
 11
430.3115402491412169
 21
-22.0382986919117485
 31
0.0000000000000049
210
0.0
220
1.0
230
-0.0000000000000002
  0
LINE
  5
24D0
  8
0
 10
388.3115402491411032
 20
8.9944463274080295
 30
-0.000000000000002
 11
388.3115402491411032
 21
-22.0382986919117485
 31
0.0000000000000049
210
0.0
220
1.0
230
-0.0000000000000002
  0
LINE
  5
24D1
  8
0
  6
VERDECKT
 62
     1
 10
382.8115402491412738
 20
-43.4999999999998579
 30
0.0000000000000097
 11
382.8115402491412738
 21
-31.4999999999998685
 31
0.000000000000007
210
0.0
220
1.0
230
-0.0000000000000002
  0
LINE
  5
24D2
  8
0
  6
VERDECKT
 62
     1
 10
393.8115402491412738
 20
-43.4999999999998579
 30
0.0000000000000097
 11
393.8115402491412738
 21
-31.4999999999998685
 31
0.000000000000007
210
0.0
220
1.0
230
-0.0000000000000002
  0
LINE
  5
24D3
  8
0
  6
VERDECKT
 62
     1
 10
456.8115402491412169
 20
-31.4999999999998685
 30
0.000000000000007
 11
456.8115402491412169
 21
-43.4999999999998579
 31
0.0000000000000097
210
0.0
220
1.0
230
-0.0000000000000002
  0
LINE
  5
24D4
  8
0
  6
VERDECKT
 62
     1
 10
445.8115402491412169
 20
-31.4999999999998685
 30
0.000000000000007
 11
445.8115402491412169
 21
-43.4999999999998579
 31
0.0000000000000097
210
0.0
220
1.0
230
-0.0000000000000002
  0
LINE
  5
24D5
  8
0
  6
VERDECKT
 62
     1
 10
361.8115402491412738
 20
-43.4999999999998579
 30
0.0000000000000097
 11
361.8115402491412738
 21
-31.4999999999998685
 31
0.000000000000007
210
0.0
220
1.0
230
-0.0000000000000002
  0
LINE
  5
24D6
  8
0
  6
VERDECKT
 62
     1
 10
372.8115402491412738
 20
-43.4999999999998579
 30
0.0000000000000097
 11
372.8115402491412738
 21
-31.4999999999998685
 31
0.000000000000007
210
0.0
220
1.0
230
-0.0000000000000002
  0
LINE
  5
24D7
  8
0
  6
VERDECKT
 62
     1
 10
435.8115402491412169
 20
-31.4999999999998685
 30
0.000000000000007
 11
435.8115402491412169
 21
-43.4999999999998579
 31
0.0000000000000097
210
0.0
220
1.0
230
-0.0000000000000002
  0
LINE
  5
24D8
  8
0
  6
VERDECKT
 62
     1
 10
424.8115402491412169
 20
-31.4999999999998685
 30
0.000000000000007
 11
424.8115402491412169
 21
-43.4999999999998579
 31
0.0000000000000097
210
0.0
220
1.0
230
-0.0000000000000002
  0
LINE
  5
24D9
  8
0
  6
VERDECKT
 62
     1
 10
384.6615402491411828
 20
-43.4999999999998579
 30
0.0000000000000097
 11
384.6615402491411828
 21
-31.4999999999998685
 31
0.000000000000007
210
0.0
220
1.0
230
-0.0000000000000002
  0
LINE
  5
24DA
  8
0
  6
VERDECKT
 62
     1
 10
433.9615402491410805
 20
-43.4999999999998579
 30
0.0000000000000097
 11
433.9615402491410805
 21
-31.4999999999998685
 31
0.000000000000007
210
0.0
220
1.0
230
-0.0000000000000002
  0
LINE
  5
24DB
  8
0
  6
VERDECKT
 62
     1
 10
386.5409920670331871
 20
42.9052563345082092
 30
-0.0000000000000095
 11
432.0820884312490762
 21
42.9052563345082092
 31
-0.0000000000000095
210
0.0
220
1.0
230
-0.0000000000000002
  0
LINE
  5
24DC
  8
0
  6
VERDECKT
 62
     1
 10
430.2703693112542283
 20
-26.4828744533571694
 30
0.0000000000000059
 11
433.9615402491411942
 21
-31.4999999999998295
 31
0.000000000000007
210
0.0
220
1.0
230
-0.0000000000000002
  0
LINE
  5
24DD
  8
0
  6
VERDECKT
 62
     1
 10
388.3527111870282056
 20
-26.4828744533571694
 30
0.0000000000000059
 11
384.6615402491411828
 21
-31.4999999999998295
 31
0.000000000000007
210
0.0
220
1.0
230
-0.0000000000000002
  0
ARC
  5
24DE
  8
0
  6
VERDECKT
 62
     1
 10
-382.3115402491416148
 20
-22.0382986919117805
 30
0.0
 40
7.4999999999996021
210
0.0
220
-0.0000000000000002
230
-1.0
 50
179.999999999999801
 51
216.3424485228352978
  0
ARC
  5
24DF
  8
0
  6
VERDECKT
 62
     1
 10
-436.311540249140819
 20
-22.0382986919117911
 30
0.0
 40
7.4999999999995444
210
0.0
220
-0.0000000000000002
230
-1.0
 50
323.6575514771644748
 51
0.0000000000002913
  0
LINE
  5
24E0
  8
0
  6
VERDECKT
 62
     1
 10
428.8115402491412169
 20
8.9944463274080295
 30
-0.000000000000002
 11
428.8115402491412169
 21
-22.0382986919117485
 31
0.0000000000000049
210
0.0
220
1.0
230
-0.0000000000000002
  0
LINE
  5
24E1
  8
0
  6
VERDECKT
 62
     1
 10
389.8115402491411032
 20
8.9944463274080295
 30
-0.000000000000002
 11
389.8115402491411032
 21
-22.0382986919117485
 31
0.0000000000000049
210
0.0
220
1.0
230
-0.0000000000000002
  0
ARC
  5
24E2
  8
0
  6
VERDECKT
 62
     1
 10
-382.3115402491416717
 20
8.9944463274081716
 30
0.0
 40
7.4999999999994911
210
0.0
220
-0.0000000000000002
230
-1.0
 50
144.3409123038599091
 51
180.0000000000009948
  0
ARC
  5
24E3
  8
0
  6
VERDECKT
 62
     1
 10
-436.3115402491405916
 20
8.9944463274081699
 30
0.0
 40
7.4999999999994884
210
0.0
220
-0.0000000000000002
230
-1.0
 50
359.99999999999892
 51
35.6590876961400625
  0
ARC
  5
24E4
  8
0
  6
VERDECKT
 62
     1
 10
-395.3115402491401937
 20
18.3218253804964384
 30
0.0
 40
8.4999999999990408
210
0.0
220
-0.0000000000000002
230
-1.0
 50
324.3409123038596817
 51
0.0000000000022836
  0
ARC
  5
24E5
  8
0
  6
VERDECKT
 62
     1
 10
-423.3115402491421264
 20
18.3218253804964384
 30
0.0
 40
8.4999999999990337
210
0.0
220
-0.0000000000000002
230
-1.0
 50
179.9999999999976978
 51
215.6590876961402898
  0
LINE
  5
24E6
  8
0
  6
VERDECKT
 62
     1
 10
431.8115402491411032
 20
22.5000000000003588
 30
-0.000000000000005
 11
431.8115402491411032
 21
18.3218253804967794
 31
-0.0000000000000041
210
0.0
220
1.0
230
-0.0000000000000002
  0
LINE
  5
24E7
  8
0
  6
VERDECKT
 62
     1
 10
386.8115402491412169
 20
22.5000000000003588
 30
-0.000000000000005
 11
386.8115402491412169
 21
18.3218253804967794
 31
-0.0000000000000041
210
0.0
220
1.0
230
-0.0000000000000002
  0
ARC
  5
24E8
  8
0
  6
VERDECKT
 62
     1
 10
-375.3115402491383179
 20
22.4999999999997584
 30
0.0
 40
11.5000000000028404
210
0.0
220
-0.0000000000000002
230
-1.0
 50
161.8060294016150067
 51
179.9999999999969873
  0
ARC
  5
24E9
  8
0
  6
VERDECKT
 62
     1
 10
-443.3115402491440022
 20
22.4999999999997584
 30
0.0
 40
11.5000000000029008
210
0.0
220
-0.0000000000000002
230
-1.0
 50
0.0000000000029897
 51
18.19397059838494
  0
ARC
  5
24EA
  8
0
  6
VERDECKT
 62
     1
 10
-403.811540249133202
 20
31.8669999999989386
 30
0.0
 40
18.4998448162573403
210
0.0
220
-0.0000000000000002
230
-1.0
 50
341.806029401613273
 51
0.0000000000043892
  0
ARC
  5
24EB
  8
0
  6
VERDECKT
 62
     1
 10
-414.8115402491491182
 20
31.8669999999989493
 30
0.0
 40
18.4998448162573403
210
0.0
220
-0.0000000000000002
230
-1.0
 50
179.9999999999955946
 51
198.1939705983866133
  0
LINE
  5
24EC
  8
0
  6
VERDECKT
 62
     1
 10
385.3116954328759221
 20
31.8670000000003597
 30
-0.0000000000000071
 11
385.3115402491411032
 21
36.9578196795919212
 31
-0.0000000000000082
210
0.0
220
1.0
230
-0.0000000000000002
  0
LINE
  5
24ED
  8
0
  6
VERDECKT
 62
     1
 10
433.3113850654063981
 20
31.8670000000003597
 30
-0.0000000000000071
 11
433.3115402491412169
 21
36.9578196795919212
 31
-0.0000000000000082
210
0.0
220
1.0
230
-0.0000000000000002
  0
ARC
  5
24EE
  8
0
  6
VERDECKT
 62
     1
 10
-400.309328662188193
 20
36.9582768579962675
 30
0.0
 40
14.9977884200151905
210
0.0
220
-0.0000000000000002
230
-1.0
 50
359.9982534496203925
 51
23.3610410950190897
  0
ARC
  5
24EF
  8
0
  6
VERDECKT
 62
     1
 10
-418.3137518360950935
 20
36.9582768579963883
 30
0.0
 40
14.9977884200141105
210
0.0
220
-0.0000000000000002
230
-1.0
 50
156.6389589049794893
 51
180.0017465503800054
  0
LINE
  5
24F0
  8
0
  6
VERDECKT
 62
     1
 10
386.5409920670330735
 20
42.9052563345082092
 30
-0.0000000000000095
 11
385.1639372488223785
 21
43.4999999999998224
 31
-0.0000000000000097
210
0.0
220
1.0
230
-0.0000000000000002
  0
LINE
  5
24F1
  8
0
  6
VERDECKT
 62
     1
 10
432.0820884312491899
 20
42.9052563345082092
 30
-0.0000000000000095
 11
433.4591432494598848
 21
43.4999999999998224
 31
-0.0000000000000097
210
0.0
220
1.0
230
-0.0000000000000002
  0
ENDBLK
  5
24F3
  8
0
  0
ENDSEC
  0
SECTION
  2
ENTITIES
  0
TEXT
  5
1AB
  8
VOLL
 10
78.076754716981128
 20
31.025947764705851
 30
0.0
 40
1.8
  1

  7
GREEKS
  0
TEXT
  5
47C
  8
VOLL
 10
304.1178073501386052
 20
38.5180663705133384
 30
0.0
 40
1.8
  1

  7
GREEKS
  0
TEXT
  5
81E
  8
VOLL
 10
304.1635696025373932
 20
33.0738823621185318
 30
0.0
 40
1.8
  1

  7
GREEKS
  0
TEXT
  5
BE6
  8
VOLL
 10
518.1674192428324659
 20
32.8509959482288423
 30
0.0
 40
1.8
  1

  7
GREEKS
  0
INSERT
  5
1A71
  8
ADSK_ASSOC_ENTITY_BACKUPS
  2
*S2
 10
0.0
 20
0.0
 30
0.0
  0
INSERT
  5
24B2
  8
STEMPEL
  2
A$C29C246FF
 10
137.5888480374044889
 20
-121.9157892880029976
 30
-26.6104365879461788
  0
INSERT
  5
24F4
  8
STEMPEL
  2
A$CDB91B885
 10
137.5888480374044889
 20
216.351443567480004
 30
-26.6104365879460794
  0
VIEWPORT
  5
176F
 67
     1
  8
0
 10
96.246081355850464
 20
124.3238369738080991
 30
0.0
 40
533.9969448798290159
 41
299.1239570917758783
 68
     1
 69
     1
1001
ACAD
1000
MVIEW
1002
{
1070
    16
1010
0.0
1020
0.0
1030
0.0
1010
0.0
1020
0.0
1030
1.0
1040
0.0
1040
299.1239570917758783
1040
96.246081355850464
1040
124.3238369738080991
1040
50.0
1040
0.0
1040
0.0
1070
     0
1070
  1500
1070
     1
1070
     1
1070
     0
1070
     0
1070
     0
1070
     0
1040
0.0
1040
0.0
1040
0.0
1040
10.0
1040
10.0
1040
10.0
1040
10.0
1070
     0
1002
{
1002
}
1002
}
  0
ENDSEC
  0
EOF
