  0
SECTION
  2
HEADER
  9
$ACADVER
  1
AC1009
  9
$INSBASE
 10
0.0
 20
0.0
 30
0.0
  9
$EXTMIN
 10
-90.459617611064445
 20
-230.0251445658797991
 30
-0.0000000000000778
  9
$EXTMAX
 10
89.577522114621388
 20
288.055299413920693
 30
0.0000000000000138
  9
$LIMMIN
 10
0.0
 20
0.0
  9
$LIMMAX
 10
419.9999999999998863
 20
594.0000000000002274
  9
$ORTHOMODE
 70
     1
  9
$REGENMODE
 70
     1
  9
$FILLMODE
 70
     1
  9
$QTEXTMODE
 70
     0
  9
$MIRRTEXT
 70
     1
  9
$DRAGMODE
 70
     2
  9
$LTSCALE
 40
20.0
  9
$OSMODE
 70
  2559
  9
$ATTMODE
 70
     1
  9
$TEXTSIZE
 40
3.5
  9
$TRACEWID
 40
0.5
  9
$TEXTSTYLE
  7
STANDARD
  9
$CLAYER
  8
STEMPEL
  9
$CELTYPE
  6
BYLAYER
  9
$CECOLOR
 62
   256
  9
$DIMSCALE
 40
2.0
  9
$DIMASZ
 40
3.5
  9
$DIMEXO
 40
1.0
  9
$DIMDLI
 40
7.0
  9
$DIMRND
 40
0.0
  9
$DIMDLE
 40
0.0
  9
$DIMEXE
 40
1.0
  9
$DIMTP
 40
0.0
  9
$DIMTM
 40
0.0
  9
$DIMTXT
 40
3.5
  9
$DIMCEN
 40
1.5
  9
$DIMTSZ
 40
0.0
  9
$DIMTOL
 70
     0
  9
$DIMLIM
 70
     0
  9
$DIMTIH
 70
     0
  9
$DIMTOH
 70
     0
  9
$DIMSE1
 70
     0
  9
$DIMSE2
 70
     0
  9
$DIMTAD
 70
     1
  9
$DIMZIN
 70
     8
  9
$DIMBLK
  1

  9
$DIMASO
 70
     1
  9
$DIMSHO
 70
     0
  9
$DIMPOST
  1

  9
$DIMAPOST
  1

  9
$DIMALT
 70
     0
  9
$DIMALTD
 70
     2
  9
$DIMALTF
 40
25.3999999999999986
  9
$DIMLFAC
 40
1.0
  9
$DIMTOFL
 70
     1
  9
$DIMTVP
 40
0.0
  9
$DIMTIX
 70
     0
  9
$DIMSOXD
 70
     0
  9
$DIMSAH
 70
     0
  9
$DIMBLK1
  1

  9
$DIMBLK2
  1

  9
$DIMSTYLE
  2
STANDARD
  9
$DIMCLRD
 70
     0
  9
$DIMCLRE
 70
     0
  9
$DIMCLRT
 70
     1
  9
$DIMTFAC
 40
0.5
  9
$DIMGAP
 40
1.5
  9
$LUNITS
 70
     2
  9
$LUPREC
 70
     2
  9
$SKETCHINC
 40
1.0
  9
$FILLETRAD
 40
0.0
  9
$AUNITS
 70
     0
  9
$AUPREC
 70
     0
  9
$MENU
  1
ACAD
  9
$ELEVATION
 40
0.0
  9
$PELEVATION
 40
0.0
  9
$THICKNESS
 40
0.0
  9
$LIMCHECK
 70
     0
  9
$BLIPMODE
 70
     0
  9
$CHAMFERA
 40
0.0
  9
$CHAMFERB
 40
0.0
  9
$SKPOLY
 70
     0
  9
$TDCREATE
 40
2455397.8646990740671754
  9
$TDUPDATE
 40
2458389.6320601850748062
  9
$TDINDWG
 40
0.3284942014
  9
$TDUSRTIMER
 40
0.3284942014
  9
$USRTIMER
 70
     1
  9
$ANGBASE
 50
0.0
  9
$ANGDIR
 70
     0
  9
$PDMODE
 70
     0
  9
$PDSIZE
 40
0.0
  9
$PLINEWID
 40
0.0
  9
$COORDS
 70
     1
  9
$SPLFRAME
 70
     0
  9
$SPLINETYPE
 70
     6
  9
$SPLINESEGS
 70
     8
  9
$ATTDIA
 70
     1
  9
$ATTREQ
 70
     1
  9
$HANDLING
 70
     1
  9
$HANDSEED
  5
1A84
  9
$SURFTAB1
 70
     6
  9
$SURFTAB2
 70
     6
  9
$SURFTYPE
 70
     6
  9
$SURFU
 70
     6
  9
$SURFV
 70
     6
  9
$UCSNAME
  2

  9
$UCSORG
 10
0.0
 20
0.0
 30
0.0
  9
$UCSXDIR
 10
1.0
 20
0.0
 30
0.0
  9
$UCSYDIR
 10
0.0
 20
1.0
 30
0.0
  9
$PUCSNAME
  2

  9
$PUCSORG
 10
0.0
 20
0.0
 30
0.0
  9
$PUCSXDIR
 10
1.0
 20
0.0
 30
0.0
  9
$PUCSYDIR
 10
0.0
 20
1.0
 30
0.0
  9
$USERI1
 70
     0
  9
$USERI2
 70
     0
  9
$USERI3
 70
     0
  9
$USERI4
 70
     0
  9
$USERI5
 70
     0
  9
$USERR1
 40
0.0
  9
$USERR2
 40
0.0
  9
$USERR3
 40
0.0
  9
$USERR4
 40
0.0
  9
$USERR5
 40
0.0
  9
$WORLDVIEW
 70
     1
  9
$SHADEDGE
 70
     3
  9
$SHADEDIF
 70
    70
  9
$TILEMODE
 70
     1
  9
$MAXACTVP
 70
    16
  9
$PLIMCHECK
 70
     0
  9
$PEXTMIN
 10
-0.142074801877456
 20
-0.1586293732804371
 30
-0.0000000000000053
  9
$PEXTMAX
 10
9.4360957635985852
 20
12.9690858266575706
 30
0.0000000000000099
  9
$PLIMMIN
 10
-0.2500002402958907
 20
-0.2499999962453767
  9
$PLIMMAX
 10
10.7499995194082203
 20
8.2499997634587334
  9
$UNITMODE
 70
     0
  9
$VISRETAIN
 70
     0
  9
$PLINEGEN
 70
     0
  9
$PSLTSCALE
 70
     0
  0
ENDSEC
  0
SECTION
  2
TABLES
  0
TABLE
  2
VPORT
 70
     1
  0
VPORT
  2
*ACTIVE
 70
     0
 10
0.0
 20
0.0
 11
1.0
 21
1.0
 12
0.0029906428918025
 22
0.0119379281708234
 13
0.0
 23
0.0
 14
1.0
 24
1.0
 15
10.0
 25
10.0
 16
-0.0000000000003131
 26
0.0
 36
1410.2578908789180332
 17
-0.4440383911132813
 27
29.0031394958496094
 37
-0.000000000000032
 40
520.7214657842854422
 41
1.868197278911564
 42
50.0
 43
0.0
 44
0.0
 50
0.0
 51
0.0
 71
     0
 72
  1500
 73
     1
 74
     0
 75
     0
 76
     0
 77
     0
 78
     0
  0
ENDTAB
  0
TABLE
  2
LTYPE
 70
     7
  0
LTYPE
  2
CONTINUOUS
 70
     0
  3
Solid line
 72
    65
 73
     0
 40
0.0
  0
LTYPE
  2
AUSGEZOGEN
 70
     0
  3
Ausgezogene Linie
 72
    65
 73
     0
 40
0.0
  0
LTYPE
  2
PHANTOM2
 70
     0
  3
Phantom (.5x) ___ _ _ ___ _ _ ___ _ _ ___ _ _
 72
    65
 73
     6
 40
1.25
 49
0.625
 49
-0.125
 49
0.125
 49
-0.125
 49
0.125
 49
-0.125
  0
LTYPE
  2
VERDECKT
 70
     0
  3
_ _ _ _ _ _ _ _ _ _ _ _ _ _ _ _ _ _ _ _ _ _ _
 72
    65
 73
     2
 40
0.375
 49
0.25
 49
-0.125
  0
ENDTAB
  0
TABLE
  2
LAYER
 70
    11
  0
LAYER
  2
0
 70
     0
 62
     7
  6
CONTINUOUS
  0
LAYER
  2
VOLL
 70
     0
 62
     1
  6
CONTINUOUS
  0
LAYER
  2
BEM
 70
     0
 62
     7
  6
CONTINUOUS
  0
LAYER
  2
STEMPEL
 70
     0
 62
     3
  6
CONTINUOUS
  0
LAYER
  2
DEFPOINTS
 70
     0
 62
     7
  6
AUSGEZOGEN
  0
ENDTAB
  0
TABLE
  2
STYLE
 70
     2
  0
STYLE
  2
STANDARD
 70
     0
 40
0.0
 41
0.8
 50
0.0
 71
     0
 42
3.5
  3
simplex.shx
  4

  0
STYLE
  2
GREEKS
 70
     0
 40
0.0
 41
0.8
 50
0.0
 71
     0
 42
2.5
  3
SIMPLEX.shx
  4

  0
ENDTAB
  0
TABLE
  2
VIEW
 70
     1
  0
ENDTAB
  0
TABLE
  2
UCS
 70
     0
  0
ENDTAB
  0
TABLE
  2
APPID
 70
     9
  0
APPID
  2
ACAD
 70
     0
  0
APPID
  2
ACAD_EXEMPT_FROM_CAD_STANDARDS
 70
     0
  0
APPID
  2
ACAD_NAV_VCDISPLAY
 70
     0
  0
APPID
  2
ACAD_MLEADERVER
 70
     0
  0
APPID
  2
ACAD_PSEXT
 70
     0
  0
APPID
  2
ACAECLAYERSTANDARD
 70
     0
  0
APPID
  2
ACCMTRANSPARENCY
 70
     0
  0
APPID
  2
ACAD_OBJECT_CHANGE_GUID
 70
     0
  0
APPID
  2
ACADANNOMONITORALERTICONDI
 70
     0
  0
ENDTAB
  0
TABLE
  2
DIMSTYLE
 70
     2
  0
DIMSTYLE
  2
STANDARD
 70
     0
  3

  4

  5

  6

  7

 40
1.0
 41
0.18
 42
0.0625
 43
0.38
 44
0.18
 45
0.0
 46
0.0
 47
0.0
 48
0.0
140
0.18
141
0.09
142
0.0
143
25.3999999999999986
144
1.0
145
0.0
146
1.0
147
0.09
 71
     0
 72
     0
 73
     1
 74
     1
 75
     0
 76
     0
 77
     0
 78
     0
170
     0
171
     2
172
     0
173
     0
174
     0
175
     0
176
     0
177
     0
178
     0
  0
ENDTAB
  0
ENDSEC
  0
SECTION
  2
BLOCKS
  0
BLOCK
  8
0
  2
$MODEL_SPACE
 70
     0
 10
0.0
 20
0.0
 30
0.0
  3
$MODEL_SPACE
  1

  0
ENDBLK
  5
36
  8
0
  0
BLOCK
 67
     1
  8
0
  2
$PAPER_SPACE
 70
     0
 10
0.0
 20
0.0
 30
0.0
  3
$PAPER_SPACE
  1

  0
ENDBLK
  5
34
 67
     1
  8
0
  0
BLOCK
  8
0
  2
A$C5B9B605B
 70
     0
 10
0.0
 20
0.0
 30
0.0
  3
A$C5B9B605B
  1

  0
CIRCLE
  5
19AF
  8
0
  6
CONTINUOUS
 62
     3
 10
-0.4440412836081045
 20
0.0000000000000005
 30
0.0
 40
45.4999999999999929
  0
CIRCLE
  5
19B0
  8
0
  6
CONTINUOUS
 62
     3
 10
-0.4440412836081045
 20
0.0000000000000005
 30
0.0
 40
90.0
  0
CIRCLE
  5
19B1
  8
0
  6
CONTINUOUS
 62
     3
 10
0.0
 20
0.0000000000000108
 30
0.0
 40
24.562556682370321
  0
CIRCLE
  5
19B2
  8
0
  6
CONTINUOUS
 62
     3
 10
0.0000000000000544
 20
0.0000000000000258
 30
0.0
 40
25.0
  0
CIRCLE
  5
19B3
  8
0
  6
CONTINUOUS
 62
     3
 10
0.0000000000000639
 20
0.0000000000000284
 30
0.0
 40
27.9519779707474108
  0
CIRCLE
  5
19B4
  8
0
  6
CONTINUOUS
 62
     3
 10
0.0000000000000639
 20
0.0000000000000284
 30
0.0
 40
29.6070448491912011
  0
CIRCLE
  5
19B5
  8
0
  6
CONTINUOUS
 62
     3
 10
0.0000000000000639
 20
0.0000000000000271
 30
0.0
 40
42.8999999999998565
  0
CIRCLE
  5
19B6
  8
0
  6
CONTINUOUS
 62
     3
 10
0.0000000000000639
 20
0.0000000000000271
 30
0.0
 40
44.4999999999998792
  0
CIRCLE
  5
19B7
  8
0
  6
CONTINUOUS
 62
     3
 10
0.0000000000000639
 20
0.0000000000000296
 30
0.0
 40
29.6063531499387409
  0
CIRCLE
  5
19B8
  8
0
  6
CONTINUOUS
 62
     3
 10
0.0000000000000639
 20
0.0000000000000296
 30
0.0
 40
42.8999999999998565
  0
CIRCLE
  5
19B9
  8
0
  6
VERDECKT
 62
     1
 10
0.0000000000000544
 20
0.0000000000000258
 30
0.0
 40
26.5
  0
CIRCLE
  5
19BA
  8
0
  6
VERDECKT
 62
     1
 10
0.0
 20
0.0000000000000108
 30
0.0
 40
26.0682864386852806
  0
CIRCLE
  5
19BB
  8
0
  6
VERDECKT
 62
     1
 10
0.0000000000000585
 20
0.0000000000000269
 30
0.0
 40
28.0
  0
CIRCLE
  5
19BC
  8
0
  6
VERDECKT
 62
     1
 10
0.0000000000000621
 20
0.0000000000000279
 30
0.0
 40
29.9999999999998899
  0
CIRCLE
  5
19BD
  8
0
  6
VERDECKT
 62
     1
 10
0.0000000000000621
 20
0.0000000000000279
 30
0.0
 40
31.4999999999998899
  0
CIRCLE
  5
19BE
  8
0
  6
VERDECKT
 62
     1
 10
0.0000000000000585
 20
0.0000000000000269
 30
0.0
 40
29.5
  0
CIRCLE
  5
19BF
  8
0
  6
VERDECKT
 62
     1
 10
0.0000000000000611
 20
0.0000000000000276
 30
0.0
 40
30.0000320571289514
  0
CIRCLE
  5
19C0
  8
0
  6
VERDECKT
 62
     1
 10
0.0000000000000611
 20
0.0000000000000276
 30
0.0
 40
31.500032057129129
  0
CIRCLE
  5
19C1
  8
0
  6
VERDECKT
 62
     1
 10
0.0000000000000648
 20
0.0000000000000157
 30
0.0
 40
30.5
  0
CIRCLE
  5
19C2
  8
0
  6
VERDECKT
 62
     1
 10
0.0000000000000635
 20
0.0000000000000154
 30
0.0
 40
33.9641016151379631
  0
CIRCLE
  5
19C3
  8
0
  6
VERDECKT
 62
     1
 10
0.0000000000000635
 20
0.0000000000000154
 30
0.0
 40
38.4999999999997726
  0
CIRCLE
  5
19C4
  8
0
  6
VERDECKT
 62
     1
 10
0.0000000000000671
 20
0.0000000000000164
 30
0.0
 40
37.5000000000000568
  0
CIRCLE
  5
19C5
  8
0
  6
VERDECKT
 62
     1
 10
0.0000000000000608
 20
0.0000000000000287
 30
0.0
 40
31.4730126107650712
  0
CIRCLE
  5
19C6
  8
0
  6
VERDECKT
 62
     1
 10
0.0000000000000621
 20
0.0000000000000291
 30
0.0
 40
31.5
  0
CIRCLE
  5
19C7
  8
0
  6
VERDECKT
 62
     1
 10
0.0000000000000611
 20
0.0000000000000288
 30
0.0
 40
31.5000320571281591
  0
ENDBLK
  5
19C9
  8
0
  0
BLOCK
  8
0
  2
A$C797C5F05
 70
     0
 10
0.0
 20
0.0
 30
0.0
  3
A$C797C5F05
  1

  0
LINE
  5
19CD
  8
0
  6
CONTINUOUS
 62
     3
 10
89.5559587163918422
 20
240.0123327974652057
 30
-0.0000000000000533
 11
-90.4440412836081435
 21
240.0123327974652057
 31
-0.0000000000000533
210
0.0
220
1.0
230
-0.0000000000000002
  0
LINE
  5
19CE
  8
0
  6
CONTINUOUS
 62
     3
 10
-90.4440412836081293
 20
232.0123327974652057
 30
-0.0000000000000515
 11
89.5559587163918422
 21
232.0123327974652057
 31
-0.0000000000000515
210
0.0
220
1.0
230
-0.0000000000000002
  0
LINE
  5
19CF
  8
0
  6
CONTINUOUS
 62
     3
 10
89.5559587163918422
 20
240.0123327974652057
 30
-0.0000000000000533
 11
89.5559587163918422
 21
232.0123327974652057
 31
-0.0000000000000515
210
0.0
220
1.0
230
-0.0000000000000002
  0
LINE
  5
19D0
  8
0
  6
CONTINUOUS
 62
     3
 10
-90.4440412836081435
 20
240.0123327974652057
 30
-0.0000000000000533
 11
-90.4440412836081435
 21
232.0123327974652057
 31
-0.0000000000000515
210
0.0
220
1.0
230
-0.0000000000000002
  0
LINE
  5
19D1
  8
0
  6
CONTINUOUS
 62
     3
 10
89.5559587163918422
 20
232.0123327974652057
 30
-0.0000000000000515
 11
-90.4440412836081435
 21
232.0123327974652057
 31
-0.0000000000000515
210
0.0
220
1.0
230
-0.0000000000000002
  0
LINE
  5
19D2
  8
0
  6
CONTINUOUS
 62
     3
 10
-90.4440412836081293
 20
224.012332797465092
 30
-0.0000000000000497
 11
89.5559587163918422
 21
224.012332797465092
 31
-0.0000000000000497
210
0.0
220
1.0
230
-0.0000000000000002
  0
LINE
  5
19D3
  8
0
  6
CONTINUOUS
 62
     3
 10
89.5559587163918422
 20
232.0123327974652057
 30
-0.0000000000000515
 11
89.5559587163918422
 21
224.012332797465092
 31
-0.0000000000000497
210
0.0
220
1.0
230
-0.0000000000000002
  0
LINE
  5
19D4
  8
0
  6
CONTINUOUS
 62
     3
 10
-90.4440412836081435
 20
232.0123327974652057
 30
-0.0000000000000515
 11
-90.4440412836081435
 21
224.012332797465092
 31
-0.0000000000000497
210
0.0
220
1.0
230
-0.0000000000000002
  0
LINE
  5
19D5
  8
0
  6
CONTINUOUS
 62
     3
 10
-26.06828643868527
 20
0.0
 30
0.0
 11
26.06828643868527
 21
0.0
 31
0.0
210
0.0
220
1.0
230
-0.0000000000000002
  0
LINE
  5
19D6
  8
0
  6
CONTINUOUS
 62
     3
 10
26.5
 20
27.9999999999993285
 30
-0.0000000000000062
 11
26.5
 21
4.9345085856390369
 31
-0.0000000000000011
210
0.0
220
1.0
230
-0.0000000000000002
  0
LINE
  5
19D7
  8
0
  6
CONTINUOUS
 62
     3
 10
-26.5
 20
27.9999999999993285
 30
-0.0000000000000062
 11
-26.5
 21
4.9345085856390369
 31
-0.0000000000000011
210
0.0
220
1.0
230
-0.0000000000000002
  0
LINE
  5
19D8
  8
0
  6
CONTINUOUS
 62
     3
 10
-26.068286438685341
 20
-0.0000000000000044
 30
0.0
 11
-26.5000000000000604
 21
4.9345085856390316
 31
-0.0000000000000011
210
0.0
220
1.0
230
-0.0000000000000002
  0
LINE
  5
19D9
  8
0
  6
CONTINUOUS
 62
     3
 10
26.068286438685341
 20
0.0000000000000235
 30
0.0
 11
26.5000000000000604
 21
4.9345085856390316
 31
-0.0000000000000011
210
0.0
220
1.0
230
-0.0000000000000002
  0
LINE
  5
19DA
  8
0
  6
CONTINUOUS
 62
     3
 10
-44.4999999999998792
 20
30.0000000000000107
 30
-0.0000000000000067
 11
44.4999999999998792
 21
30.0000000000000107
 31
-0.0000000000000067
210
0.0
220
1.0
230
-0.0000000000000002
  0
LINE
  5
19DB
  8
0
  6
CONTINUOUS
 62
     3
 10
-44.4999999999998792
 20
288.0000000000001137
 30
-0.0000000000000639
 11
44.4999999999998792
 21
288.0000000000001137
 31
-0.0000000000000639
210
0.0
220
1.0
230
-0.0000000000000002
  0
LINE
  5
19DC
  8
0
  6
CONTINUOUS
 62
     3
 10
44.5
 20
288.0000000000001137
 30
-0.0000000000000639
 11
44.5
 21
240.0123327974652057
 31
-0.0000000000000533
210
0.0
220
1.0
230
-0.0000000000000002
  0
LINE
  5
19DD
  8
0
  6
CONTINUOUS
 62
     3
 10
44.5
 20
224.012332797465092
 30
-0.0000000000000497
 11
44.5
 21
30.0000000000000107
 31
-0.0000000000000067
210
0.0
220
1.0
230
-0.0000000000000002
  0
LINE
  5
19DE
  8
0
  6
CONTINUOUS
 62
     3
 10
-44.5
 20
288.0000000000001137
 30
-0.0000000000000639
 11
-44.5
 21
240.0123327974652057
 31
-0.0000000000000533
210
0.0
220
1.0
230
-0.0000000000000002
  0
LINE
  5
19DF
  8
0
  6
CONTINUOUS
 62
     3
 10
-44.5
 20
224.012332797465092
 30
-0.0000000000000497
 11
-44.5
 21
30.0000000000000107
 31
-0.0000000000000067
210
0.0
220
1.0
230
-0.0000000000000002
  0
LINE
  5
19E0
  8
0
  6
CONTINUOUS
 62
     3
 10
44.4999999999999929
 20
27.9999999999993285
 30
-0.0000000000000062
 11
-44.4999999999998721
 21
27.9999999999993285
 31
-0.0000000000000062
210
0.0
220
1.0
230
-0.0000000000000002
  0
LINE
  5
19E1
  8
0
  6
CONTINUOUS
 62
     3
 10
44.4999999999999929
 20
29.9999999999998401
 30
-0.0000000000000067
 11
-44.4999999999998721
 21
29.9999999999998401
 31
-0.0000000000000067
210
0.0
220
1.0
230
-0.0000000000000002
  0
LINE
  5
19E2
  8
0
  6
CONTINUOUS
 62
     3
 10
-44.4999999999998792
 20
27.9999999999993285
 30
-0.0000000000000062
 11
-44.4999999999998792
 21
29.9999999999998401
 31
-0.0000000000000067
210
0.0
220
1.0
230
-0.0000000000000002
  0
LINE
  5
19E3
  8
0
  6
CONTINUOUS
 62
     3
 10
44.5
 20
27.9999999999993285
 30
-0.0000000000000062
 11
44.5
 21
29.9999999999998401
 31
-0.0000000000000067
210
0.0
220
1.0
230
-0.0000000000000002
  0
LINE
  5
19E4
  8
0
  6
VERDECKT
 62
     1
 10
45.0559587163918422
 20
240.0123327974652057
 30
-0.0000000000000533
 11
45.0559587163918422
 21
232.0123327974652057
 31
-0.0000000000000515
210
0.0
220
1.0
230
-0.0000000000000002
  0
LINE
  5
19E5
  8
0
  6
VERDECKT
 62
     1
 10
-45.9440412836081578
 20
240.0123327974652057
 30
-0.0000000000000533
 11
-45.9440412836081578
 21
232.0123327974652057
 31
-0.0000000000000515
210
0.0
220
1.0
230
-0.0000000000000002
  0
LINE
  5
19E6
  8
0
  6
VERDECKT
 62
     1
 10
45.0559587163918422
 20
232.0123327974652057
 30
-0.0000000000000515
 11
45.0559587163918422
 21
224.012332797465092
 31
-0.0000000000000497
210
0.0
220
1.0
230
-0.0000000000000002
  0
LINE
  5
19E7
  8
0
  6
VERDECKT
 62
     1
 10
-45.9440412836081578
 20
232.0123327974652057
 30
-0.0000000000000515
 11
-45.9440412836081578
 21
224.012332797465092
 31
-0.0000000000000497
210
0.0
220
1.0
230
-0.0000000000000002
  0
ARC
  5
19E8
  8
0
  6
VERDECKT
 62
     1
 10
17.4999999999997087
 20
255.4083269131961913
 30
0.0
 40
12.0000000000002895
210
0.0
220
-0.0000000000000002
230
-1.0
 50
328.2116693829486849
 51
359.9999999999993179
  0
ARC
  5
19E9
  8
0
  6
VERDECKT
 62
     1
 10
-17.4999999999996305
 20
255.4083269131961913
 30
0.0
 40
12.0000000000003695
210
0.0
220
-0.0000000000000002
230
-1.0
 50
180.0000000000007105
 51
211.7883306170510878
  0
ARC
  5
19EA
  8
0
  6
VERDECKT
 62
     1
 10
34.5000000000006324
 20
244.8726731603431972
 30
0.0
 40
8.0000000000006342
210
0.0
220
-0.0000000000000002
230
-1.0
 50
148.2116693829495091
 51
179.9999999999986073
  0
ARC
  5
19EB
  8
0
  6
VERDECKT
 62
     1
 10
-34.5000000000006324
 20
244.8726731603431972
 30
0.0
 40
8.0000000000006395
210
0.0
220
-0.0000000000000002
230
-1.0
 50
0.0000000000014249
 51
31.7883306170504802
  0
LINE
  5
19EC
  8
0
  6
VERDECKT
 62
     1
 10
26.5
 20
244.8726731603433961
 30
-0.0000000000000544
 11
26.5
 21
27.9999999999993285
 31
-0.0000000000000062
210
0.0
220
1.0
230
-0.0000000000000002
  0
LINE
  5
19ED
  8
0
  6
VERDECKT
 62
     1
 10
-26.5
 20
244.8726731603433961
 30
-0.0000000000000544
 11
-26.5
 21
27.9999999999993285
 31
-0.0000000000000062
210
0.0
220
1.0
230
-0.0000000000000002
  0
LINE
  5
19EE
  8
0
  6
VERDECKT
 62
     1
 10
-24.562556682370321
 20
-0.0000000000000004
 30
0.0
 11
-25.0
 21
5.0000000000009379
 31
-0.0000000000000011
210
0.0
220
1.0
230
-0.0000000000000002
  0
LINE
  5
19EF
  8
0
  6
VERDECKT
 62
     1
 10
24.562556682370321
 20
0.000000000000028
 30
0.0
 11
25.0
 21
5.0000000000009379
 31
-0.0000000000000011
210
0.0
220
1.0
230
-0.0000000000000002
  0
LINE
  5
19F0
  8
0
  6
VERDECKT
 62
     1
 10
25.0
 20
244.8726731603433109
 30
-0.0000000000000544
 11
25.0
 21
5.0000000000009379
 31
-0.0000000000000011
210
0.0
220
1.0
230
-0.0000000000000002
  0
LINE
  5
19F1
  8
0
  6
VERDECKT
 62
     1
 10
-25.0
 20
244.8726731603433109
 30
-0.0000000000000544
 11
-25.0
 21
5.0000000000009379
 31
-0.0000000000000011
210
0.0
220
1.0
230
-0.0000000000000002
  0
ARC
  5
19F2
  8
0
  6
VERDECKT
 62
     1
 10
34.5000000000013216
 20
244.8726731603429982
 30
0.0
 40
9.5000000000013252
210
0.0
220
-0.0000000000000002
230
-1.0
 50
148.2116693829511007
 51
179.9999999999980957
  0
ARC
  5
19F3
  8
0
  6
VERDECKT
 62
     1
 10
-34.5000000000013216
 20
244.8726731603429982
 30
0.0
 40
9.5000000000013216
210
0.0
220
-0.0000000000000002
230
-1.0
 50
0.0000000000018829
 51
31.7883306170488282
  0
ARC
  5
19F4
  8
0
  6
VERDECKT
 62
     1
 10
17.5000000000000213
 20
255.408326913196106
 30
0.0
 40
10.4999999999999893
210
0.0
220
-0.0000000000000002
230
-1.0
 50
328.2116693829477185
 51
359.9999999999997726
  0
ARC
  5
19F5
  8
0
  6
VERDECKT
 62
     1
 10
-17.5000000000000213
 20
255.408326913196106
 30
0.0
 40
10.4999999999999805
210
0.0
220
-0.0000000000000002
230
-1.0
 50
180.0000000000001137
 51
211.7883306170521962
  0
LINE
  5
19F6
  8
0
  6
VERDECKT
 62
     1
 10
28.0
 20
263.5000000000002274
 30
-0.0000000000000585
 11
28.0
 21
255.408326913196106
 31
-0.0000000000000567
210
0.0
220
1.0
230
-0.0000000000000002
  0
LINE
  5
19F7
  8
0
  6
VERDECKT
 62
     1
 10
-28.0
 20
263.5000000000002274
 30
-0.0000000000000585
 11
-28.0
 21
255.408326913196106
 31
-0.0000000000000567
210
0.0
220
1.0
230
-0.0000000000000002
  0
ARC
  5
19F8
  8
0
  6
VERDECKT
 62
     1
 10
39.5000000000026574
 20
263.4999999999998863
 30
0.0
 40
11.5000000000026592
210
0.0
220
-0.0000000000000002
230
-1.0
 50
160.5369005553147019
 51
179.9999999999988063
  0
ARC
  5
19F9
  8
0
  6
VERDECKT
 62
     1
 10
-39.5000000000026574
 20
263.4999999999998863
 30
0.0
 40
11.5000000000026503
210
0.0
220
-0.0000000000000002
230
-1.0
 50
0.0000000000011323
 51
19.4630994446852092
  0
ARC
  5
19FA
  8
0
  6
VERDECKT
 62
     1
 10
6.4999999999987352
 20
275.1620000000029904
 30
0.0
 40
23.5000320571302197
210
0.0
220
-0.0000000000000002
230
-1.0
 50
340.5369005553055786
 51
0.0946380460787558
  0
ARC
  5
19FB
  8
0
  6
VERDECKT
 62
     1
 10
-6.4999999999991038
 20
275.1620000000028767
 30
0.0
 40
23.5000320571298396
210
0.0
220
-0.0000000000000002
230
-1.0
 50
179.9053619539211866
 51
199.4630994446945067
  0
LINE
  5
19FC
  8
0
  6
VERDECKT
 62
     1
 10
29.9999999999998899
 20
279.6174986573391834
 30
-0.0000000000000621
 11
29.9999999999998899
 21
275.2008160545937017
 31
-0.0000000000000611
210
0.0
220
1.0
230
-0.0000000000000002
  0
LINE
  5
19FD
  8
0
  6
VERDECKT
 62
     1
 10
-29.9999999999998899
 20
279.6174986573391834
 30
-0.0000000000000621
 11
-29.9999999999998899
 21
275.2008160545937017
 31
-0.0000000000000611
210
0.0
220
1.0
230
-0.0000000000000002
  0
ARC
  5
19FE
  8
0
  6
VERDECKT
 62
     1
 10
11.9999999999973301
 20
279.6174986573388992
 30
0.0
 40
18.0000000000025615
210
0.0
220
-0.0000000000000002
230
-1.0
 50
0.0000000000010941
 51
24.9999999999973213
  0
ARC
  5
19FF
  8
0
  6
VERDECKT
 62
     1
 10
-11.9999999999973905
 20
279.6174986573388992
 30
0.0
 40
18.0000000000025011
210
0.0
220
-0.0000000000000002
230
-1.0
 50
155.0000000000025011
 51
179.9999999999988916
  0
LINE
  5
1A00
  8
0
  6
VERDECKT
 62
     1
 10
27.9519779707474108
 20
288.0000000000001137
 30
-0.0000000000000639
 11
28.3135401666596884
 21
287.2246273686718041
 31
-0.0000000000000638
210
0.0
220
1.0
230
-0.0000000000000002
  0
LINE
  5
1A01
  8
0
  6
VERDECKT
 62
     1
 10
-27.9519779707474108
 20
288.0000000000001137
 30
-0.0000000000000639
 11
-28.3135401666596884
 21
287.2246273686718041
 31
-0.0000000000000638
210
0.0
220
1.0
230
-0.0000000000000002
  0
LINE
  5
1A02
  8
0
  6
VERDECKT
 62
     1
 10
29.6070448491911513
 20
288.0000000000001137
 30
-0.0000000000000639
 11
29.6730018472165504
 21
287.8585547612782989
 31
-0.0000000000000639
210
0.0
220
1.0
230
-0.0000000000000002
  0
LINE
  5
1A03
  8
0
  6
VERDECKT
 62
     1
 10
-29.6070448491911513
 20
288.0000000000001137
 30
-0.0000000000000639
 11
-29.6730018472165504
 21
287.8585547612782989
 31
-0.0000000000000639
210
0.0
220
1.0
230
-0.0000000000000002
  0
ARC
  5
1A04
  8
0
  6
VERDECKT
 62
     1
 10
11.99999999999838
 20
279.6174986573386718
 30
0.0
 40
19.5000000000014992
210
0.0
220
-0.0000000000000002
230
-1.0
 50
0.0
 51
24.9999999999832596
  0
ARC
  5
1A05
  8
0
  6
VERDECKT
 62
     1
 10
-11.9999999999983107
 20
279.6174986573386718
 30
0.0
 40
19.500000000001581
210
0.0
220
-0.0000000000000002
230
-1.0
 50
155.0000000000152056
 51
179.9999999999984084
  0
LINE
  5
1A06
  8
0
  6
VERDECKT
 62
     1
 10
31.5
 20
279.6174986573391834
 30
-0.0000000000000621
 11
31.5
 21
275.2020357026199804
 31
-0.0000000000000611
210
0.0
220
1.0
230
-0.0000000000000002
  0
LINE
  5
1A07
  8
0
  6
VERDECKT
 62
     1
 10
-31.5
 20
279.6174986573391834
 30
-0.0000000000000621
 11
-31.5
 21
275.2020357026199804
 31
-0.0000000000000611
210
0.0
220
1.0
230
-0.0000000000000002
  0
ARC
  5
1A08
  8
0
  6
VERDECKT
 62
     1
 10
6.5000000000032321
 20
275.1620000000024788
 30
0.0
 40
25.0000320571258996
210
0.0
220
-0.0000000000000002
230
-1.0
 50
340.536900555303589
 51
0.0917549931558536
  0
ARC
  5
1A09
  8
0
  6
VERDECKT
 62
     1
 10
-6.5000000000035634
 20
275.162000000002422
 30
0.0
 40
25.0000320571255692
210
0.0
220
-0.0000000000000002
230
-1.0
 50
179.9082450068441119
 51
199.4630994446964962
  0
ARC
  5
1A0A
  8
0
  6
VERDECKT
 62
     1
 10
39.4999999999963904
 20
263.5000000000007958
 30
0.0
 40
9.9999999999964047
210
0.0
220
-0.0000000000000002
230
-1.0
 50
160.5369005553079091
 51
180.0000000000034959
  0
ARC
  5
1A0B
  8
0
  6
VERDECKT
 62
     1
 10
-39.4999999999963904
 20
263.5000000000007958
 30
0.0
 40
9.9999999999963958
210
0.0
220
-0.0000000000000002
230
-1.0
 50
359.9999999999964189
 51
19.4630994446920411
  0
LINE
  5
1A0C
  8
0
  6
VERDECKT
 62
     1
 10
29.5
 20
263.5000000000002274
 30
-0.0000000000000585
 11
29.5
 21
255.408326913196106
 31
-0.0000000000000567
210
0.0
220
1.0
230
-0.0000000000000002
  0
LINE
  5
1A0D
  8
0
  6
VERDECKT
 62
     1
 10
-29.5
 20
263.5000000000002274
 30
-0.0000000000000585
 11
-29.5
 21
255.408326913196106
 31
-0.0000000000000567
210
0.0
220
1.0
230
-0.0000000000000002
  0
LINE
  5
1A0E
  8
0
  6
VERDECKT
 62
     1
 10
42.8999999999998565
 20
288.0000000000001137
 30
-0.0000000000000639
 11
42.8999999999998565
 21
30.0000000000000107
 31
-0.0000000000000067
210
0.0
220
1.0
230
-0.0000000000000002
  0
LINE
  5
1A0F
  8
0
  6
VERDECKT
 62
     1
 10
-42.8999999999998565
 20
288.0000000000001137
 30
-0.0000000000000639
 11
-42.8999999999998565
 21
30.0000000000000107
 31
-0.0000000000000067
210
0.0
220
1.0
230
-0.0000000000000002
  0
LINE
  5
1A10
  8
0
  6
VERDECKT
 62
     1
 10
44.5
 20
240.0123327974652057
 30
-0.0000000000000533
 11
44.5
 21
224.012332797465092
 31
-0.0000000000000497
210
0.0
220
1.0
230
-0.0000000000000002
  0
LINE
  5
1A11
  8
0
  6
VERDECKT
 62
     1
 10
-44.5
 20
240.0123327974652057
 30
-0.0000000000000533
 11
-44.5
 21
224.012332797465092
 31
-0.0000000000000497
210
0.0
220
1.0
230
-0.0000000000000002
  0
LINE
  5
1A12
  8
0
  6
VERDECKT
 62
     1
 10
30.5000000000000604
 20
35.9999999999998366
 30
-0.000000000000008
 11
-30.4999999999999396
 21
35.9999999999998366
 31
-0.000000000000008
210
0.0
220
1.0
230
-0.0000000000000002
  0
LINE
  5
1A13
  8
0
  6
VERDECKT
 62
     1
 10
42.8999999999999773
 20
45.9999999999998934
 30
-0.0000000000000102
 11
-42.8999999999998565
 21
45.9999999999998934
 31
-0.0000000000000102
210
0.0
220
1.0
230
-0.0000000000000002
  0
LINE
  5
1A14
  8
0
  6
VERDECKT
 62
     1
 10
-26.5
 20
35.9999999999998366
 30
-0.000000000000008
 11
-26.5
 21
45.9999999999998295
 31
-0.0000000000000102
210
0.0
220
1.0
230
-0.0000000000000002
  0
LINE
  5
1A15
  8
0
  6
VERDECKT
 62
     1
 10
26.5000000000001101
 20
35.9999999999998366
 30
-0.000000000000008
 11
26.5000000000001101
 21
45.9999999999998295
 31
-0.0000000000000102
210
0.0
220
1.0
230
-0.0000000000000002
  0
LINE
  5
1A16
  8
0
  6
VERDECKT
 62
     1
 10
30.5000000000000604
 20
35.9999999999998366
 30
-0.000000000000008
 11
33.96410161513802
 21
29.9999999999995488
 31
-0.0000000000000067
210
0.0
220
1.0
230
-0.0000000000000002
  0
LINE
  5
1A17
  8
0
  6
VERDECKT
 62
     1
 10
-30.4999999999999396
 20
35.9999999999998366
 30
-0.000000000000008
 11
-33.9641016151379134
 21
29.9999999999995488
 31
-0.0000000000000067
210
0.0
220
1.0
230
-0.0000000000000002
  0
LINE
  5
1A18
  8
0
  6
VERDECKT
 62
     1
 10
-38.4999999999997229
 20
27.9999999999993499
 30
-0.0000000000000062
 11
-38.4999999999997229
 21
29.9999999999995488
 31
-0.0000000000000067
210
0.0
220
1.0
230
-0.0000000000000002
  0
LINE
  5
1A19
  8
0
  6
VERDECKT
 62
     1
 10
38.4999999999998295
 20
27.9999999999993499
 30
-0.0000000000000062
 11
38.4999999999998295
 21
29.9999999999995488
 31
-0.0000000000000067
210
0.0
220
1.0
230
-0.0000000000000002
  0
LINE
  5
1A1A
  8
0
  6
VERDECKT
 62
     1
 10
-42.8999999999998565
 20
29.9999999999998899
 30
-0.0000000000000067
 11
-42.8999999999998565
 21
45.9999999999998934
 31
-0.0000000000000102
210
0.0
220
1.0
230
-0.0000000000000002
  0
LINE
  5
1A1B
  8
0
  6
VERDECKT
 62
     1
 10
42.8999999999999773
 20
29.9999999999998899
 30
-0.0000000000000067
 11
42.8999999999999773
 21
45.9999999999998934
 31
-0.0000000000000102
210
0.0
220
1.0
230
-0.0000000000000002
  0
LINE
  5
1A1C
  8
0
  6
VERDECKT
 62
     1
 10
-37.4999999999999716
 20
41.9999999999997726
 30
-0.0000000000000093
 11
-37.4999999999999716
 21
45.9999999999998934
 31
-0.0000000000000102
210
0.0
220
1.0
230
-0.0000000000000002
  0
LINE
  5
1A1D
  8
0
  6
VERDECKT
 62
     1
 10
37.5000000000000924
 20
41.9999999999997726
 30
-0.0000000000000093
 11
37.5000000000000924
 21
45.9999999999998934
 31
-0.0000000000000102
210
0.0
220
1.0
230
-0.0000000000000002
  0
ARC
  5
1A1E
  8
0
  6
VERDECKT
 62
     1
 10
-34.5000000000000568
 20
41.9999999999998366
 30
0.0
 40
3.0
210
0.0
220
-0.0000000000000002
230
-1.0
 50
180.0000000000009948
 51
270.0
  0
ARC
  5
1A1F
  8
0
  6
VERDECKT
 62
     1
 10
-34.5000000000000497
 20
41.9999999999998295
 30
0.0
 40
2.999999999999992
210
0.0
220
-0.0000000000000002
230
-1.0
 50
270.0
 51
0.0000000000002799
  0
ARC
  5
1A20
  8
0
  6
VERDECKT
 62
     1
 10
34.4999999999999432
 20
41.9999999999998295
 30
0.0
 40
2.999999999999992
210
0.0
220
-0.0000000000000002
230
-1.0
 50
179.999999999999801
 51
270.0000000000001137
  0
ARC
  5
1A21
  8
0
  6
VERDECKT
 62
     1
 10
34.4999999999999432
 20
41.9999999999998366
 30
0.0
 40
3.0
210
0.0
220
-0.0000000000000002
230
-1.0
 50
270.0
 51
359.99999999999892
  0
LINE
  5
1A22
  8
0
  6
VERDECKT
 62
     1
 10
-34.4999999999999432
 20
38.9999999999998366
 30
-0.0000000000000087
 11
34.5000000000000568
 21
38.9999999999998366
 31
-0.0000000000000087
210
0.0
220
1.0
230
-0.0000000000000002
  0
LINE
  5
1A23
  8
0
  6
VERDECKT
 62
     1
 10
-31.4999999999999503
 20
41.9999999999998366
 30
-0.0000000000000093
 11
-31.4999999999999503
 21
45.9999999999998295
 31
-0.0000000000000102
210
0.0
220
1.0
230
-0.0000000000000002
  0
LINE
  5
1A24
  8
0
  6
VERDECKT
 62
     1
 10
31.5000000000000604
 20
41.9999999999998366
 30
-0.0000000000000093
 11
31.5000000000000604
 21
45.9999999999998295
 31
-0.0000000000000102
210
0.0
220
1.0
230
-0.0000000000000002
  0
LINE
  5
1A25
  8
0
  6
VERDECKT
 62
     1
 10
-42.8999999999998565
 20
274.0000000000001137
 30
-0.0000000000000608
 11
42.8999999999998565
 21
274.0000000000001137
 31
-0.0000000000000608
210
0.0
220
1.0
230
-0.0000000000000002
  0
LINE
  5
1A26
  8
0
  6
VERDECKT
 62
     1
 10
42.8999999999998565
 20
288.0000000000001137
 30
-0.0000000000000639
 11
42.8999999999998565
 21
274.0000000000001137
 31
-0.0000000000000608
210
0.0
220
1.0
230
-0.0000000000000002
  0
LINE
  5
1A27
  8
0
  6
VERDECKT
 62
     1
 10
-42.8999999999998565
 20
288.0000000000001137
 30
-0.0000000000000639
 11
-42.8999999999998565
 21
274.0000000000001137
 31
-0.0000000000000608
210
0.0
220
1.0
230
-0.0000000000000002
  0
ARC
  5
1A28
  8
0
  6
VERDECKT
 62
     1
 10
6.5000000000867573
 20
275.1619999999999777
 30
0.0
 40
25.0000320570413912
210
0.0
220
-0.0000000000000002
230
-1.0
 50
357.3359357612658869
 51
0.0917549917601244
  0
ARC
  5
1A29
  8
0
  6
VERDECKT
 62
     1
 10
-6.5000000000806253
 20
275.1620000000002051
 30
0.0
 40
25.0000320570475303
210
0.0
220
-0.0000000000000002
230
-1.0
 50
179.9082450082404137
 51
182.6640642387339142
  0
LINE
  5
1A2A
  8
0
  6
VERDECKT
 62
     1
 10
31.5
 20
279.6174986573392971
 30
-0.0000000000000621
 11
31.5
 21
275.202035702008402
 31
-0.0000000000000611
210
0.0
220
1.0
230
-0.0000000000000002
  0
LINE
  5
1A2B
  8
0
  6
VERDECKT
 62
     1
 10
-31.5
 20
279.6174986573392971
 30
-0.0000000000000621
 11
-31.5
 21
275.202035702008402
 31
-0.0000000000000611
210
0.0
220
1.0
230
-0.0000000000000002
  0
ARC
  5
1A2C
  8
0
  6
VERDECKT
 62
     1
 10
12.0000000000000302
 20
279.6174986573391266
 30
0.0
 40
19.4999999999999716
210
0.0
220
-0.0000000000000002
230
-1.0
 50
0.0000000000006743
 51
25.4594285688061106
  0
ARC
  5
1A2D
  8
0
  6
VERDECKT
 62
     1
 10
-12.0000000000001101
 20
279.6174986573391266
 30
0.0
 40
19.4999999999998792
210
0.0
220
-0.0000000000000002
230
-1.0
 50
154.540571431193797
 51
179.9999999999994884
  0
ENDBLK
  5
1A2F
  8
0
  0
ENDSEC
  0
SECTION
  2
ENTITIES
  0
TEXT
  5
8F
  8
VOLL
 10
78.076754716981128
 20
31.025947764705851
 30
0.0
 40
1.8
  1

  7
GREEKS
  0
TEXT
  5
291
  8
VOLL
 10
514.4882254450847086
 20
244.6707450644115909
 30
0.0
 40
1.8
  1

  7
GREEKS
  0
TEXT
  5
29F
  8
BEM
 10
989.0924386451680448
 20
259.5188084196681757
 30
0.0
 40
2.5
  1

 41
0.8
  7
GREEKS
 72
     4
 11
989.0924386451680448
 21
259.5188084196681757
 31
0.0
  0
TEXT
  5
784
  8
VOLL
 10
520.3740581392587501
 20
199.4620790218909008
 30
0.0
 40
1.8
  1

  7
GREEKS
  0
TEXT
  5
792
  8
BEM
 10
994.9782713393420863
 20
214.310142377147514
 30
0.0
 40
2.5
  1

 41
0.8
  7
GREEKS
 72
     4
 11
994.9782713393420863
 21
214.310142377147514
 31
0.0
  0
TEXT
  5
793
  8
BEM
 10
1033.4598070053059473
 20
185.2261097521443958
 30
0.0
 40
2.5
  1

 41
0.8
  7
GREEKS
 72
     4
 11
1033.4598070053059473
 21
185.2261097521443958
 31
0.0
  0
TEXT
  5
CC3
  8
VOLL
 10
525.1782275244197535
 20
291.0533641903701891
 30
0.0
 40
1.8
  1

  7
GREEKS
  0
INSERT
  5
19CA
  8
STEMPEL
  2
A$C5B9B605B
 10
0.0
 20
-140.0
 30
0.0
  0
INSERT
  5
1A30
  8
STEMPEL
  2
A$C797C5F05
 10
0.0
 20
0.0
 30
0.0
  0
VIEWPORT
  5
1568
 67
     1
  8
0
 10
4.6470104808605672
 20
6.4052282266885694
 30
0.0
 40
25.9775682728238806
 41
13.23027547493753
 68
     1
 69
     1
1001
ACAD
1000
MVIEW
1002
{
1070
    16
1010
0.0
1020
0.0
1030
0.0
1010
0.0
1020
0.0
1030
1.0
1040
0.0
1040
13.23027547493753
1040
4.6470104808605672
1040
6.4052282266885694
1040
50.0
1040
0.0
1040
0.0
1070
     0
1070
  1500
1070
     1
1070
     1
1070
     0
1070
     0
1070
     0
1070
     0
1040
0.0
1040
0.0
1040
0.0
1040
10.0
1040
10.0
1040
10.0
1040
10.0
1070
     0
1002
{
1002
}
1002
}
  0
VIEWPORT
  5
156C
 67
     1
  8
DEFPOINTS
 10
4.6466399282535447
 20
6.4053741433940736
 30
0.0
 40
9.5773561198690018
 41
13.1261405378358198
 68
     2
 69
     2
1001
ACAD
1000
MVIEW
1002
{
1070
    16
1010
899.911927615138552
1020
402.8925795397533989
1030
-72.4112435625093838
1010
0.0
1020
0.0
1030
1.0
1040
0.0
1040
616.6527418918666399
1040
-688.2333759656613665
1040
-105.439832140151907
1040
50.0
1040
0.0
1040
0.0
1070
     0
1070
  1500
1070
     1
1070
     0
1070
     0
1070
     0
1070
     0
1070
     0
1040
0.0
1040
0.0
1040
0.0
1040
1.0
1040
1.0
1040
10.0
1040
10.0
1070
     0
1002
{
1002
}
1002
}
  0
VIEWPORT
  5
1570
 67
     1
  8
DEFPOINTS
 10
6.9646980575334254
 20
6.9504910536284523
 30
0.0
 40
3.1136131023633311
 41
5.3063462507958157
 68
     3
 69
     3
1001
ACAD
1000
MVIEW
1002
{
1070
    16
1010
903.5340007333893482
1020
317.9231185829601145
1030
-62.4657655715903033
1010
0.0
1020
93.4689209296494141
1030
445.063605849797284
1040
3.1415926535897931
1040
333.2395959036912814
1040
-0.2776716037862559
1040
0.0
1040
50.0
1040
0.0
1040
0.0
1070
     0
1070
  1500
1070
     1
1070
     0
1070
     0
1070
     0
1070
     0
1070
     0
1040
0.0
1040
0.0
1040
0.0
1040
1.0
1040
1.0
1040
10.0
1040
10.0
1070
     0
1002
{
1002
}
1002
}
  0
ENDSEC
  0
EOF
