  0
SECTION
  2
HEADER
  9
$ACADVER
  1
AC1009
  9
$INSBASE
 10
0.0
 20
0.0
 30
0.0
  9
$EXTMIN
 10
-90.0155627774255436
 20
-230.0333848009277062
 30
-0.0085442699593159
  9
$EXTMAX
 10
90.0206001685241972
 20
280.0233776918882995
 30
0.0128177087901804
  9
$LIMMIN
 10
0.0
 20
0.0
  9
$LIMMAX
 10
419.9999999999998863
 20
594.0000000000002274
  9
$ORTHOMODE
 70
     1
  9
$REGENMODE
 70
     1
  9
$FILLMODE
 70
     1
  9
$QTEXTMODE
 70
     0
  9
$MIRRTEXT
 70
     1
  9
$DRAGMODE
 70
     2
  9
$LTSCALE
 40
20.0
  9
$OSMODE
 70
  2559
  9
$ATTMODE
 70
     1
  9
$TEXTSIZE
 40
3.5
  9
$TRACEWID
 40
0.5
  9
$TEXTSTYLE
  7
STANDARD
  9
$CLAYER
  8
STEMPEL
  9
$CELTYPE
  6
BYLAYER
  9
$CECOLOR
 62
   256
  9
$DIMSCALE
 40
2.0
  9
$DIMASZ
 40
3.5
  9
$DIMEXO
 40
1.0
  9
$DIMDLI
 40
7.0
  9
$DIMRND
 40
0.0
  9
$DIMDLE
 40
0.0
  9
$DIMEXE
 40
1.0
  9
$DIMTP
 40
0.0
  9
$DIMTM
 40
0.0
  9
$DIMTXT
 40
3.5
  9
$DIMCEN
 40
1.5
  9
$DIMTSZ
 40
0.0
  9
$DIMTOL
 70
     0
  9
$DIMLIM
 70
     0
  9
$DIMTIH
 70
     0
  9
$DIMTOH
 70
     0
  9
$DIMSE1
 70
     0
  9
$DIMSE2
 70
     0
  9
$DIMTAD
 70
     1
  9
$DIMZIN
 70
     8
  9
$DIMBLK
  1

  9
$DIMASO
 70
     1
  9
$DIMSHO
 70
     0
  9
$DIMPOST
  1

  9
$DIMAPOST
  1

  9
$DIMALT
 70
     0
  9
$DIMALTD
 70
     2
  9
$DIMALTF
 40
25.3999999999999986
  9
$DIMLFAC
 40
1.0
  9
$DIMTOFL
 70
     1
  9
$DIMTVP
 40
0.0
  9
$DIMTIX
 70
     0
  9
$DIMSOXD
 70
     0
  9
$DIMSAH
 70
     0
  9
$DIMBLK1
  1

  9
$DIMBLK2
  1

  9
$DIMSTYLE
  2
STANDARD
  9
$DIMCLRD
 70
     0
  9
$DIMCLRE
 70
     0
  9
$DIMCLRT
 70
     1
  9
$DIMTFAC
 40
0.5
  9
$DIMGAP
 40
1.5
  9
$LUNITS
 70
     2
  9
$LUPREC
 70
     2
  9
$SKETCHINC
 40
1.0
  9
$FILLETRAD
 40
0.0
  9
$AUNITS
 70
     0
  9
$AUPREC
 70
     0
  9
$MENU
  1
ACAD
  9
$ELEVATION
 40
0.0
  9
$PELEVATION
 40
0.0
  9
$THICKNESS
 40
0.0
  9
$LIMCHECK
 70
     0
  9
$BLIPMODE
 70
     0
  9
$CHAMFERA
 40
0.0
  9
$CHAMFERB
 40
0.0
  9
$SKPOLY
 70
     0
  9
$TDCREATE
 40
2455397.8646990740671754
  9
$TDUPDATE
 40
2458389.6304861111566424
  9
$TDINDWG
 40
0.3820582407
  9
$TDUSRTIMER
 40
0.3820582407
  9
$USRTIMER
 70
     1
  9
$ANGBASE
 50
0.0
  9
$ANGDIR
 70
     0
  9
$PDMODE
 70
     0
  9
$PDSIZE
 40
0.0
  9
$PLINEWID
 40
0.0
  9
$COORDS
 70
     1
  9
$SPLFRAME
 70
     0
  9
$SPLINETYPE
 70
     6
  9
$SPLINESEGS
 70
     8
  9
$ATTDIA
 70
     1
  9
$ATTREQ
 70
     1
  9
$HANDLING
 70
     1
  9
$HANDSEED
  5
17BC
  9
$SURFTAB1
 70
     6
  9
$SURFTAB2
 70
     6
  9
$SURFTYPE
 70
     6
  9
$SURFU
 70
     6
  9
$SURFV
 70
     6
  9
$UCSNAME
  2

  9
$UCSORG
 10
0.0
 20
0.0
 30
0.0
  9
$UCSXDIR
 10
1.0
 20
0.0
 30
0.0
  9
$UCSYDIR
 10
0.0
 20
1.0
 30
0.0
  9
$PUCSNAME
  2

  9
$PUCSORG
 10
0.0
 20
0.0
 30
0.0
  9
$PUCSXDIR
 10
1.0
 20
0.0
 30
0.0
  9
$PUCSYDIR
 10
0.0
 20
1.0
 30
0.0
  9
$USERI1
 70
     0
  9
$USERI2
 70
     0
  9
$USERI3
 70
     0
  9
$USERI4
 70
     0
  9
$USERI5
 70
     0
  9
$USERR1
 40
0.0
  9
$USERR2
 40
0.0
  9
$USERR3
 40
0.0
  9
$USERR4
 40
0.0
  9
$USERR5
 40
0.0
  9
$WORLDVIEW
 70
     1
  9
$SHADEDGE
 70
     3
  9
$SHADEDIF
 70
    70
  9
$TILEMODE
 70
     1
  9
$MAXACTVP
 70
    16
  9
$PLIMCHECK
 70
     0
  9
$PEXTMIN
 10
-0.2597444071357202
 20
-0.2046374181840314
 30
-0.000000000000013
  9
$PEXTMAX
 10
10.6218229963935293
 20
15.1528159688943198
 30
0.0000000000000023
  9
$PLIMMIN
 10
-0.2500002402958907
 20
-0.2499999962453767
  9
$PLIMMAX
 10
10.7499995194082203
 20
8.2499997634587334
  9
$UNITMODE
 70
     0
  9
$VISRETAIN
 70
     0
  9
$PLINEGEN
 70
     0
  9
$PSLTSCALE
 70
     0
  0
ENDSEC
  0
SECTION
  2
TABLES
  0
TABLE
  2
VPORT
 70
     1
  0
VPORT
  2
*ACTIVE
 70
     0
 10
0.0
 20
0.0
 11
1.0
 21
1.0
 12
0.0025186955493268
 22
-70.0081430503693127
 13
0.0
 23
0.0
 14
1.0
 24
1.0
 15
20.0
 25
20.0
 16
-0.0000000000002361
 26
0.0
 36
1063.3768864062449211
 17
0.0
 27
95.0031394958496236
 37
20.5000000000008598
 40
512.6568819277836155
 41
1.868197278911564
 42
50.0
 43
0.0
 44
0.0
 50
0.0
 51
0.0
 71
     0
 72
  1500
 73
     1
 74
     0
 75
     0
 76
     0
 77
     0
 78
     0
  0
ENDTAB
  0
TABLE
  2
LTYPE
 70
     6
  0
LTYPE
  2
CONTINUOUS
 70
     0
  3
Solid line
 72
    65
 73
     0
 40
0.0
  0
LTYPE
  2
AUSGEZOGEN
 70
     0
  3
Ausgezogene Linie
 72
    65
 73
     0
 40
0.0
  0
LTYPE
  2
PHANTOM2
 70
     0
  3
Phantom (.5x) ___ _ _ ___ _ _ ___ _ _ ___ _ _
 72
    65
 73
     6
 40
1.25
 49
0.625
 49
-0.125
 49
0.125
 49
-0.125
 49
0.125
 49
-0.125
  0
LTYPE
  2
VERDECKT
 70
     0
  3
_ _ _ _ _ _ _ _ _ _ _ _ _ _ _ _ _ _ _ _ _ _ _
 72
    65
 73
     2
 40
0.375
 49
0.25
 49
-0.125
  0
ENDTAB
  0
TABLE
  2
LAYER
 70
    11
  0
LAYER
  2
0
 70
     0
 62
     7
  6
CONTINUOUS
  0
LAYER
  2
VOLL
 70
     0
 62
     1
  6
CONTINUOUS
  0
LAYER
  2
BEM
 70
     0
 62
     7
  6
CONTINUOUS
  0
LAYER
  2
STEMPEL
 70
     0
 62
     3
  6
CONTINUOUS
  0
LAYER
  2
DEFPOINTS
 70
     0
 62
     7
  6
AUSGEZOGEN
  0
ENDTAB
  0
TABLE
  2
STYLE
 70
     2
  0
STYLE
  2
STANDARD
 70
     0
 40
0.0
 41
0.8
 50
0.0
 71
     0
 42
3.5
  3
simplex.shx
  4

  0
STYLE
  2
GREEKS
 70
     0
 40
0.0
 41
0.8
 50
0.0
 71
     0
 42
2.5
  3
SIMPLEX.shx
  4

  0
ENDTAB
  0
TABLE
  2
VIEW
 70
     1
  0
ENDTAB
  0
TABLE
  2
UCS
 70
     0
  0
ENDTAB
  0
TABLE
  2
APPID
 70
     9
  0
APPID
  2
ACAD
 70
     0
  0
APPID
  2
ACAD_EXEMPT_FROM_CAD_STANDARDS
 70
     0
  0
APPID
  2
ACAD_NAV_VCDISPLAY
 70
     0
  0
APPID
  2
ACAD_MLEADERVER
 70
     0
  0
APPID
  2
ACAD_PSEXT
 70
     0
  0
APPID
  2
ACAECLAYERSTANDARD
 70
     0
  0
APPID
  2
ACCMTRANSPARENCY
 70
     0
  0
APPID
  2
ACAD_OBJECT_CHANGE_GUID
 70
     0
  0
APPID
  2
ACADANNOMONITORALERTICONDI
 70
     0
  0
ENDTAB
  0
TABLE
  2
DIMSTYLE
 70
     2
  0
DIMSTYLE
  2
STANDARD
 70
     0
  3

  4

  5

  6

  7

 40
1.0
 41
0.18
 42
0.0625
 43
0.38
 44
0.18
 45
0.0
 46
0.0
 47
0.0
 48
0.0
140
0.18
141
0.09
142
0.0
143
25.3999999999999986
144
1.0
145
0.0
146
1.0
147
0.09
 71
     0
 72
     0
 73
     1
 74
     1
 75
     0
 76
     0
 77
     0
 78
     0
170
     0
171
     2
172
     0
173
     0
174
     0
175
     0
176
     0
177
     0
178
     0
  0
ENDTAB
  0
ENDSEC
  0
SECTION
  2
BLOCKS
  0
BLOCK
  8
0
  2
$MODEL_SPACE
 70
     0
 10
0.0
 20
0.0
 30
0.0
  3
$MODEL_SPACE
  1

  0
ENDBLK
  5
36
  8
0
  0
BLOCK
 67
     1
  8
0
  2
$PAPER_SPACE
 70
     0
 10
0.0
 20
0.0
 30
0.0
  3
$PAPER_SPACE
  1

  0
ENDBLK
  5
34
 67
     1
  8
0
  0
BLOCK
  8
0
  2
A$C7DA3213F
 70
     0
 10
0.0
 20
0.0
 30
0.0
  3
A$C7DA3213F
  1

  0
CIRCLE
  5
16E9
  8
0
  6
CONTINUOUS
 62
     3
 10
0.0
 20
0.0000000000000271
 30
0.0
 40
42.8999999999998565
  0
CIRCLE
  5
16EA
  8
0
  6
CONTINUOUS
 62
     3
 10
0.0
 20
0.0000000000000271
 30
0.0
 40
44.4999999999998792
  0
CIRCLE
  5
16EB
  8
0
  6
CONTINUOUS
 62
     3
 10
0.0
 20
0.0000000000000274
 30
0.0
 40
24.1476030003184405
  0
CIRCLE
  5
16EC
  8
0
  6
CONTINUOUS
 62
     3
 10
0.0
 20
0.0000000000000274
 30
0.0
 40
42.8999999999998565
  0
CIRCLE
  5
16ED
  8
0
  6
CONTINUOUS
 62
     3
 10
0.0
 20
0.0000000000000289
 30
0.0
 40
45.4999999999999929
  0
CIRCLE
  5
16EE
  8
0
  6
CONTINUOUS
 62
     3
 10
0.0
 20
0.0000000000000289
 30
0.0
 40
90.0
  0
CIRCLE
  5
16EF
  8
0
  6
CONTINUOUS
 62
     3
 10
0.0
 20
0.00000000000001
 30
0.0
 40
19.0625566823703103
  0
CIRCLE
  5
16F0
  8
0
  6
CONTINUOUS
 62
     3
 10
0.0
 20
0.0000000000000251
 30
0.0
 40
19.5
  0
CIRCLE
  5
16F1
  8
0
  6
CONTINUOUS
 62
     3
 10
0.0
 20
0.0000000000000272
 30
0.0
 40
22.5
  0
CIRCLE
  5
16F2
  8
0
  6
CONTINUOUS
 62
     3
 10
0.0
 20
0.0000000000000272
 30
0.0
 40
24.1476030003187816
  0
CIRCLE
  5
16F3
  8
0
  6
VERDECKT
 62
     1
 10
0.0
 20
0.0000000000000119
 30
0.0
 40
24.5
  0
CIRCLE
  5
16F4
  8
0
  6
VERDECKT
 62
     1
 10
0.0
 20
0.0000000000000115
 30
0.0
 40
27.9641016151376789
  0
CIRCLE
  5
16F5
  8
0
  6
VERDECKT
 62
     1
 10
0.0
 20
0.0000000000000115
 30
0.0
 40
38.4999999999996589
  0
CIRCLE
  5
16F6
  8
0
  6
VERDECKT
 62
     1
 10
0.0
 20
0.0000000000000125
 30
0.0
 40
39.6124206446813787
  0
CIRCLE
  5
16F7
  8
0
  6
VERDECKT
 62
     1
 10
0.0
 20
0.0000000000000121
 30
0.0
 40
39.0
  0
CIRCLE
  5
16F8
  8
0
  6
VERDECKT
 62
     1
 10
0.0
 20
0.0000000000000121
 30
0.0
 40
30.0
  0
CIRCLE
  5
16F9
  8
0
  6
VERDECKT
 62
     1
 10
0.0
 20
0.0000000000000125
 30
0.0
 40
25.9585481156725599
  0
CIRCLE
  5
16FA
  8
0
  6
VERDECKT
 62
     1
 10
0.0
 20
0.000000000000027
 30
0.0
 40
25.5
  0
CIRCLE
  5
16FB
  8
0
  6
VERDECKT
 62
     1
 10
0.0
 20
0.0000000000000265
 30
0.0
 40
25.3592825568976004
  0
CIRCLE
  5
16FC
  8
0
  6
VERDECKT
 62
     1
 10
0.0
 20
0.0000000000000267
 30
0.0
 40
25.4998448162652984
  0
CIRCLE
  5
16FD
  8
0
  6
VERDECKT
 62
     1
 10
0.0
 20
0.0000000000000251
 30
0.0
 40
21.0
  0
CIRCLE
  5
16FE
  8
0
  6
VERDECKT
 62
     1
 10
0.0
 20
0.00000000000001
 30
0.0
 40
20.5682864386852806
  0
CIRCLE
  5
16FF
  8
0
  6
VERDECKT
 62
     1
 10
0.0
 20
0.0000000000000265
 30
0.0
 40
23.9998448162652984
  0
CIRCLE
  5
1700
  8
0
  6
VERDECKT
 62
     1
 10
0.0
 20
0.0000000000000268
 30
0.0
 40
24.0
  0
CIRCLE
  5
1701
  8
0
  6
VERDECKT
 62
     1
 10
0.0
 20
0.0000000000000268
 30
0.0
 40
25.5
  0
CIRCLE
  5
1702
  8
0
  6
VERDECKT
 62
     1
 10
0.0
 20
0.0000000000000265
 30
0.0
 40
25.4998448162652984
  0
ENDBLK
  5
1704
  8
0
  0
BLOCK
  8
0
  2
A$C6ED6770E
 70
     0
 10
0.0
 20
0.0
 30
0.0
  3
A$C6ED6770E
  1

  0
LINE
  5
1708
  8
0
  6
CONTINUOUS
 62
     3
 10
44.5
 20
23.0000000000001386
 30
-0.0000000000000051
 11
-44.5
 21
23.0000000000001386
 31
-0.0000000000000051
210
0.0
220
1.0
230
-0.0000000000000002
  0
LINE
  5
1709
  8
0
  6
CONTINUOUS
 62
     3
 10
44.4999999999998792
 20
25.0000000000000888
 30
-0.0000000000000056
 11
-44.4999999999998792
 21
25.0000000000000888
 31
-0.0000000000000056
210
0.0
220
1.0
230
-0.0000000000000002
  0
LINE
  5
170A
  8
0
  6
CONTINUOUS
 62
     3
 10
-44.5
 20
23.0000000000001386
 30
-0.0000000000000051
 11
-44.5
 21
25.0000000000000888
 31
-0.0000000000000056
210
0.0
220
1.0
230
-0.0000000000000002
  0
LINE
  5
170B
  8
0
  6
CONTINUOUS
 62
     3
 10
44.5
 20
23.0000000000001386
 30
-0.0000000000000051
 11
44.5
 21
25.0000000000000888
 31
-0.0000000000000056
210
0.0
220
1.0
230
-0.0000000000000002
  0
LINE
  5
170C
  8
0
  6
CONTINUOUS
 62
     3
 10
-44.4999999999998792
 20
279.9999999999996021
 30
-0.0000000000000622
 11
44.4999999999998792
 21
279.9999999999996021
 31
-0.0000000000000622
210
0.0
220
1.0
230
-0.0000000000000002
  0
LINE
  5
170D
  8
0
  6
CONTINUOUS
 62
     3
 10
-44.4999999999998792
 20
24.9999999999996092
 30
-0.0000000000000056
 11
44.4999999999998792
 21
24.9999999999996092
 31
-0.0000000000000056
210
0.0
220
1.0
230
-0.0000000000000002
  0
LINE
  5
170E
  8
0
  6
CONTINUOUS
 62
     3
 10
44.5
 20
279.9999999999996021
 30
-0.0000000000000622
 11
44.5
 21
239.9999999999996021
 31
-0.0000000000000533
210
0.0
220
1.0
230
-0.0000000000000002
  0
LINE
  5
170F
  8
0
  6
CONTINUOUS
 62
     3
 10
44.5
 20
223.9999999999996021
 30
-0.0000000000000497
 11
44.5
 21
24.9999999999996092
 31
-0.0000000000000056
210
0.0
220
1.0
230
-0.0000000000000002
  0
LINE
  5
1710
  8
0
  6
CONTINUOUS
 62
     3
 10
-44.5
 20
279.9999999999996021
 30
-0.0000000000000622
 11
-44.5
 21
239.9999999999996021
 31
-0.0000000000000533
210
0.0
220
1.0
230
-0.0000000000000002
  0
LINE
  5
1711
  8
0
  6
CONTINUOUS
 62
     3
 10
-44.5
 20
223.9999999999996021
 30
-0.0000000000000497
 11
-44.5
 21
24.9999999999996092
 31
-0.0000000000000056
210
0.0
220
1.0
230
-0.0000000000000002
  0
LINE
  5
1712
  8
0
  6
CONTINUOUS
 62
     3
 10
90.0
 20
239.9999999999996021
 30
-0.0000000000000533
 11
-90.0
 21
239.9999999999996021
 31
-0.0000000000000533
210
0.0
220
1.0
230
-0.0000000000000002
  0
LINE
  5
1713
  8
0
  6
CONTINUOUS
 62
     3
 10
-89.9999999999999858
 20
231.9999999999996021
 30
-0.0000000000000515
 11
90.0
 21
231.9999999999996021
 31
-0.0000000000000515
210
0.0
220
1.0
230
-0.0000000000000002
  0
LINE
  5
1714
  8
0
  6
CONTINUOUS
 62
     3
 10
90.0
 20
239.9999999999996021
 30
-0.0000000000000533
 11
90.0
 21
231.9999999999996021
 31
-0.0000000000000515
210
0.0
220
1.0
230
-0.0000000000000002
  0
LINE
  5
1715
  8
0
  6
CONTINUOUS
 62
     3
 10
-90.0
 20
239.9999999999996021
 30
-0.0000000000000533
 11
-90.0
 21
231.9999999999996021
 31
-0.0000000000000515
210
0.0
220
1.0
230
-0.0000000000000002
  0
LINE
  5
1716
  8
0
  6
CONTINUOUS
 62
     3
 10
90.0
 20
231.9999999999996021
 30
-0.0000000000000515
 11
-90.0
 21
231.9999999999996021
 31
-0.0000000000000515
210
0.0
220
1.0
230
-0.0000000000000002
  0
LINE
  5
1717
  8
0
  6
CONTINUOUS
 62
     3
 10
-89.9999999999999858
 20
223.9999999999996021
 30
-0.0000000000000497
 11
90.0
 21
223.9999999999996021
 31
-0.0000000000000497
210
0.0
220
1.0
230
-0.0000000000000002
  0
LINE
  5
1718
  8
0
  6
CONTINUOUS
 62
     3
 10
90.0
 20
231.9999999999996021
 30
-0.0000000000000515
 11
90.0
 21
223.9999999999996021
 31
-0.0000000000000497
210
0.0
220
1.0
230
-0.0000000000000002
  0
LINE
  5
1719
  8
0
  6
CONTINUOUS
 62
     3
 10
-90.0
 20
231.9999999999996021
 30
-0.0000000000000515
 11
-90.0
 21
223.9999999999996021
 31
-0.0000000000000497
210
0.0
220
1.0
230
-0.0000000000000002
  0
LINE
  5
171A
  8
0
  6
CONTINUOUS
 62
     3
 10
-20.5682864386852806
 20
0.0
 30
0.0
 11
20.5682864386852806
 21
0.0
 31
0.0
210
0.0
220
1.0
230
-0.0000000000000002
  0
LINE
  5
171B
  8
0
  6
CONTINUOUS
 62
     3
 10
21.0
 20
23.0000000000001386
 30
-0.0000000000000051
 11
21.0
 21
4.9345085856377304
 31
-0.0000000000000011
210
0.0
220
1.0
230
-0.0000000000000002
  0
LINE
  5
171C
  8
0
  6
CONTINUOUS
 62
     3
 10
-21.0
 20
23.0000000000001386
 30
-0.0000000000000051
 11
-21.0
 21
4.9345085856377304
 31
-0.0000000000000011
210
0.0
220
1.0
230
-0.0000000000000002
  0
LINE
  5
171D
  8
0
  6
CONTINUOUS
 62
     3
 10
-20.5682864386852806
 20
0.0
 30
0.0
 11
-20.9999999999998792
 21
4.9345085856377304
 31
-0.0000000000000011
210
0.0
220
1.0
230
-0.0000000000000002
  0
LINE
  5
171E
  8
0
  6
CONTINUOUS
 62
     3
 10
20.5682864386852806
 20
0.0
 30
0.0
 11
20.9999999999998792
 21
4.9345085856377304
 31
-0.0000000000000011
210
0.0
220
1.0
230
-0.0000000000000002
  0
LINE
  5
171F
  8
0
  6
VERDECKT
 62
     1
 10
24.5
 20
31.0000000000018012
 30
-0.0000000000000069
 11
-24.5
 21
31.0000000000018012
 31
-0.0000000000000069
210
0.0
220
1.0
230
-0.0000000000000002
  0
LINE
  5
1720
  8
0
  6
VERDECKT
 62
     1
 10
42.8999999999998565
 20
41.0000000000017906
 30
-0.0000000000000091
 11
-42.8999999999998565
 21
41.0000000000017906
 31
-0.0000000000000091
210
0.0
220
1.0
230
-0.0000000000000002
  0
LINE
  5
1721
  8
0
  6
VERDECKT
 62
     1
 10
39.0
 20
34.0000000000017408
 30
-0.0000000000000075
 11
-39.0
 21
34.0000000000017408
 31
-0.0000000000000075
210
0.0
220
1.0
230
-0.0000000000000002
  0
LINE
  5
1722
  8
0
  6
VERDECKT
 62
     1
 10
-21.0
 20
31.0000000000018012
 30
-0.0000000000000069
 11
-21.0
 21
41.0000000000017906
 31
-0.0000000000000091
210
0.0
220
1.0
230
-0.0000000000000002
  0
LINE
  5
1723
  8
0
  6
VERDECKT
 62
     1
 10
21.0
 20
31.0000000000018012
 30
-0.0000000000000069
 11
21.0
 21
41.0000000000017906
 31
-0.0000000000000091
210
0.0
220
1.0
230
-0.0000000000000002
  0
LINE
  5
1724
  8
0
  6
VERDECKT
 62
     1
 10
24.5
 20
31.0000000000018012
 30
-0.0000000000000069
 11
27.9641016151376789
 21
25.0000000000018012
 31
-0.0000000000000056
210
0.0
220
1.0
230
-0.0000000000000002
  0
LINE
  5
1725
  8
0
  6
VERDECKT
 62
     1
 10
-24.5
 20
31.0000000000018012
 30
-0.0000000000000069
 11
-27.9641016151376789
 21
25.0000000000018012
 31
-0.0000000000000056
210
0.0
220
1.0
230
-0.0000000000000002
  0
LINE
  5
1726
  8
0
  6
VERDECKT
 62
     1
 10
-38.4999999999996589
 20
22.9999999999999183
 30
-0.0000000000000051
 11
-38.4999999999996589
 21
24.9999999999999183
 31
-0.0000000000000056
210
0.0
220
1.0
230
-0.0000000000000002
  0
LINE
  5
1727
  8
0
  6
VERDECKT
 62
     1
 10
38.4999999999996589
 20
22.9999999999999183
 30
-0.0000000000000051
 11
38.4999999999996589
 21
24.9999999999999183
 31
-0.0000000000000056
210
0.0
220
1.0
230
-0.0000000000000002
  0
LINE
  5
1728
  8
0
  6
VERDECKT
 62
     1
 10
-42.8999999999998565
 20
25.0000000000000284
 30
-0.0000000000000056
 11
-42.8999999999998565
 21
41.0000000000017906
 31
-0.0000000000000091
210
0.0
220
1.0
230
-0.0000000000000002
  0
LINE
  5
1729
  8
0
  6
VERDECKT
 62
     1
 10
42.8999999999998565
 20
25.0000000000000284
 30
-0.0000000000000056
 11
42.8999999999998565
 21
41.0000000000017906
 31
-0.0000000000000091
210
0.0
220
1.0
230
-0.0000000000000002
  0
LINE
  5
172A
  8
0
  6
VERDECKT
 62
     1
 10
-39.0
 20
34.0000000000017408
 30
-0.0000000000000075
 11
-39.6124206446813787
 21
41.0000000000017408
 31
-0.0000000000000091
210
0.0
220
1.0
230
-0.0000000000000002
  0
LINE
  5
172B
  8
0
  6
VERDECKT
 62
     1
 10
39.0
 20
34.0000000000017408
 30
-0.0000000000000075
 11
39.6124206446813787
 21
41.0000000000017408
 31
-0.0000000000000091
210
0.0
220
1.0
230
-0.0000000000000002
  0
LINE
  5
172C
  8
0
  6
VERDECKT
 62
     1
 10
25.9585481156725599
 20
41.0000000000017906
 30
-0.0000000000000091
 11
30.0
 21
34.0000000000017408
 31
-0.0000000000000075
210
0.0
220
1.0
230
-0.0000000000000002
  0
LINE
  5
172D
  8
0
  6
VERDECKT
 62
     1
 10
-25.9585481156725599
 20
41.0000000000017906
 30
-0.0000000000000091
 11
-30.0
 21
34.0000000000017408
 31
-0.0000000000000075
210
0.0
220
1.0
230
-0.0000000000000002
  0
LINE
  5
172E
  8
0
  6
VERDECKT
 62
     1
 10
42.8999999999998565
 20
279.9999999999996021
 30
-0.0000000000000622
 11
42.8999999999998565
 21
24.9999999999995595
 31
-0.0000000000000056
210
0.0
220
1.0
230
-0.0000000000000002
  0
LINE
  5
172F
  8
0
  6
VERDECKT
 62
     1
 10
-42.8999999999998565
 20
279.9999999999996021
 30
-0.0000000000000622
 11
-42.8999999999998565
 21
24.9999999999995595
 31
-0.0000000000000056
210
0.0
220
1.0
230
-0.0000000000000002
  0
LINE
  5
1730
  8
0
  6
VERDECKT
 62
     1
 10
44.5
 20
239.9999999999996021
 30
-0.0000000000000533
 11
44.5
 21
223.9999999999996021
 31
-0.0000000000000497
210
0.0
220
1.0
230
-0.0000000000000002
  0
LINE
  5
1731
  8
0
  6
VERDECKT
 62
     1
 10
-44.5
 20
239.9999999999996021
 30
-0.0000000000000533
 11
-44.5
 21
223.9999999999996021
 31
-0.0000000000000497
210
0.0
220
1.0
230
-0.0000000000000002
  0
LINE
  5
1732
  8
0
  6
VERDECKT
 62
     1
 10
-42.8999999999998565
 20
265.9999999999997158
 30
-0.0000000000000591
 11
42.8999999999998565
 21
265.9999999999997158
 31
-0.0000000000000591
210
0.0
220
1.0
230
-0.0000000000000002
  0
LINE
  5
1733
  8
0
  6
VERDECKT
 62
     1
 10
-25.5
 20
268.3669999999996207
 30
-0.0000000000000596
 11
25.5
 21
268.3669999999996207
 31
-0.0000000000000596
210
0.0
220
1.0
230
-0.0000000000000002
  0
ARC
  5
1734
  8
0
  6
VERDECKT
 62
     1
 10
8.9999999999976161
 20
273.4578196795903864
 30
0.0
 40
16.5000000000023803
210
0.0
220
-0.0000000000000002
230
-1.0
 50
0.0000000000015776
 51
23.3592945446412017
  0
ARC
  5
1735
  8
0
  6
VERDECKT
 62
     1
 10
-8.9999999999975415
 20
273.4578196795903864
 30
0.0
 40
16.5000000000024301
210
0.0
220
-0.0000000000000002
230
-1.0
 50
156.6407054553588978
 51
179.9999999999984084
  0
LINE
  5
1736
  8
0
  6
VERDECKT
 62
     1
 10
42.8999999999998565
 20
279.9999999999996021
 30
-0.0000000000000622
 11
42.8999999999998565
 21
265.9999999999997158
 31
-0.0000000000000591
210
0.0
220
1.0
230
-0.0000000000000002
  0
LINE
  5
1737
  8
0
  6
VERDECKT
 62
     1
 10
-42.8999999999998565
 20
279.9999999999996021
 30
-0.0000000000000622
 11
-42.8999999999998565
 21
265.9999999999997158
 31
-0.0000000000000591
210
0.0
220
1.0
230
-0.0000000000000002
  0
ARC
  5
1738
  8
0
  6
VERDECKT
 62
     1
 10
5.5000000000497202
 20
268.3669999999962101
 30
0.0
 40
19.9998448162155711
210
0.0
220
-0.0000000000000002
230
-1.0
 50
353.2030610644279136
 51
0.0000000000097707
  0
ARC
  5
1739
  8
0
  6
VERDECKT
 62
     1
 10
-5.5000000000497202
 20
268.3669999999962101
 30
0.0
 40
19.9998448162155711
210
0.0
220
-0.0000000000000002
230
-1.0
 50
179.9999999999901945
 51
186.7969389355720864
  0
LINE
  5
173A
  8
0
  6
VERDECKT
 62
     1
 10
25.5
 20
273.4578196795907843
 30
-0.0000000000000607
 11
25.5
 21
268.3669999999996207
 31
-0.0000000000000596
210
0.0
220
1.0
230
-0.0000000000000002
  0
LINE
  5
173B
  8
0
  6
VERDECKT
 62
     1
 10
-25.5
 20
273.4578196795907843
 30
-0.0000000000000607
 11
-25.5
 21
268.3669999999996207
 31
-0.0000000000000596
210
0.0
220
1.0
230
-0.0000000000000002
  0
LINE
  5
173C
  8
0
  6
VERDECKT
 62
     1
 10
45.4999999999999929
 20
239.9999999999996021
 30
-0.0000000000000533
 11
45.4999999999999929
 21
231.9999999999996021
 31
-0.0000000000000515
210
0.0
220
1.0
230
-0.0000000000000002
  0
LINE
  5
173D
  8
0
  6
VERDECKT
 62
     1
 10
-45.4999999999999929
 20
239.9999999999996021
 30
-0.0000000000000533
 11
-45.4999999999999929
 21
231.9999999999996021
 31
-0.0000000000000515
210
0.0
220
1.0
230
-0.0000000000000002
  0
LINE
  5
173E
  8
0
  6
VERDECKT
 62
     1
 10
45.4999999999999929
 20
231.9999999999996021
 30
-0.0000000000000515
 11
45.4999999999999929
 21
223.9999999999996021
 31
-0.0000000000000497
210
0.0
220
1.0
230
-0.0000000000000002
  0
LINE
  5
173F
  8
0
  6
VERDECKT
 62
     1
 10
-45.4999999999999929
 20
231.9999999999996021
 30
-0.0000000000000515
 11
-45.4999999999999929
 21
223.9999999999996021
 31
-0.0000000000000497
210
0.0
220
1.0
230
-0.0000000000000002
  0
LINE
  5
1740
  8
0
  6
VERDECKT
 62
     1
 10
-25.4999999999998899
 20
268.3670000000000755
 30
-0.0000000000000596
 11
25.4999999999998899
 21
268.3670000000000755
 31
-0.0000000000000596
210
0.0
220
1.0
230
-0.0000000000000002
  0
ARC
  5
1741
  8
0
  6
VERDECKT
 62
     1
 10
13.9999999999995808
 20
254.8218253804967048
 30
0.0
 40
10.0000000000004405
210
0.0
220
-0.0000000000000002
230
-1.0
 50
324.3409123038618986
 51
359.9999999999992042
  0
ARC
  5
1742
  8
0
  6
VERDECKT
 62
     1
 10
-13.9999999999995808
 20
254.8218253804967048
 30
0.0
 40
10.0000000000004405
210
0.0
220
-0.0000000000000002
230
-1.0
 50
180.0000000000007105
 51
215.6590876961381014
  0
ARC
  5
1743
  8
0
  6
VERDECKT
 62
     1
 10
26.9999999999993605
 20
245.4944463274078998
 30
0.0
 40
5.9999999999993516
210
0.0
220
-0.0000000000000002
230
-1.0
 50
144.3409123038593123
 51
180.0000000000021032
  0
ARC
  5
1744
  8
0
  6
VERDECKT
 62
     1
 10
-26.9999999999993605
 20
245.4944463274078998
 30
0.0
 40
5.9999999999993587
210
0.0
220
-0.0000000000000002
230
-1.0
 50
359.9999999999977831
 51
35.6590876961407517
  0
LINE
  5
1745
  8
0
  6
VERDECKT
 62
     1
 10
21.0
 20
245.4944463274077009
 30
-0.0000000000000545
 11
21.0
 21
23.0000000000001386
 31
-0.0000000000000051
210
0.0
220
1.0
230
-0.0000000000000002
  0
LINE
  5
1746
  8
0
  6
VERDECKT
 62
     1
 10
-21.0
 20
245.4944463274077009
 30
-0.0000000000000545
 11
-21.0
 21
23.0000000000001386
 31
-0.0000000000000051
210
0.0
220
1.0
230
-0.0000000000000002
  0
LINE
  5
1747
  8
0
  6
VERDECKT
 62
     1
 10
-19.0625566823703103
 20
-0.0000000000000004
 30
0.0
 11
-19.5
 21
5.0000000000009104
 31
-0.0000000000000011
210
0.0
220
1.0
230
-0.0000000000000002
  0
LINE
  5
1748
  8
0
  6
VERDECKT
 62
     1
 10
19.0625566823703103
 20
-0.0000000000000004
 30
0.0
 11
19.5
 21
5.0000000000009104
 31
-0.0000000000000011
210
0.0
220
1.0
230
-0.0000000000000002
  0
LINE
  5
1749
  8
0
  6
VERDECKT
 62
     1
 10
19.5
 20
245.4944463274077009
 30
-0.0000000000000545
 11
19.5
 21
5.0000000000009104
 31
-0.0000000000000011
210
0.0
220
1.0
230
-0.0000000000000002
  0
LINE
  5
174A
  8
0
  6
VERDECKT
 62
     1
 10
-19.5
 20
245.4944463274077009
 30
-0.0000000000000545
 11
-19.5
 21
5.0000000000009104
 31
-0.0000000000000011
210
0.0
220
1.0
230
-0.0000000000000002
  0
ARC
  5
174B
  8
0
  6
VERDECKT
 62
     1
 10
27.0000000000008384
 20
245.4944463274075019
 30
0.0
 40
7.5000000000008384
210
0.0
220
-0.0000000000000002
230
-1.0
 50
144.3409123038632913
 51
179.9999999999984084
  0
ARC
  5
174C
  8
0
  6
VERDECKT
 62
     1
 10
-27.0000000000008384
 20
245.4944463274075019
 30
0.0
 40
7.5000000000008242
210
0.0
220
-0.0000000000000002
230
-1.0
 50
0.0
 51
35.6590876961351384
  0
ARC
  5
174D
  8
0
  6
VERDECKT
 62
     1
 10
13.99999999999892
 20
254.8218253804969038
 30
0.0
 40
8.5000000000010871
210
0.0
220
-0.0000000000000002
230
-1.0
 50
324.3409123038634903
 51
359.9999999999974989
  0
ARC
  5
174E
  8
0
  6
VERDECKT
 62
     1
 10
-13.9999999999989804
 20
254.8218253804969038
 30
0.0
 40
8.5000000000010161
210
0.0
220
-0.0000000000000002
230
-1.0
 50
180.0000000000021885
 51
215.6590876961365097
  0
LINE
  5
174F
  8
0
  6
VERDECKT
 62
     1
 10
22.5
 20
258.9999999999998863
 30
-0.0000000000000575
 11
22.5
 21
254.8218253804965059
 31
-0.0000000000000566
210
0.0
220
1.0
230
-0.0000000000000002
  0
LINE
  5
1750
  8
0
  6
VERDECKT
 62
     1
 10
-22.5
 20
258.9999999999998863
 30
-0.0000000000000575
 11
-22.5
 21
254.8218253804965059
 31
-0.0000000000000566
210
0.0
220
1.0
230
-0.0000000000000002
  0
ARC
  5
1751
  8
0
  6
VERDECKT
 62
     1
 10
33.999999999995751
 20
259.0000000000007958
 30
0.0
 40
11.4999999999957492
210
0.0
220
-0.0000000000000002
230
-1.0
 50
161.8060294016129035
 51
180.0000000000042064
  0
ARC
  5
1752
  8
0
  6
VERDECKT
 62
     1
 10
-33.999999999995751
 20
259.0000000000007958
 30
0.0
 40
11.4999999999957492
210
0.0
220
-0.0000000000000002
230
-1.0
 50
359.9999999999956799
 51
18.1939705983870788
  0
ARC
  5
1753
  8
0
  6
VERDECKT
 62
     1
 10
5.5000000000004468
 20
268.3670000000000186
 30
0.0
 40
18.4998448162648295
210
0.0
220
-0.0000000000000002
230
-1.0
 50
341.806029401615092
 51
0.0000000000003562
  0
ARC
  5
1754
  8
0
  6
VERDECKT
 62
     1
 10
-5.5000000000003011
 20
268.3670000000000186
 30
0.0
 40
18.4998448162649893
210
0.0
220
-0.0000000000000002
230
-1.0
 50
179.999999999999801
 51
198.193970598384908
  0
LINE
  5
1755
  8
0
  6
VERDECKT
 62
     1
 10
24.0
 20
273.4578196795912959
 30
-0.0000000000000607
 11
24.0
 21
268.3670000000000755
 31
-0.0000000000000596
210
0.0
220
1.0
230
-0.0000000000000002
  0
LINE
  5
1756
  8
0
  6
VERDECKT
 62
     1
 10
-24.0
 20
273.4578196795912959
 30
-0.0000000000000607
 11
-24.0
 21
268.3670000000000755
 31
-0.0000000000000596
210
0.0
220
1.0
230
-0.0000000000000002
  0
ARC
  5
1757
  8
0
  6
VERDECKT
 62
     1
 10
8.9999999999997158
 20
273.4578196795915233
 30
0.0
 40
15.00000000000027
210
0.0
220
-0.0000000000000002
230
-1.0
 50
0.0
 51
24.9999999999919602
  0
ARC
  5
1758
  8
0
  6
VERDECKT
 62
     1
 10
-8.9999999999997193
 20
273.4578196795915233
 30
0.0
 40
15.0000000000002807
210
0.0
220
-0.0000000000000002
230
-1.0
 50
155.000000000008697
 51
180.0000000000005969
  0
LINE
  5
1759
  8
0
  6
VERDECKT
 62
     1
 10
22.5000000000000107
 20
280.0000000000001137
 30
-0.0000000000000622
 11
22.5946168055507002
 21
279.7970936057000131
 31
-0.0000000000000621
210
0.0
220
1.0
230
-0.0000000000000002
  0
LINE
  5
175A
  8
0
  6
VERDECKT
 62
     1
 10
-22.5000000000000107
 20
280.0000000000001137
 30
-0.0000000000000622
 11
-22.5946168055507002
 21
279.7970936057000131
 31
-0.0000000000000621
210
0.0
220
1.0
230
-0.0000000000000002
  0
ARC
  5
175B
  8
0
  6
VERDECKT
 62
     1
 10
8.9999999999991935
 20
273.4578196795915233
 30
0.0
 40
16.50000000000081
210
0.0
220
-0.0000000000000002
230
-1.0
 50
359.9999999999973852
 51
23.3592945446394502
  0
ARC
  5
175C
  8
0
  6
VERDECKT
 62
     1
 10
-8.9999999999991864
 20
273.4578196795915233
 30
0.0
 40
16.50000000000081
210
0.0
220
-0.0000000000000002
230
-1.0
 50
156.6407054553604894
 51
180.0000000000025011
  0
LINE
  5
175D
  8
0
  6
VERDECKT
 62
     1
 10
25.5
 20
273.4578196795907274
 30
-0.0000000000000607
 11
25.5
 21
268.3670000000000755
 31
-0.0000000000000596
210
0.0
220
1.0
230
-0.0000000000000002
  0
LINE
  5
175E
  8
0
  6
VERDECKT
 62
     1
 10
-25.5
 20
273.4578196795907274
 30
-0.0000000000000607
 11
-25.5
 21
268.3670000000000755
 31
-0.0000000000000596
210
0.0
220
1.0
230
-0.0000000000000002
  0
ARC
  5
175F
  8
0
  6
VERDECKT
 62
     1
 10
5.500000000000778
 20
268.3669999999996207
 30
0.0
 40
19.9998448162645204
210
0.0
220
-0.0000000000000002
230
-1.0
 50
341.8060294016161151
 51
0.000000000001145
  0
ARC
  5
1760
  8
0
  6
VERDECKT
 62
     1
 10
-5.5000000000013642
 20
268.3669999999995071
 30
0.0
 40
19.9998448162639306
210
0.0
220
-0.0000000000000002
230
-1.0
 50
179.9999999999984084
 51
198.1939705983841122
  0
ARC
  5
1761
  8
0
  6
VERDECKT
 62
     1
 10
34.0000000000040501
 20
258.9999999999990905
 30
0.0
 40
10.0000000000040501
210
0.0
220
-0.0000000000000002
230
-1.0
 50
161.8060294016173088
 51
179.9999999999934914
  0
ARC
  5
1762
  8
0
  6
VERDECKT
 62
     1
 10
-34.000000000004043
 20
258.9999999999990905
 30
0.0
 40
10.0000000000040394
210
0.0
220
-0.0000000000000002
230
-1.0
 50
0.0000000000065138
 51
18.1939705983826983
  0
LINE
  5
1763
  8
0
  6
VERDECKT
 62
     1
 10
24.0
 20
259.0000000000002274
 30
-0.0000000000000575
 11
24.0
 21
254.8218253804965059
 31
-0.0000000000000566
210
0.0
220
1.0
230
-0.0000000000000002
  0
LINE
  5
1764
  8
0
  6
VERDECKT
 62
     1
 10
-24.0
 20
259.0000000000002842
 30
-0.0000000000000575
 11
-24.0
 21
254.8218253804965059
 31
-0.0000000000000566
210
0.0
220
1.0
230
-0.0000000000000002
  0
ENDBLK
  5
1766
  8
0
  0
ENDSEC
  0
SECTION
  2
ENTITIES
  0
TEXT
  5
8F
  8
VOLL
 10
78.076754716981128
 20
31.025947764705851
 30
0.0
 40
1.8
  1

  7
GREEKS
  0
TEXT
  5
291
  8
VOLL
 10
514.4882254450847086
 20
244.6707450644115909
 30
0.0
 40
1.8
  1

  7
GREEKS
  0
TEXT
  5
29F
  8
BEM
 10
989.0924386451680448
 20
259.5188084196681757
 30
0.0
 40
2.5
  1

 41
0.8
  7
GREEKS
 72
     4
 11
989.0924386451680448
 21
259.5188084196681757
 31
0.0
  0
TEXT
  5
85D
  8
VOLL
 10
558.8061809774020503
 20
203.757240889328699
 30
0.0
 40
1.8
  1

  7
GREEKS
  0
INSERT
  5
1705
  8
STEMPEL
  2
A$C7DA3213F
 10
0.0
 20
-140.0
 30
0.0
  0
INSERT
  5
1767
  8
STEMPEL
  2
A$C6ED6770E
 10
0.0
 20
0.0
 30
0.0
  0
VIEWPORT
  5
1151
 67
     1
  8
0
 10
5.1810392946289037
 20
7.474089275355146
 30
0.0
 40
30.3898498545597704
 41
15.4774334916649003
 68
     1
 69
     1
1001
ACAD
1000
MVIEW
1002
{
1070
    16
1010
0.0
1020
0.0
1030
0.0
1010
0.0
1020
0.0
1030
1.0
1040
0.0
1040
15.4774334916649003
1040
5.1810392946289037
1040
7.474089275355146
1040
50.0
1040
0.0
1040
0.0
1070
     0
1070
  1500
1070
     1
1070
     1
1070
     0
1070
     0
1070
     0
1070
     0
1040
0.0
1040
0.0
1040
0.0
1040
10.0
1040
10.0
1040
10.0
1040
10.0
1070
     0
1002
{
1002
}
1002
}
  0
VIEWPORT
  5
1155
 67
     1
  8
DEFPOINTS
 10
5.1812169347138619
 20
7.4742014121256961
 30
0.0
 40
10.8802431145758796
 41
15.3572288625009996
 68
     2
 69
     2
1001
ACAD
1000
MVIEW
1002
{
1070
    16
1010
598.5493990143662586
1020
98.5559027827475944
1030
-55.3035965039515816
1010
0.0
1020
0.0
1030
1.0
1040
0.0
1040
634.8428518331414807
1040
-385.6497401638804945
1040
210.0677745505487906
1040
50.0
1040
0.0
1040
0.0
1070
     0
1070
  1500
1070
     1
1070
     0
1070
     0
1070
     0
1070
     0
1070
     0
1040
0.0
1040
0.0
1040
0.0
1040
1.0
1040
1.0
1040
20.0
1040
20.0
1070
     0
1002
{
1002
}
1002
}
  0
VIEWPORT
  5
11CA
 67
     1
  8
DEFPOINTS
 10
7.6921107143939764
 20
7.4649691060413028
 30
0.0
 40
3.4969408357794971
 41
5.7372464714937372
 68
     3
 69
     3
1001
ACAD
1000
MVIEW
1002
{
1070
    16
1010
788.8640482125025528
1020
299.7537427354279203
1030
-46.1450227481126376
1010
0.0
1020
115.0195261115887035
1030
426.136556754202104
1040
3.1415926535897918
1040
316.5911458115821802
1040
0.0
1040
0.0
1040
50.0
1040
0.0
1040
0.0
1070
     0
1070
  1500
1070
     1
1070
     0
1070
     0
1070
     0
1070
     0
1070
     0
1040
0.0
1040
0.0
1040
0.0
1040
1.0
1040
1.0
1040
20.0
1040
20.0
1070
     0
1002
{
1002
}
1002
}
  0
ENDSEC
  0
EOF
