  0
SECTION
  2
HEADER
  9
$ACADVER
  1
AC1009
  9
$INSBASE
 10
0.0
 20
0.0
 30
0.0
  9
$EXTMIN
 10
-95.0157153536747501
 20
-240.0520768117301031
 30
-0.0097648799535364
  9
$EXTMAX
 10
95.0366982084660776
 20
320.044282291136085
 30
0.0146488100458555
  9
$LIMMIN
 10
0.0
 20
0.0
  9
$LIMMAX
 10
419.9999999999998863
 20
594.0
  9
$ORTHOMODE
 70
     1
  9
$REGENMODE
 70
     1
  9
$FILLMODE
 70
     1
  9
$QTEXTMODE
 70
     0
  9
$MIRRTEXT
 70
     1
  9
$DRAGMODE
 70
     2
  9
$LTSCALE
 40
20.0
  9
$OSMODE
 70
  2559
  9
$ATTMODE
 70
     1
  9
$TEXTSIZE
 40
3.5
  9
$TRACEWID
 40
0.5
  9
$TEXTSTYLE
  7
STANDARD
  9
$CLAYER
  8
STEMPEL
  9
$CELTYPE
  6
BYLAYER
  9
$CECOLOR
 62
   256
  9
$DIMSCALE
 40
2.0
  9
$DIMASZ
 40
3.5
  9
$DIMEXO
 40
1.0
  9
$DIMDLI
 40
7.0
  9
$DIMRND
 40
0.0
  9
$DIMDLE
 40
0.0
  9
$DIMEXE
 40
1.0
  9
$DIMTP
 40
1.0
  9
$DIMTM
 40
0.000000001
  9
$DIMTXT
 40
3.5
  9
$DIMCEN
 40
1.5
  9
$DIMTSZ
 40
0.0
  9
$DIMTOL
 70
     0
  9
$DIMLIM
 70
     0
  9
$DIMTIH
 70
     0
  9
$DIMTOH
 70
     0
  9
$DIMSE1
 70
     0
  9
$DIMSE2
 70
     0
  9
$DIMTAD
 70
     1
  9
$DIMZIN
 70
     8
  9
$DIMBLK
  1

  9
$DIMASO
 70
     1
  9
$DIMSHO
 70
     0
  9
$DIMPOST
  1

  9
$DIMAPOST
  1

  9
$DIMALT
 70
     0
  9
$DIMALTD
 70
     2
  9
$DIMALTF
 40
25.3999999999999986
  9
$DIMLFAC
 40
1.0
  9
$DIMTOFL
 70
     1
  9
$DIMTVP
 40
0.0
  9
$DIMTIX
 70
     0
  9
$DIMSOXD
 70
     0
  9
$DIMSAH
 70
     0
  9
$DIMBLK1
  1

  9
$DIMBLK2
  1

  9
$DIMSTYLE
  2
STANDARD
  9
$DIMCLRD
 70
     0
  9
$DIMCLRE
 70
     0
  9
$DIMCLRT
 70
     1
  9
$DIMTFAC
 40
0.5
  9
$DIMGAP
 40
1.5
  9
$LUNITS
 70
     2
  9
$LUPREC
 70
     2
  9
$SKETCHINC
 40
1.0
  9
$FILLETRAD
 40
0.0
  9
$AUNITS
 70
     0
  9
$AUPREC
 70
     0
  9
$MENU
  1
ACAD
  9
$ELEVATION
 40
0.0
  9
$PELEVATION
 40
0.0
  9
$THICKNESS
 40
0.0
  9
$LIMCHECK
 70
     0
  9
$BLIPMODE
 70
     0
  9
$CHAMFERA
 40
0.0
  9
$CHAMFERB
 40
0.0
  9
$SKPOLY
 70
     0
  9
$TDCREATE
 40
2455397.8646990740671754
  9
$TDUPDATE
 40
2458389.6210995367728174
  9
$TDINDWG
 40
0.1860115278
  9
$TDUSRTIMER
 40
0.1860115278
  9
$USRTIMER
 70
     1
  9
$ANGBASE
 50
0.0
  9
$ANGDIR
 70
     0
  9
$PDMODE
 70
     0
  9
$PDSIZE
 40
0.0
  9
$PLINEWID
 40
0.0
  9
$COORDS
 70
     1
  9
$SPLFRAME
 70
     0
  9
$SPLINETYPE
 70
     6
  9
$SPLINESEGS
 70
     8
  9
$ATTDIA
 70
     1
  9
$ATTREQ
 70
     1
  9
$HANDLING
 70
     1
  9
$HANDSEED
  5
140D
  9
$SURFTAB1
 70
     6
  9
$SURFTAB2
 70
     6
  9
$SURFTYPE
 70
     6
  9
$SURFU
 70
     6
  9
$SURFV
 70
     6
  9
$UCSNAME
  2

  9
$UCSORG
 10
0.0
 20
0.0
 30
0.0
  9
$UCSXDIR
 10
1.0
 20
0.0
 30
0.0
  9
$UCSYDIR
 10
0.0
 20
1.0
 30
0.0
  9
$PUCSNAME
  2

  9
$PUCSORG
 10
0.0
 20
0.0
 30
0.0
  9
$PUCSXDIR
 10
1.0
 20
0.0
 30
0.0
  9
$PUCSYDIR
 10
0.0
 20
1.0
 30
0.0
  9
$USERI1
 70
     0
  9
$USERI2
 70
     0
  9
$USERI3
 70
     0
  9
$USERI4
 70
     0
  9
$USERI5
 70
     0
  9
$USERR1
 40
0.0
  9
$USERR2
 40
0.0
  9
$USERR3
 40
0.0
  9
$USERR4
 40
0.0
  9
$USERR5
 40
0.0
  9
$WORLDVIEW
 70
     1
  9
$SHADEDGE
 70
     3
  9
$SHADEDIF
 70
    70
  9
$TILEMODE
 70
     1
  9
$MAXACTVP
 70
    16
  9
$PLIMCHECK
 70
     0
  9
$PEXTMIN
 10
-0.1890718712180117
 20
-0.169600395092079
 30
-0.0000000000000053
  9
$PEXTMAX
 10
9.7902522504149303
 20
13.6886903255468901
 30
0.0000000000000099
  9
$PLIMMIN
 10
-0.2500002402958907
 20
-0.2499999962453767
  9
$PLIMMAX
 10
10.7499995194082203
 20
8.2499997634587334
  9
$UNITMODE
 70
     0
  9
$VISRETAIN
 70
     0
  9
$PLINEGEN
 70
     0
  9
$PSLTSCALE
 70
     0
  0
ENDSEC
  0
SECTION
  2
TABLES
  0
TABLE
  2
VPORT
 70
     1
  0
VPORT
  2
*ACTIVE
 70
     0
 10
0.0
 20
0.0
 11
1.0
 21
1.0
 12
0.0104914273956638
 22
-72.5072084175235432
 13
0.0
 23
0.0
 14
1.0
 24
1.0
 15
10.0
 25
10.0
 16
-0.0000000000002606
 26
0.0
 36
1173.7731122240691093
 17
0.0
 27
112.5033111572265057
 37
-0.0000000000000355
 40
562.9515656913260955
 41
1.868197278911564
 42
50.0
 43
0.0
 44
0.0
 50
0.0
 51
0.0
 71
     0
 72
  1500
 73
     1
 74
     0
 75
     0
 76
     0
 77
     0
 78
     0
  0
ENDTAB
  0
TABLE
  2
LTYPE
 70
     5
  0
LTYPE
  2
CONTINUOUS
 70
     0
  3
Solid line
 72
    65
 73
     0
 40
0.0
  0
LTYPE
  2
PHANTOM2
 70
     0
  3
Phantom (.5x) ___ _ _ ___ _ _ ___ _ _ ___ _ _
 72
    65
 73
     6
 40
1.25
 49
0.625
 49
-0.125
 49
0.125
 49
-0.125
 49
0.125
 49
-0.125
  0
LTYPE
  2
VERDECKT
 70
     0
  3
_ _ _ _ _ _ _ _ _ _ _ _ _ _ _ _ _ _ _ _ _ _ _
 72
    65
 73
     2
 40
0.375
 49
0.25
 49
-0.125
  0
ENDTAB
  0
TABLE
  2
LAYER
 70
    11
  0
LAYER
  2
0
 70
     0
 62
     7
  6
CONTINUOUS
  0
LAYER
  2
VOLL
 70
     0
 62
     1
  6
CONTINUOUS
  0
LAYER
  2
BEM
 70
     0
 62
     7
  6
CONTINUOUS
  0
LAYER
  2
STEMPEL
 70
     0
 62
     3
  6
CONTINUOUS
  0
LAYER
  2
TEXT
 70
     0
 62
     7
  6
CONTINUOUS
  0
LAYER
  2
DEFPOINTS
 70
     0
 62
     7
  6
CONTINUOUS
  0
ENDTAB
  0
TABLE
  2
STYLE
 70
     2
  0
STYLE
  2
STANDARD
 70
     0
 40
0.0
 41
0.8
 50
0.0
 71
     0
 42
3.5
  3
simplex.shx
  4

  0
STYLE
  2
GREEKS
 70
     0
 40
0.0
 41
0.8
 50
0.0
 71
     0
 42
2.5
  3
SIMPLEX.shx
  4

  0
ENDTAB
  0
TABLE
  2
VIEW
 70
     1
  0
ENDTAB
  0
TABLE
  2
UCS
 70
     0
  0
ENDTAB
  0
TABLE
  2
APPID
 70
    10
  0
APPID
  2
ACAD
 70
     0
  0
APPID
  2
ACAD_EXEMPT_FROM_CAD_STANDARDS
 70
     0
  0
APPID
  2
ACAD_NAV_VCDISPLAY
 70
     0
  0
APPID
  2
ACAD_MLEADERVER
 70
     0
  0
APPID
  2
ACAD_PSEXT
 70
     0
  0
APPID
  2
GRADIENTCOLOR1ACI
 70
     0
  0
APPID
  2
GRADIENTCOLOR2ACI
 70
     0
  0
APPID
  2
ACAECLAYERSTANDARD
 70
     0
  0
APPID
  2
ACCMTRANSPARENCY
 70
     0
  0
APPID
  2
ACAD_OBJECT_CHANGE_GUID
 70
     0
  0
ENDTAB
  0
TABLE
  2
DIMSTYLE
 70
     2
  0
DIMSTYLE
  2
STANDARD
 70
     0
  3

  4

  5

  6

  7

 40
1.0
 41
0.18
 42
0.0625
 43
0.38
 44
0.18
 45
0.0
 46
0.0
 47
0.0
 48
0.0
140
0.18
141
0.09
142
0.0
143
25.3999999999999986
144
1.0
145
0.0
146
1.0
147
0.09
 71
     0
 72
     0
 73
     1
 74
     1
 75
     0
 76
     0
 77
     0
 78
     0
170
     0
171
     2
172
     0
173
     0
174
     0
175
     0
176
     0
177
     0
178
     0
  0
ENDTAB
  0
ENDSEC
  0
SECTION
  2
BLOCKS
  0
BLOCK
  8
0
  2
$MODEL_SPACE
 70
     0
 10
0.0
 20
0.0
 30
0.0
  3
$MODEL_SPACE
  1

  0
ENDBLK
  5
36
  8
0
  0
BLOCK
 67
     1
  8
0
  2
$PAPER_SPACE
 70
     0
 10
0.0
 20
0.0
 30
0.0
  3
$PAPER_SPACE
  1

  0
ENDBLK
  5
34
 67
     1
  8
0
  0
BLOCK
  8
0
  2
A$C0A973067
 70
     0
 10
0.0
 20
0.0
 30
0.0
  3
A$C0A973067
  1

  0
CIRCLE
  5
136C
  8
0
  6
CONTINUOUS
 62
     3
 10
0.0
 20
0.000000000000008
 30
0.0
 40
47.9424963626023271
  0
CIRCLE
  5
136D
  8
0
  6
CONTINUOUS
 62
     3
 10
0.0000000000002815
 20
0.0000000000000229
 30
0.0
 40
48.9999999999999218
  0
CIRCLE
  5
136E
  8
0
  6
CONTINUOUS
 62
     3
 10
0.0000000000002885
 20
0.0000000000000249
 30
0.0
 40
53.0000000000000071
  0
CIRCLE
  5
136F
  8
0
  6
CONTINUOUS
 62
     3
 10
0.0000000000002984
 20
0.0000000000000276
 30
0.0
 40
53.4999999999999787
  0
CIRCLE
  5
1370
  8
0
  6
CONTINUOUS
 62
     3
 10
0.0000000000002984
 20
0.0000000000000276
 30
0.0
 40
55.7067558379248879
  0
CIRCLE
  5
1371
  8
0
  6
CONTINUOUS
 62
     3
 10
0.0000000000002956
 20
0.0000000000000268
 30
0.0
 40
58.9999999999999929
  0
CIRCLE
  5
1372
  8
0
  6
CONTINUOUS
 62
     3
 10
0.0000000000002807
 20
0.0000000000000289
 30
0.0
 40
95.0
  0
CIRCLE
  5
1373
  8
0
  6
VERDECKT
 62
     1
 10
0.0000000000002885
 20
0.0000000000000249
 30
0.0
 40
55.0000000000000071
  0
CIRCLE
  5
1374
  8
0
  6
VERDECKT
 62
     1
 10
0.0000000000002815
 20
0.0000000000000229
 30
0.0
 40
51.0000000000000426
  0
CIRCLE
  5
1375
  8
0
  6
VERDECKT
 62
     1
 10
0.0
 20
0.000000000000008
 30
0.0
 40
49.9501360376889068
  0
CIRCLE
  5
1376
  8
0
  6
VERDECKT
 62
     1
 10
0.0000000000002956
 20
0.0000000000000268
 30
0.0
 40
56.9999999999999929
  0
CIRCLE
  5
1377
  8
0
  6
VERDECKT
 62
     1
 10
0.0000000000002807
 20
0.0000000000000289
 30
0.0
 40
52.0
  0
ENDBLK
  5
1379
  8
0
  0
BLOCK
  8
0
  2
A$C19A54EC8
 70
     0
 10
0.0
 20
0.0
 30
0.0
  3
A$C19A54EC8
  1

  0
LINE
  5
137D
  8
0
  6
CONTINUOUS
 62
     3
 10
-49.9501360376889281
 20
0.0000000000000284
 30
0.0
 11
49.9501360376889281
 21
-0.0000000000000284
 31
0.0
210
0.0
220
1.0
230
-0.0000000000000002
  0
LINE
  5
137E
  8
0
  6
CONTINUOUS
 62
     3
 10
-55.7067558379246677
 20
320.0000000000001137
 30
-0.0000000000000711
 11
55.7067558379251224
 21
320.0
 31
-0.0000000000000711
210
0.0
220
1.0
230
-0.0000000000000002
  0
ARC
  5
137F
  8
0
  6
CONTINUOUS
 62
     3
 10
33.9999999999988418
 20
292.2332005306818132
 30
0.0
 40
25.0000000000009592
210
0.0
220
-0.0000000000000002
230
-1.0
 50
333.1119523822760016
 51
359.9999999999996021
  0
ARC
  5
1380
  8
0
  6
CONTINUOUS
 62
     3
 10
-33.9999999999986571
 20
292.2332005306819269
 30
0.0
 40
25.0000000000015916
210
0.0
220
-0.0000000000000002
230
-1.0
 50
180.0000000000007958
 51
206.8880476177237995
  0
ARC
  5
1381
  8
0
  6
CONTINUOUS
 62
     3
 10
66.9999999999975415
 20
275.5000000000006821
 30
0.0
 40
11.9999999999977494
210
0.0
220
-0.0000000000000002
230
-1.0
 50
153.1119523822746089
 51
180.000000000002899
  0
ARC
  5
1382
  8
0
  6
CONTINUOUS
 62
     3
 10
-66.9999999999979963
 20
275.5000000000006253
 30
0.0
 40
11.9999999999977494
210
0.0
220
-0.0000000000000002
230
-1.0
 50
359.9999999999969873
 51
26.8880476177253804
  0
LINE
  5
1383
  8
0
  6
CONTINUOUS
 62
     3
 10
55.0000000000002274
 20
275.4999999999998863
 30
-0.0000000000000612
 11
55.0000000000002203
 21
256.9274888769473932
 31
-0.000000000000057
210
0.0
220
1.0
230
-0.0000000000000002
  0
LINE
  5
1384
  8
0
  6
CONTINUOUS
 62
     3
 10
-54.9999999999997584
 20
275.5000000000001137
 30
-0.0000000000000612
 11
-54.9999999999997797
 21
256.9274888769476206
 31
-0.000000000000057
210
0.0
220
1.0
230
-0.0000000000000002
  0
ARC
  5
1385
  8
0
  6
CONTINUOUS
 62
     3
 10
40.0000000000002913
 20
256.9274888769473932
 30
0.0
 40
14.9999999999995293
210
0.0
220
-0.0000000000000002
230
-1.0
 50
325.6988472432082062
 51
0.0000000000006488
  0
ARC
  5
1386
  8
0
  6
CONTINUOUS
 62
     3
 10
-40.0000000000007319
 20
256.9274888769473932
 30
0.0
 40
14.9999999999995293
210
0.0
220
-0.0000000000000002
230
-1.0
 50
179.999999999999801
 51
214.3011527567919927
  0
ARC
  5
1387
  8
0
  6
CONTINUOUS
 62
     3
 10
59.0000000000015774
 20
243.9660074801313101
 30
0.0
 40
8.0000000000017764
210
0.0
220
-0.0000000000000002
230
-1.0
 50
145.6988472432117021
 51
179.9999999999957083
  0
ARC
  5
1388
  8
0
  6
CONTINUOUS
 62
     3
 10
-59.0000000000020108
 20
243.9660074801311964
 30
0.0
 40
8.000000000001755
210
0.0
220
-0.0000000000000002
230
-1.0
 50
0.0000000000040711
 51
34.3011527567880989
  0
LINE
  5
1389
  8
0
  6
CONTINUOUS
 62
     3
 10
51.0000000000001918
 20
243.9660074801317933
 30
-0.0000000000000542
 11
51.0000000000001918
 21
240.0000000000001137
 31
-0.0000000000000533
210
0.0
220
1.0
230
-0.0000000000000002
  0
LINE
  5
138A
  8
0
  6
CONTINUOUS
 62
     3
 10
51.0000000000001776
 20
224.0000000000001137
 30
-0.0000000000000497
 11
51.0000000000000426
 21
11.9999999999984102
 31
-0.0000000000000027
210
0.0
220
1.0
230
-0.0000000000000002
  0
LINE
  5
138B
  8
0
  6
CONTINUOUS
 62
     3
 10
-50.999999999999801
 20
243.966007480131907
 30
-0.0000000000000542
 11
-50.999999999999801
 21
240.0000000000001137
 31
-0.0000000000000533
210
0.0
220
1.0
230
-0.0000000000000002
  0
LINE
  5
138C
  8
0
  6
CONTINUOUS
 62
     3
 10
-50.9999999999998224
 20
224.0000000000001137
 30
-0.0000000000000497
 11
-50.9999999999999574
 21
11.9999999999985203
 31
-0.0000000000000027
210
0.0
220
1.0
230
-0.0000000000000002
  0
LINE
  5
138D
  8
0
  6
CONTINUOUS
 62
     3
 10
-49.9501360376889423
 20
0.000000000000032
 30
0.0
 11
-50.9999999999999929
 21
11.9999999999985008
 31
-0.0000000000000027
210
0.0
220
1.0
230
-0.0000000000000002
  0
LINE
  5
138E
  8
0
  6
CONTINUOUS
 62
     3
 10
49.9501360376889281
 20
-0.0000000000000568
 30
0.0
 11
51.0
 21
11.9999999999984102
 31
-0.0000000000000027
210
0.0
220
1.0
230
-0.0000000000000002
  0
LINE
  5
138F
  8
0
  6
CONTINUOUS
 62
     3
 10
55.7067558379251295
 20
320.0
 30
-0.0000000000000711
 11
56.6576946759169005
 21
317.9607050809449902
 31
-0.0000000000000706
210
0.0
220
1.0
230
-0.0000000000000002
  0
LINE
  5
1390
  8
0
  6
CONTINUOUS
 62
     3
 10
-55.7067558379246677
 20
320.0000000000001137
 30
-0.0000000000000711
 11
-56.6576946759164386
 21
317.9607050809451039
 31
-0.0000000000000706
210
0.0
220
1.0
230
-0.0000000000000002
  0
ARC
  5
1391
  8
0
  6
CONTINUOUS
 62
     3
 10
33.9999999999995879
 20
307.3952485374284151
 30
0.0
 40
25.0000000000001812
210
0.0
220
-0.0000000000000002
230
-1.0
 50
0.0000000000014376
 51
24.9999999999979501
  0
ARC
  5
1392
  8
0
  6
CONTINUOUS
 62
     3
 10
-34.0000000000001066
 20
307.3952485374284151
 30
0.0
 40
25.0000000000001101
210
0.0
220
-0.0000000000000002
230
-1.0
 50
155.0000000000023874
 51
179.9999999999988916
  0
LINE
  5
1393
  8
0
  6
CONTINUOUS
 62
     3
 10
59.0000000000002274
 20
307.3952485374289267
 30
-0.0000000000000683
 11
59.0000000000002203
 21
292.2332005306814722
 31
-0.0000000000000649
210
0.0
220
1.0
230
-0.0000000000000002
  0
LINE
  5
1394
  8
0
  6
CONTINUOUS
 62
     3
 10
-58.9999999999997726
 20
307.3952485374289836
 30
-0.0000000000000683
 11
-58.9999999999997797
 21
292.2332005306816995
 31
-0.0000000000000649
210
0.0
220
1.0
230
-0.0000000000000002
  0
LINE
  5
1395
  8
0
  6
CONTINUOUS
 62
     3
 10
95.0000000000002274
 20
232.0000000000001137
 30
-0.0000000000000515
 11
-94.9999999999997584
 21
232.0000000000001137
 31
-0.0000000000000515
210
0.0
220
1.0
230
-0.0000000000000002
  0
LINE
  5
1396
  8
0
  6
CONTINUOUS
 62
     3
 10
-94.9999999999997584
 20
224.0000000000001137
 30
-0.0000000000000497
 11
95.0000000000002274
 21
224.0000000000001137
 31
-0.0000000000000497
210
0.0
220
1.0
230
-0.0000000000000002
  0
LINE
  5
1397
  8
0
  6
CONTINUOUS
 62
     3
 10
95.0000000000002274
 20
232.0000000000001137
 30
-0.0000000000000515
 11
95.0000000000002274
 21
224.0000000000001137
 31
-0.0000000000000497
210
0.0
220
1.0
230
-0.0000000000000002
  0
LINE
  5
1398
  8
0
  6
CONTINUOUS
 62
     3
 10
-94.9999999999997584
 20
232.0000000000001137
 30
-0.0000000000000515
 11
-94.9999999999997584
 21
224.0000000000001137
 31
-0.0000000000000497
210
0.0
220
1.0
230
-0.0000000000000002
  0
LINE
  5
1399
  8
0
  6
CONTINUOUS
 62
     3
 10
95.0000000000002274
 20
240.0000000000001137
 30
-0.0000000000000533
 11
-94.9999999999997584
 21
240.0000000000001137
 31
-0.0000000000000533
210
0.0
220
1.0
230
-0.0000000000000002
  0
LINE
  5
139A
  8
0
  6
CONTINUOUS
 62
     3
 10
-94.9999999999997584
 20
232.0000000000001137
 30
-0.0000000000000515
 11
95.0000000000002274
 21
232.0000000000001137
 31
-0.0000000000000515
210
0.0
220
1.0
230
-0.0000000000000002
  0
LINE
  5
139B
  8
0
  6
CONTINUOUS
 62
     3
 10
95.0000000000002274
 20
240.0000000000001137
 30
-0.0000000000000533
 11
95.0000000000002274
 21
232.0000000000001137
 31
-0.0000000000000515
210
0.0
220
1.0
230
-0.0000000000000002
  0
LINE
  5
139C
  8
0
  6
CONTINUOUS
 62
     3
 10
-94.9999999999997584
 20
240.0000000000001137
 30
-0.0000000000000533
 11
-94.9999999999997584
 21
232.0000000000001137
 31
-0.0000000000000515
210
0.0
220
1.0
230
-0.0000000000000002
  0
LINE
  5
139D
  8
0
  6
VERDECKT
 62
     1
 10
51.0000000000001918
 20
240.0000000000001137
 30
-0.0000000000000533
 11
51.0000000000001776
 21
224.0000000000001137
 31
-0.0000000000000497
210
0.0
220
1.0
230
-0.0000000000000002
  0
LINE
  5
139E
  8
0
  6
VERDECKT
 62
     1
 10
-50.999999999999801
 20
240.0000000000001137
 30
-0.0000000000000533
 11
-50.9999999999998224
 21
224.0000000000001137
 31
-0.0000000000000497
210
0.0
220
1.0
230
-0.0000000000000002
  0
LINE
  5
139F
  8
0
  6
VERDECKT
 62
     1
 10
-47.9424963626024194
 20
0.000000000000024
 30
0.0
 11
-49.0000000000000497
 21
12.0873218858159603
 31
-0.0000000000000027
210
0.0
220
1.0
230
-0.0000000000000002
  0
LINE
  5
13A0
  8
0
  6
VERDECKT
 62
     1
 10
47.9424963626023981
 20
-0.0000000000000338
 30
0.0
 11
49.0000000000000497
 21
12.0873218858158697
 31
-0.0000000000000027
210
0.0
220
1.0
230
-0.0000000000000002
  0
LINE
  5
13A1
  8
0
  6
VERDECKT
 62
     1
 10
49.0000000000001918
 20
243.9660074801317933
 30
-0.0000000000000542
 11
49.0000000000000284
 21
12.0873218858158697
 31
-0.0000000000000027
210
0.0
220
1.0
230
-0.0000000000000002
  0
LINE
  5
13A2
  8
0
  6
VERDECKT
 62
     1
 10
-48.999999999999801
 20
243.966007480131907
 30
-0.0000000000000542
 11
-48.9999999999999574
 21
12.0873218858159603
 31
-0.0000000000000027
210
0.0
220
1.0
230
-0.0000000000000002
  0
ARC
  5
13A3
  8
0
  6
VERDECKT
 62
     1
 10
59.0000000000010374
 20
243.9660074801315091
 30
0.0
 40
10.0000000000012292
210
0.0
220
-0.0000000000000002
230
-1.0
 50
145.6988472432103947
 51
179.9999999999980105
  0
ARC
  5
13A4
  8
0
  6
VERDECKT
 62
     1
 10
-59.0000000000016129
 20
243.9660074801313954
 30
0.0
 40
10.00000000000135
210
0.0
220
-0.0000000000000002
230
-1.0
 50
0.0000000000019592
 51
34.301152756789179
  0
ARC
  5
13A5
  8
0
  6
VERDECKT
 62
     1
 10
39.9999999999996234
 20
256.9274888769476206
 30
0.0
 40
13.0000000000001794
210
0.0
220
-0.0000000000000002
230
-1.0
 50
325.6988472432091157
 51
0.0
  0
ARC
  5
13A6
  8
0
  6
VERDECKT
 62
     1
 10
-40.0000000000002274
 20
256.9274888769476206
 30
0.0
 40
13.0000000000000107
210
0.0
220
-0.0000000000000002
230
-1.0
 50
180.000000000000199
 51
214.3011527567915095
  0
LINE
  5
13A7
  8
0
  6
VERDECKT
 62
     1
 10
53.0000000000002274
 20
275.4997994693184182
 30
-0.0000000000000612
 11
53.0000000000002203
 21
256.9274888769475069
 31
-0.000000000000057
210
0.0
220
1.0
230
-0.0000000000000002
  0
LINE
  5
13A8
  8
0
  6
VERDECKT
 62
     1
 10
-52.9999999999997584
 20
275.4997994693184751
 30
-0.0000000000000612
 11
-52.9999999999997797
 21
256.9274888769476775
 31
-0.000000000000057
210
0.0
220
1.0
230
-0.0000000000000002
  0
ARC
  5
13A9
  8
0
  6
VERDECKT
 62
     1
 10
66.9999999999988631
 20
275.4997994693185888
 30
0.0
 40
13.9999999999990496
210
0.0
220
-0.0000000000000002
230
-1.0
 50
153.1119523822758879
 51
180.0000000000003979
  0
ARC
  5
13AA
  8
0
  6
VERDECKT
 62
     1
 10
-66.9999999999993037
 20
275.4997994693184751
 30
0.0
 40
13.9999999999990692
210
0.0
220
-0.0000000000000002
230
-1.0
 50
359.9999999999996021
 51
26.8880476177240411
  0
ARC
  5
13AB
  8
0
  6
VERDECKT
 62
     1
 10
33.9999999999995524
 20
292.2329999999998904
 30
0.0
 40
23.0000000000002487
210
0.0
220
-0.0000000000000002
230
-1.0
 50
333.1119523822757742
 51
0.0000000000001399
  0
ARC
  5
13AC
  8
0
  6
VERDECKT
 62
     1
 10
-34.000000000000199
 20
292.2329999999997767
 30
0.0
 40
23.0000000000000284
210
0.0
220
-0.0000000000000002
230
-1.0
 50
180.0
 51
206.88804761772451
  0
LINE
  5
13AD
  8
0
  6
VERDECKT
 62
     1
 10
57.0000000000002416
 20
307.3952485374289267
 30
-0.0000000000000683
 11
57.0000000000002203
 21
292.2329999999997767
 31
-0.0000000000000649
210
0.0
220
1.0
230
-0.0000000000000002
  0
LINE
  5
13AE
  8
0
  6
VERDECKT
 62
     1
 10
-56.9999999999997726
 20
307.3952485374289836
 30
-0.0000000000000683
 11
-56.9999999999997726
 21
292.2330000000000041
 31
-0.0000000000000649
210
0.0
220
1.0
230
-0.0000000000000002
  0
ARC
  5
13AF
  8
0
  6
VERDECKT
 62
     1
 10
34.0000000000017479
 20
307.3952485374293815
 30
0.0
 40
22.9999999999980105
210
0.0
220
-0.0000000000000002
230
-1.0
 50
0.0
 51
25.0000000000015987
  0
ARC
  5
13B0
  8
0
  6
VERDECKT
 62
     1
 10
-34.0000000000021103
 20
307.3952485374293815
 30
0.0
 40
22.9999999999980993
210
0.0
220
-0.0000000000000002
230
-1.0
 50
154.9999999999998863
 51
180.0000000000013074
  0
LINE
  5
13B1
  8
0
  6
VERDECKT
 62
     1
 10
53.5000000000002203
 20
320.0
 30
-0.0000000000000711
 11
54.8450791018433321
 21
317.1154685574646805
 31
-0.0000000000000704
210
0.0
220
1.0
230
-0.0000000000000002
  0
LINE
  5
13B2
  8
0
  6
VERDECKT
 62
     1
 10
-53.4999999999997584
 20
320.0000000000001137
 30
-0.0000000000000711
 11
-54.8450791018428774
 21
317.1154685574649079
 31
-0.0000000000000704
210
0.0
220
1.0
230
-0.0000000000000002
  0
LINE
  5
13B3
  8
0
  6
VERDECKT
 62
     1
 10
52.0000000000002274
 20
232.0000000000001137
 30
-0.0000000000000515
 11
52.0000000000002274
 21
224.0000000000001137
 31
-0.0000000000000497
210
0.0
220
1.0
230
-0.0000000000000002
  0
LINE
  5
13B4
  8
0
  6
VERDECKT
 62
     1
 10
-51.9999999999997726
 20
232.0000000000001137
 30
-0.0000000000000515
 11
-51.9999999999997726
 21
224.0000000000001137
 31
-0.0000000000000497
210
0.0
220
1.0
230
-0.0000000000000002
  0
LINE
  5
13B5
  8
0
  6
VERDECKT
 62
     1
 10
52.0000000000002274
 20
240.0000000000001137
 30
-0.0000000000000533
 11
52.0000000000002274
 21
232.0000000000001137
 31
-0.0000000000000515
210
0.0
220
1.0
230
-0.0000000000000002
  0
LINE
  5
13B6
  8
0
  6
VERDECKT
 62
     1
 10
-51.9999999999997726
 20
240.0000000000001137
 30
-0.0000000000000533
 11
-51.9999999999997726
 21
232.0000000000001137
 31
-0.0000000000000515
210
0.0
220
1.0
230
-0.0000000000000002
  0
ENDBLK
  5
13B8
  8
0
  0
ENDSEC
  0
SECTION
  2
ENTITIES
  0
TEXT
  5
8F
  8
VOLL
 10
78.076754716981128
 20
31.025947764705851
 30
0.0
 40
1.8
  1

  7
GREEKS
  0
TEXT
  5
41E
  8
VOLL
 10
215.158822220035205
 20
289.1472996291067261
 30
0.0
 40
1.8
  1

 50
90.0
  7
GREEKS
  0
TEXT
  5
41F
  8
VOLL
 10
209.8667055043158882
 20
378.8134735547798186
 30
0.0
 40
1.8
  1

 50
90.0
  7
GREEKS
  0
TEXT
  5
420
  8
TEXT
 10
204.3084699710902896
 20
710.645741758372651
 30
0.0
 40
2.5
  1
  
 50
90.0
  7
GREEKS
 72
     1
 11
204.3084699710902896
 21
712.9076465202775807
 31
0.0
  0
TEXT
  5
421
  8
BEM
 10
68.7495879406881443
 20
954.7654590708546039
 30
0.0
 40
2.5
  1
 
 50
90.0
 72
     4
 11
68.7495879406881443
 21
955.8964114518071256
 31
0.0
  0
TEXT
  5
422
  8
BEM
 10
186.229991313154386
 20
520.4548032007043048
 30
0.0
 40
2.5
  1

 50
90.0
  7
GREEKS
  0
TEXT
  5
423
  8
VOLL
 10
206.4132519701896058
 20
506.3886101809828801
 30
0.0
 40
1.8
  1

 50
90.0
  7
GREEKS
  0
TEXT
  5
424
  8
BEM
 10
201.6875276469689879
 20
540.8766750202674984
 30
0.0
 40
2.5
  1

 50
90.0
 41
0.8
  7
GREEKS
  0
TEXT
  5
425
  8
BEM
 10
206.3812962010210867
 20
540.8766750202674984
 30
0.0
 40
2.5
  1

 50
90.0
 41
0.8
  7
GREEKS
  0
TEXT
  5
426
  8
BEM
 10
211.6191400196846075
 20
540.8766750202674984
 30
0.0
 40
2.5
  1

 50
90.0
 41
0.8
  7
GREEKS
  0
TEXT
  5
427
  8
BEM
 10
216.1243289697821979
 20
540.8037305428931631
 30
0.0
 40
1.8
  1

 50
90.0
 41
0.8
  7
GREEKS
  0
TEXT
  5
428
  8
BEM
 10
190.5327398735570057
 20
528.1201596632818109
 30
0.0
 40
2.0
  1

 50
90.0
 41
0.8
  7
GREEKS
 72
     1
 11
190.5327398735570057
 21
528.1201596632818109
 31
0.0
  0
TEXT
  5
429
  8
TEXT
 10
200.8550164369640925
 20
838.2208783845755988
 30
0.0
 40
2.5
  1
  
 50
90.0
  7
GREEKS
 72
     1
 11
200.8550164369640925
 21
840.4827831464805286
 31
0.0
  0
TEXT
  5
42A
  8
BEM
 10
65.2961344065618619
 20
1082.3405956970580064
 30
0.0
 40
2.5
  1
 
 50
90.0
 72
     4
 11
65.2961344065618619
 21
1083.4715480780100734
 31
0.0
  0
TEXT
  5
42D
  8
VOLL
 10
198.9617379082004049
 20
431.105374576267991
 30
0.0
 40
1.8
  1

 50
90.0
  7
GREEKS
  0
TEXT
  5
42E
  8
TEXT
 10
193.4035023749748916
 20
762.9376427798609939
 30
0.0
 40
2.5
  1
  
 50
90.0
  7
GREEKS
 72
     1
 11
193.4035023749748916
 21
765.1995475417658099
 31
0.0
  0
TEXT
  5
42F
  8
BEM
 10
57.8446203445726894
 20
1007.0573600923429467
 30
0.0
 40
2.5
  1
 
 50
90.0
 72
     4
 11
57.8446203445726894
 21
1008.1883124732950137
 31
0.0
  0
TEXT
  5
430
  8
BEM
 10
178.6283270185238052
 20
586.2449767330640498
 30
0.0
 40
2.5
  1

 50
90.0
  7
GREEKS
  0
TEXT
  5
431
  8
VOLL
 10
198.8115876755589966
 20
572.1787837133424546
 30
0.0
 40
1.8
  1

 50
90.0
  7
GREEKS
  0
TEXT
  5
432
  8
BEM
 10
194.0858633523382935
 20
606.6668485526271297
 30
0.0
 40
2.5
  1

 50
90.0
 41
0.8
  7
GREEKS
  0
TEXT
  5
433
  8
BEM
 10
198.7796319063905059
 20
606.6668485526271297
 30
0.0
 40
2.5
  1

 50
90.0
 41
0.8
  7
GREEKS
  0
TEXT
  5
434
  8
BEM
 10
204.0174757250539983
 20
606.6668485526271297
 30
0.0
 40
2.5
  1

 50
90.0
 41
0.8
  7
GREEKS
  0
TEXT
  5
435
  8
BEM
 10
208.5226646751517023
 20
606.5939040752526807
 30
0.0
 40
1.8
  1

 50
90.0
 41
0.8
  7
GREEKS
  0
TEXT
  5
436
  8
BEM
 10
182.9310755789263112
 20
593.9103331956415559
 30
0.0
 40
2.0
  1

 50
90.0
 41
0.8
  7
GREEKS
 72
     1
 11
182.9310755789263112
 21
593.9103331956415559
 31
0.0
  0
TEXT
  5
437
  8
TEXT
 10
193.253352142333398
 20
904.0110519169353438
 30
0.0
 40
2.5
  1
  
 50
90.0
  7
GREEKS
 72
     1
 11
193.253352142333398
 21
906.2729566788402735
 31
0.0
  0
TEXT
  5
438
  8
BEM
 10
57.6944701119312526
 20
1148.1307692294180924
 30
0.0
 40
2.5
  1
 
 50
90.0
 72
     4
 11
57.6944701119312526
 21
1149.261721610369932
 31
0.0
  0
TEXT
  5
439
  8
VOLL
 10
210.7774474339489075
 20
367.0831631495116767
 30
0.0
 40
1.8
  1

 50
90.0
  7
GREEKS
  0
TEXT
  5
43A
  8
TEXT
 10
205.2192119007233941
 20
698.9154313531045091
 30
0.0
 40
2.5
  1
  
 50
90.0
  7
GREEKS
 72
     1
 11
205.2192119007233941
 21
701.1773361150093251
 31
0.0
  0
TEXT
  5
43B
  8
BEM
 10
69.6603298703211919
 20
943.0351486655864619
 30
0.0
 40
2.5
  1
 
 50
90.0
 72
     4
 11
69.6603298703211919
 21
944.1661010465389836
 31
0.0
  0
TEXT
  5
43C
  8
BEM
 10
170.6242167353632908
 20
532.4287762291615991
 30
0.0
 40
2.5
  1

 50
90.0
  7
GREEKS
  0
TEXT
  5
43D
  8
VOLL
 10
190.8074773923983116
 20
518.3625832094401176
 30
0.0
 40
1.8
  1

 50
90.0
  7
GREEKS
  0
TEXT
  5
43E
  8
BEM
 10
186.0817530691778074
 20
552.8506480487247927
 30
0.0
 40
2.5
  1

 50
90.0
 41
0.8
  7
GREEKS
  0
TEXT
  5
43F
  8
BEM
 10
190.7755216232299063
 20
552.8506480487247927
 30
0.0
 40
2.5
  1

 50
90.0
 41
0.8
  7
GREEKS
  0
TEXT
  5
440
  8
BEM
 10
196.0133654418933986
 20
552.8506480487247927
 30
0.0
 40
2.5
  1

 50
90.0
 41
0.8
  7
GREEKS
  0
TEXT
  5
441
  8
BEM
 10
200.5185543919911026
 20
552.7777035713503437
 30
0.0
 40
1.8
  1

 50
90.0
 41
0.8
  7
GREEKS
  0
TEXT
  5
442
  8
BEM
 10
174.9269652957657968
 20
540.0941326917391052
 30
0.0
 40
2.0
  1

 50
90.0
 41
0.8
  7
GREEKS
 72
     1
 11
174.9269652957657968
 21
540.0941326917391052
 31
0.0
  0
TEXT
  5
443
  8
TEXT
 10
185.2492418591727983
 20
850.1948514130328931
 30
0.0
 40
2.5
  1
  
 50
90.0
  7
GREEKS
 72
     1
 11
185.2492418591727983
 21
852.4567561749378228
 31
0.0
  0
TEXT
  5
444
  8
BEM
 10
49.6903598287706316
 20
1094.3145687255150733
 30
0.0
 40
2.5
  1
 
 50
90.0
 72
     4
 11
49.6903598287706316
 21
1095.4455211064669129
 31
0.0
  0
TEXT
  5
445
  8
VOLL
 10
205.6590040564464061
 20
694.6647394026227857
 30
0.0
 40
1.8
  1

 50
90.0
  7
GREEKS
  0
TEXT
  5
446
  8
VOLL
 10
200.3668873407270894
 20
784.3309133282961056
 30
0.0
 40
1.8
  1

 50
90.0
  7
GREEKS
  0
TEXT
  5
447
  8
TEXT
 10
194.8086518075014908
 20
1116.1631815318889949
 30
0.0
 40
2.5
  1
  
 50
90.0
  7
GREEKS
 72
     1
 11
194.8086518075014908
 21
1118.4250862937940383
 31
0.0
  0
TEXT
  5
448
  8
BEM
 10
59.2497697770994023
 20
1360.2828988443709477
 30
0.0
 40
2.5
  1
 
 50
90.0
 72
     4
 11
59.2497697770994023
 21
1361.4138512253230147
 31
0.0
  0
TEXT
  5
449
  8
BEM
 10
176.7301731495657009
 20
925.9722429742206486
 30
0.0
 40
2.5
  1

 50
90.0
  7
GREEKS
  0
TEXT
  5
44A
  8
VOLL
 10
196.913433806600807
 20
911.9060499544990535
 30
0.0
 40
1.8
  1

 50
90.0
  7
GREEKS
  0
TEXT
  5
44B
  8
BEM
 10
192.1877094833801891
 20
946.3941147937838423
 30
0.0
 40
2.5
  1

 50
90.0
 41
0.8
  7
GREEKS
  0
TEXT
  5
44C
  8
BEM
 10
196.8814780374322879
 20
946.3941147937838423
 30
0.0
 40
2.5
  1

 50
90.0
 41
0.8
  7
GREEKS
  0
TEXT
  5
44D
  8
BEM
 10
202.119321856095894
 20
946.3941147937838423
 30
0.0
 40
2.5
  1

 50
90.0
 41
0.8
  7
GREEKS
  0
TEXT
  5
44E
  8
BEM
 10
206.6245108061935127
 20
946.3211703164092796
 30
0.0
 40
1.8
  1

 50
90.0
 41
0.8
  7
GREEKS
  0
TEXT
  5
44F
  8
BEM
 10
181.0329217099682069
 20
933.6375994367980411
 30
0.0
 40
2.0
  1

 50
90.0
 41
0.8
  7
GREEKS
 72
     1
 11
181.0329217099682069
 21
933.6375994367980411
 31
0.0
  0
TEXT
  5
450
  8
TEXT
 10
191.3551982733752936
 20
1243.7383181580919427
 30
0.0
 40
2.5
  1
  
 50
90.0
  7
GREEKS
 72
     1
 11
191.3551982733752936
 21
1246.0002229199969861
 31
0.0
  0
TEXT
  5
451
  8
BEM
 10
55.7963162429730914
 20
1487.8580354705738955
 30
0.0
 40
2.5
  1
 
 50
90.0
 72
     4
 11
55.7963162429730914
 21
1488.9889878515259625
 31
0.0
  0
TEXT
  5
452
  8
VOLL
 10
228.6080769489470015
 20
702.5780540944062977
 30
0.0
 40
1.8
  1

 50
90.0
  7
GREEKS
  0
TEXT
  5
453
  8
VOLL
 10
223.3159602332277132
 20
792.2442280200793903
 30
0.0
 40
1.8
  1

 50
90.0
  7
GREEKS
  0
TEXT
  5
454
  8
TEXT
 10
217.7577247000021998
 20
1124.0764962236719384
 30
0.0
 40
2.5
  1
  
 50
90.0
  7
GREEKS
 72
     1
 11
217.7577247000021998
 21
1126.3384009855769818
 31
0.0
  0
TEXT
  5
455
  8
BEM
 10
82.1988426695999266
 20
1368.1962135361538913
 30
0.0
 40
2.5
  1
 
 50
90.0
 72
     4
 11
82.1988426695999266
 21
1369.3271659171070951
 31
0.0
  0
TEXT
  5
456
  8
BEM
 10
199.679246042066211
 20
933.8855576660037059
 30
0.0
 40
2.5
  1

 50
90.0
  7
GREEKS
  0
TEXT
  5
457
  8
VOLL
 10
219.8625066991012886
 20
919.8193646462824518
 30
0.0
 40
1.8
  1

 50
90.0
  7
GREEKS
  0
TEXT
  5
458
  8
BEM
 10
215.1367823758808129
 20
954.3074294855668995
 30
0.0
 40
2.5
  1

 50
90.0
 41
0.8
  7
GREEKS
  0
TEXT
  5
459
  8
BEM
 10
219.8305509299329117
 20
954.3074294855668995
 30
0.0
 40
2.5
  1

 50
90.0
 41
0.8
  7
GREEKS
  0
TEXT
  5
45A
  8
BEM
 10
225.068394748596404
 20
954.3074294855668995
 30
0.0
 40
2.5
  1

 50
90.0
 41
0.8
  7
GREEKS
  0
TEXT
  5
45B
  8
BEM
 10
229.5735836986939944
 20
954.2344850081925642
 30
0.0
 40
1.8
  1

 50
90.0
 41
0.8
  7
GREEKS
  0
TEXT
  5
45C
  8
BEM
 10
203.9819946024688022
 20
941.5509141285815531
 30
0.0
 40
2.0
  1

 50
90.0
 41
0.8
  7
GREEKS
 72
     1
 11
203.9819946024688022
 21
941.5509141285815531
 31
0.0
  0
TEXT
  5
45D
  8
TEXT
 10
214.3042711658758037
 20
1251.6516328498751136
 30
0.0
 40
2.5
  1
  
 50
90.0
  7
GREEKS
 72
     1
 11
214.3042711658758037
 21
1253.9135376117799296
 31
0.0
  0
TEXT
  5
45E
  8
BEM
 10
78.7453891354736015
 20
1495.7713501623570664
 30
0.0
 40
2.5
  1
 
 50
90.0
 72
     4
 11
78.7453891354736015
 21
1496.902302543308906
 31
0.0
  0
TEXT
  5
45F
  8
VOLL
 10
212.4109926371122015
 20
844.5361290415675057
 30
0.0
 40
1.8
  1

 50
90.0
  7
GREEKS
  0
TEXT
  5
460
  8
TEXT
 10
206.8527571038866881
 20
1176.3683972451599402
 30
0.0
 40
2.5
  1
  
 50
90.0
  7
GREEKS
 72
     1
 11
206.8527571038866881
 21
1178.6303020070649836
 31
0.0
  0
TEXT
  5
461
  8
BEM
 10
71.2938750734844575
 20
1420.488114557641893
 30
0.0
 40
2.5
  1
 
 50
90.0
 72
     4
 11
71.2938750734844575
 21
1421.6190669385950969
 31
0.0
  0
TEXT
  5
462
  8
BEM
 10
192.0775817474356018
 20
999.6757311983634509
 30
0.0
 40
2.5
  1

 50
90.0
  7
GREEKS
  0
TEXT
  5
463
  8
VOLL
 10
212.2608424044707931
 20
985.6095381786419694
 30
0.0
 40
1.8
  1

 50
90.0
  7
GREEKS
  0
TEXT
  5
464
  8
BEM
 10
207.5351180812502037
 20
1020.0976030179259624
 30
0.0
 40
2.5
  1

 50
90.0
 41
0.8
  7
GREEKS
  0
TEXT
  5
465
  8
BEM
 10
212.2288866353023025
 20
1020.0976030179259624
 30
0.0
 40
2.5
  1

 50
90.0
 41
0.8
  7
GREEKS
  0
TEXT
  5
466
  8
BEM
 10
217.4667304539659085
 20
1020.0976030179259624
 30
0.0
 40
2.5
  1

 50
90.0
 41
0.8
  7
GREEKS
  0
TEXT
  5
467
  8
BEM
 10
221.9719194040634989
 20
1020.0246585405519681
 30
0.0
 40
1.8
  1

 50
90.0
 41
0.8
  7
GREEKS
  0
TEXT
  5
468
  8
BEM
 10
196.380330307838193
 20
1007.341087660940957
 30
0.0
 40
2.0
  1

 50
90.0
 41
0.8
  7
GREEKS
 72
     1
 11
196.380330307838193
 21
1007.341087660940957
 31
0.0
  0
TEXT
  5
469
  8
TEXT
 10
206.7026068712451945
 20
1317.4418063822349723
 30
0.0
 40
2.5
  1
  
 50
90.0
  7
GREEKS
 72
     1
 11
206.7026068712451945
 21
1319.7037111441400157
 31
0.0
  0
TEXT
  5
46A
  8
BEM
 10
71.1437248408430776
 20
1561.5615236947169251
 30
0.0
 40
2.5
  1
 
 50
90.0
 72
     4
 11
71.1437248408430776
 21
1562.6924760756689921
 31
0.0
  0
TEXT
  5
46B
  8
VOLL
 10
17.7487631573062501
 20
475.1532693546834025
 30
0.0
 40
1.8
  1

 50
90.0
  7
GREEKS
  0
TEXT
  5
46C
  8
VOLL
 10
12.4566464415869405
 20
564.8194432803566087
 30
0.0
 40
1.8
  1

 50
90.0
  7
GREEKS
  0
TEXT
  5
46D
  8
TEXT
 10
6.8984109083614271
 20
896.651711483949498
 30
0.0
 40
2.5
  1
  
 50
90.0
  7
GREEKS
 72
     1
 11
6.8984109083614271
 21
898.9136162458542003
 31
0.0
  0
TEXT
  5
46E
  8
BEM
 10
-128.6604711220406898
 20
1140.7714287964311097
 30
0.0
 40
2.5
  1
 
 50
90.0
 72
     4
 11
-128.6604711220406898
 21
1141.9023811773840862
 31
0.0
  0
TEXT
  5
46F
  8
BEM
 10
-11.1800677495744498
 20
706.4607729262810381
 30
0.0
 40
2.5
  1

 50
90.0
  7
GREEKS
  0
TEXT
  5
470
  8
VOLL
 10
9.0031929074606296
 20
692.3945799065595565
 30
0.0
 40
1.8
  1

 50
90.0
  7
GREEKS
  0
TEXT
  5
471
  8
BEM
 10
4.2774685842400677
 20
726.8826447458442317
 30
0.0
 40
2.5
  1

 50
90.0
 41
0.8
  7
GREEKS
  0
TEXT
  5
472
  8
BEM
 10
8.9712371382921674
 20
726.8826447458442317
 30
0.0
 40
2.5
  1

 50
90.0
 41
0.8
  7
GREEKS
  0
TEXT
  5
473
  8
BEM
 10
14.20908095695569
 20
726.8826447458442317
 30
0.0
 40
2.5
  1

 50
90.0
 41
0.8
  7
GREEKS
  0
TEXT
  5
474
  8
BEM
 10
18.7142699070533283
 20
726.809700268469669
 30
0.0
 40
1.8
  1

 50
90.0
 41
0.8
  7
GREEKS
  0
TEXT
  5
475
  8
BEM
 10
-6.8773191891719421
 20
714.1261293888585442
 30
0.0
 40
2.0
  1

 50
90.0
 41
0.8
  7
GREEKS
 72
     1
 11
-6.8773191891719421
 21
714.1261293888585442
 31
0.0
  0
TEXT
  5
476
  8
TEXT
 10
3.4449573742351731
 20
1024.2268481101521047
 30
0.0
 40
2.5
  1
  
 50
90.0
  7
GREEKS
 72
     1
 11
3.4449573742351731
 21
1026.4887528720569208
 31
0.0
  0
TEXT
  5
477
  8
BEM
 10
-132.1139246561670006
 20
1268.346565422634967
 30
0.0
 40
2.5
  1
 
 50
90.0
 72
     4
 11
-132.1139246561670006
 21
1269.477517803587034
 31
0.0
  0
TEXT
  5
478
  8
VOLL
 10
1.551678845471542
 20
617.1113443018448379
 30
0.0
 40
1.8
  1

 50
90.0
  7
GREEKS
  0
TEXT
  5
479
  8
TEXT
 10
-4.00655668775397
 20
948.9436125054377271
 30
0.0
 40
2.5
  1
  
 50
90.0
  7
GREEKS
 72
     1
 11
-4.00655668775397
 21
951.2055172673425432
 31
0.0
  0
TEXT
  5
47A
  8
BEM
 10
-139.5654387181562015
 20
1193.0633298179191115
 30
0.0
 40
2.5
  1
 
 50
90.0
 72
     4
 11
-139.5654387181562015
 21
1194.194282198872088
 31
0.0
  0
TEXT
  5
47B
  8
BEM
 10
-18.7817320442050502
 20
772.2509464586406693
 30
0.0
 40
2.5
  1

 50
90.0
  7
GREEKS
  0
TEXT
  5
47C
  8
VOLL
 10
1.401528612830077
 20
758.1847534389193015
 30
0.0
 40
1.8
  1

 50
90.0
  7
GREEKS
  0
TEXT
  5
47D
  8
BEM
 10
-3.3241957103905402
 20
792.672818278203863
 30
0.0
 40
2.5
  1

 50
90.0
 41
0.8
  7
GREEKS
  0
TEXT
  5
47E
  8
BEM
 10
1.369572843661615
 20
792.672818278203863
 30
0.0
 40
2.5
  1

 50
90.0
 41
0.8
  7
GREEKS
  0
TEXT
  5
47F
  8
BEM
 10
6.6074166623251349
 20
792.672818278203863
 30
0.0
 40
2.5
  1

 50
90.0
 41
0.8
  7
GREEKS
  0
TEXT
  5
480
  8
BEM
 10
11.1126056124227208
 20
792.599873800829414
 30
0.0
 40
1.8
  1

 50
90.0
 41
0.8
  7
GREEKS
  0
TEXT
  5
481
  8
BEM
 10
-14.4789834838025495
 20
779.9163029212181755
 30
0.0
 40
2.0
  1

 50
90.0
 41
0.8
  7
GREEKS
 72
     1
 11
-14.4789834838025495
 21
779.9163029212181755
 31
0.0
  0
TEXT
  5
482
  8
TEXT
 10
-4.1567069203954361
 20
1090.0170216425119634
 30
0.0
 40
2.5
  1
  
 50
90.0
  7
GREEKS
 72
     1
 11
-4.1567069203954361
 21
1092.2789264044170068
 31
0.0
  0
TEXT
  5
483
  8
BEM
 10
-139.7155889507976099
 20
1334.1367389549939162
 30
0.0
 40
2.5
  1
 
 50
90.0
 72
     4
 11
-139.7155889507976099
 21
1335.2676913359459832
 31
0.0
  0
TEXT
  5
484
  8
VOLL
 10
13.3673883712200396
 20
553.0891328750883531
 30
0.0
 40
1.8
  1

 50
90.0
  7
GREEKS
  0
TEXT
  5
485
  8
TEXT
 10
7.8091528379945307
 20
884.921401078681356
 30
0.0
 40
2.5
  1
  
 50
90.0
  7
GREEKS
 72
     1
 11
7.8091528379945307
 21
887.1833058405859447
 31
0.0
  0
TEXT
  5
486
  8
BEM
 10
-127.749729192407699
 20
1129.0411183911630815
 30
0.0
 40
2.5
  1
 
 50
90.0
 72
     4
 11
-127.749729192407699
 21
1130.1720707721149211
 31
0.0
  0
TEXT
  5
487
  8
BEM
 10
-26.7858423273656783
 20
718.4347459547383323
 30
0.0
 40
2.5
  1

 50
90.0
  7
GREEKS
  0
TEXT
  5
488
  8
VOLL
 10
-6.60258167033055
 20
704.3685529350168508
 30
0.0
 40
1.8
  1

 50
90.0
  7
GREEKS
  0
TEXT
  5
489
  8
BEM
 10
-11.3283059935511101
 20
738.856617774301526
 30
0.0
 40
2.5
  1

 50
90.0
 41
0.8
  7
GREEKS
  0
TEXT
  5
48A
  8
BEM
 10
-6.6345374394990131
 20
738.856617774301526
 30
0.0
 40
2.5
  1

 50
90.0
 41
0.8
  7
GREEKS
  0
TEXT
  5
48B
  8
BEM
 10
-1.3966936208354921
 20
738.856617774301526
 30
0.0
 40
2.5
  1

 50
90.0
 41
0.8
  7
GREEKS
  0
TEXT
  5
48C
  8
BEM
 10
3.108495329262154
 20
738.783673296927077
 30
0.0
 40
1.8
  1

 50
90.0
 41
0.8
  7
GREEKS
  0
TEXT
  5
48D
  8
BEM
 10
-22.4830937669631794
 20
726.1001024173158385
 30
0.0
 40
2.0
  1

 50
90.0
 41
0.8
  7
GREEKS
 72
     1
 11
-22.4830937669631794
 21
726.1001024173158385
 31
0.0
  0
TEXT
  5
48E
  8
TEXT
 10
-12.1608172035560607
 20
1036.2008211386100811
 30
0.0
 40
2.5
  1
  
 50
90.0
  7
GREEKS
 72
     1
 11
-12.1608172035560607
 21
1038.4627259005139877
 31
0.0
  0
TEXT
  5
48F
  8
BEM
 10
-147.7196992339582096
 20
1280.3205384510920339
 30
0.0
 40
2.5
  1
 
 50
90.0
 72
     4
 11
-147.7196992339582096
 21
1281.4514908320441009
 31
0.0
  0
TEXT
  5
490
  8
VOLL
 10
39.4048601658702182
 20
481.5546222872239923
 30
0.0
 40
1.8
  1

 50
90.0
  7
GREEKS
  0
TEXT
  5
491
  8
VOLL
 10
34.1127434501509015
 20
571.2207962128971985
 30
0.0
 40
1.8
  1

 50
90.0
  7
GREEKS
  0
TEXT
  5
492
  8
TEXT
 10
28.5545079169253917
 20
903.0530644164900878
 30
0.0
 40
2.5
  1
  
 50
90.0
  7
GREEKS
 72
     1
 11
28.5545079169253917
 21
905.3149691783950175
 31
0.0
  0
TEXT
  5
493
  8
BEM
 10
-107.0043741134767998
 20
1147.1727817289720406
 30
0.0
 40
2.5
  1
 
 50
90.0
 72
     4
 11
-107.0043741134767998
 21
1148.3037341099241075
 31
0.0
  0
TEXT
  5
494
  8
BEM
 10
10.4760292589895094
 20
712.8621258588217415
 30
0.0
 40
2.5
  1

 50
90.0
  7
GREEKS
  0
TEXT
  5
495
  8
VOLL
 10
30.6592899160246191
 20
698.7959328391001463
 30
0.0
 40
1.8
  1

 50
90.0
  7
GREEKS
  0
TEXT
  5
496
  8
BEM
 10
25.9335655928040296
 20
733.2839976783849352
 30
0.0
 40
2.5
  1

 50
90.0
 41
0.8
  7
GREEKS
  0
TEXT
  5
497
  8
BEM
 10
30.6273341468561604
 20
733.2839976783849352
 30
0.0
 40
2.5
  1

 50
90.0
 41
0.8
  7
GREEKS
  0
TEXT
  5
498
  8
BEM
 10
35.8651779655196776
 20
733.2839976783849352
 30
0.0
 40
2.5
  1

 50
90.0
 41
0.8
  7
GREEKS
  0
TEXT
  5
499
  8
BEM
 10
40.3703669156173177
 20
733.2110532010104862
 30
0.0
 40
1.8
  1

 50
90.0
 41
0.8
  7
GREEKS
  0
TEXT
  5
49A
  8
BEM
 10
14.7787778193920207
 20
720.5274823213992477
 30
0.0
 40
2.0
  1

 50
90.0
 41
0.8
  7
GREEKS
 72
     1
 11
14.7787778193920207
 21
720.5274823213992477
 31
0.0
  0
TEXT
  5
49B
  8
TEXT
 10
25.1010543827991306
 20
1030.6282010426930356
 30
0.0
 40
2.5
  1
  
 50
90.0
  7
GREEKS
 72
     1
 11
25.1010543827991306
 21
1032.890105804598079
 31
0.0
  0
TEXT
  5
49C
  8
BEM
 10
-110.4578276476030965
 20
1274.7479183551749884
 30
0.0
 40
2.5
  1
 
 50
90.0
 72
     4
 11
-110.4578276476030965
 21
1275.8788707361279648
 31
0.0
  0
TEXT
  5
49D
  8
VOLL
 10
23.2077758540355106
 20
623.5126972343854277
 30
0.0
 40
1.8
  1

 50
90.0
  7
GREEKS
  0
TEXT
  5
49E
  8
TEXT
 10
17.6495403208099901
 20
955.3449654379784306
 30
0.0
 40
2.5
  1
  
 50
90.0
  7
GREEKS
 72
     1
 11
17.6495403208099901
 21
957.6068701998832466
 31
0.0
  0
TEXT
  5
49F
  8
BEM
 10
-117.9093417095921978
 20
1199.4646827504600424
 30
0.0
 40
2.5
  1
 
 50
90.0
 72
     4
 11
-117.9093417095921978
 21
1200.5956351314121093
 31
0.0
  0
TEXT
  5
4A0
  8
BEM
 10
2.8743649643589029
 20
778.6522993911812591
 30
0.0
 40
2.5
  1

 50
90.0
  7
GREEKS
  0
TEXT
  5
4A1
  8
VOLL
 10
23.0576256213940383
 20
764.5861063714598913
 30
0.0
 40
1.8
  1

 50
90.0
  7
GREEKS
  0
TEXT
  5
4A2
  8
BEM
 10
18.3319012981734204
 20
799.0741712107444528
 30
0.0
 40
2.5
  1

 50
90.0
 41
0.8
  7
GREEKS
  0
TEXT
  5
4A3
  8
BEM
 10
23.0256698522255796
 20
799.0741712107444528
 30
0.0
 40
2.5
  1

 50
90.0
 41
0.8
  7
GREEKS
  0
TEXT
  5
4A4
  8
BEM
 10
28.2635136708891004
 20
799.0741712107444528
 30
0.0
 40
2.5
  1

 50
90.0
 41
0.8
  7
GREEKS
  0
TEXT
  5
4A5
  8
BEM
 10
32.7687026209867227
 20
799.0012267333701175
 30
0.0
 40
1.8
  1

 50
90.0
 41
0.8
  7
GREEKS
  0
TEXT
  5
4A6
  8
BEM
 10
7.1771135247614088
 20
786.3176558537588789
 30
0.0
 40
2.0
  1

 50
90.0
 41
0.8
  7
GREEKS
 72
     1
 11
7.1771135247614088
 21
786.3176558537588789
 31
0.0
  0
TEXT
  5
4A7
  8
TEXT
 10
17.4993900881685214
 20
1096.4183745750519847
 30
0.0
 40
2.5
  1
  
 50
90.0
  7
GREEKS
 72
     1
 11
17.4993900881685214
 21
1098.6802793369570281
 31
0.0
  0
TEXT
  5
4A8
  8
BEM
 10
-118.0594919422337057
 20
1340.5380918875350744
 30
0.0
 40
2.5
  1
 
 50
90.0
 72
     4
 11
-118.0594919422337057
 21
1341.669044268486914
 31
0.0
  0
TEXT
  5
4A9
  8
VOLL
 10
35.0234853797840131
 20
559.4904858076290566
 30
0.0
 40
1.8
  1

 50
90.0
  7
GREEKS
  0
TEXT
  5
4AA
  8
TEXT
 10
29.4652498465584713
 20
891.3227540112218321
 30
0.0
 40
2.5
  1
  
 50
90.0
  7
GREEKS
 72
     1
 11
29.4652498465584713
 21
893.5846587731266482
 31
0.0
  0
TEXT
  5
4AB
  8
BEM
 10
-106.0936321838436953
 20
1135.4424713237040123
 30
0.0
 40
2.5
  1
 
 50
90.0
 72
     4
 11
-106.0936321838436953
 21
1136.5734237046560793
 31
0.0
  0
TEXT
  5
4AC
  8
BEM
 10
-5.1297453188017244
 20
724.8360988872790358
 30
0.0
 40
2.5
  1

 50
90.0
  7
GREEKS
  0
TEXT
  5
4AD
  8
VOLL
 10
15.0535153382334101
 20
710.7699058675574406
 30
0.0
 40
1.8
  1

 50
90.0
  7
GREEKS
  0
TEXT
  5
4AE
  8
BEM
 10
10.3277910150128491
 20
745.2579707068422294
 30
0.0
 40
2.5
  1

 50
90.0
 41
0.8
  7
GREEKS
  0
TEXT
  5
4AF
  8
BEM
 10
15.0215595690649497
 20
745.2579707068422294
 30
0.0
 40
2.5
  1

 50
90.0
 41
0.8
  7
GREEKS
  0
TEXT
  5
4B0
  8
BEM
 10
20.2594033877284687
 20
745.2579707068422294
 30
0.0
 40
2.5
  1

 50
90.0
 41
0.8
  7
GREEKS
  0
TEXT
  5
4B1
  8
BEM
 10
24.7645923378261195
 20
745.1850262294676668
 30
0.0
 40
1.8
  1

 50
90.0
 41
0.8
  7
GREEKS
  0
TEXT
  5
4B2
  8
BEM
 10
-0.8269967583992183
 20
732.5014553498564283
 30
0.0
 40
2.0
  1

 50
90.0
 41
0.8
  7
GREEKS
 72
     1
 11
-0.8269967583992183
 21
732.5014553498564283
 31
0.0
  0
TEXT
  5
4B3
  8
TEXT
 10
9.4952798050078968
 20
1042.6021740711501025
 30
0.0
 40
2.5
  1
  
 50
90.0
  7
GREEKS
 72
     1
 11
9.4952798050078968
 21
1044.8640788330549185
 31
0.0
  0
TEXT
  5
4B4
  8
BEM
 10
-126.0636022253943054
 20
1286.7218913836320553
 30
0.0
 40
2.5
  1
 
 50
90.0
 72
     4
 11
-126.0636022253943054
 21
1287.8528437645850317
 31
0.0
  0
TEXT
  5
4B5
  8
VOLL
 10
54.6140751128223485
 20
837.8916246633752962
 30
0.0
 40
1.8
  1

 50
90.0
  7
GREEKS
  0
TEXT
  5
4B6
  8
TEXT
 10
49.0558395795968067
 20
1169.7238928669680718
 30
0.0
 40
2.5
  1
  
 50
90.0
  7
GREEKS
 72
     1
 11
49.0558395795968067
 21
1171.9857976288728878
 31
0.0
  0
TEXT
  5
4B7
  8
BEM
 10
-86.5030424508054239
 20
1413.8436101794509341
 30
0.0
 40
2.5
  1
 
 50
90.0
 72
     4
 11
-86.5030424508054239
 21
1414.974562560403001
 31
0.0
  0
TEXT
  5
4B8
  8
VOLL
 10
49.058519477751112
 20
995.4263417405370546
 30
0.0
 40
1.8
  1

 50
90.0
  7
GREEKS
  0
TEXT
  5
4B9
  8
BEM
 10
44.3327951545304799
 20
1029.9144065798220709
 30
0.0
 40
2.5
  1

 50
90.0
 41
0.8
  7
GREEKS
  0
TEXT
  5
4BA
  8
BEM
 10
49.0265637085826427
 20
1029.9144065798220709
 30
0.0
 40
2.5
  1

 50
90.0
 41
0.8
  7
GREEKS
  0
TEXT
  5
4BB
  8
BEM
 10
54.2644075272461635
 20
1029.9144065798220709
 30
0.0
 40
2.5
  1

 50
90.0
 41
0.8
  7
GREEKS
  0
TEXT
  5
4BC
  8
BEM
 10
58.7695964773437467
 20
1029.8414621024469398
 30
0.0
 40
1.8
  1

 50
90.0
 41
0.8
  7
GREEKS
  0
TEXT
  5
4BD
  8
TEXT
 10
43.50028394452562
 20
1327.2586099441300576
 30
0.0
 40
2.5
  1
  
 50
90.0
  7
GREEKS
 72
     1
 11
43.50028394452562
 21
1329.5205147060339641
 31
0.0
  0
TEXT
  5
4BE
  8
BEM
 10
-92.0585980858766533
 20
1571.3783272566120104
 30
0.0
 40
2.5
  1
 
 50
90.0
 72
     4
 11
-92.0585980858766533
 21
1572.5092796375640773
 31
0.0
  0
TEXT
  5
4BF
  8
VOLL
 10
-11.2607046829177708
 20
582.3759598849195527
 30
0.0
 40
1.8
  1

 50
90.0
  7
GREEKS
  0
TEXT
  5
4C0
  8
TEXT
 10
-16.8189402161432895
 20
914.2082280885125556
 30
0.0
 40
2.5
  1
  
 50
90.0
  7
GREEKS
 72
     1
 11
-16.8189402161432895
 21
916.4701328504173716
 31
0.0
  0
TEXT
  5
4C1
  8
BEM
 10
-152.3778222465456054
 20
1158.32794540099394
 30
0.0
 40
2.5
  1
 
 50
90.0
 72
     4
 11
-152.3778222465456054
 21
1159.4588977819469164
 31
0.0
  0
TEXT
  5
4C2
  8
BEM
 10
-24.2819018782955212
 20
1020.4728355115260001
 30
0.0
 40
2.5
  1

 50
90.0
  7
GREEKS
  0
TEXT
  5
4C3
  8
BEM
 10
-9.3434540259753476
 20
1041.034621571237949
 30
0.0
 40
2.5
  1

 50
90.0
 41
0.8
  7
GREEKS
  0
TEXT
  5
4C4
  8
BEM
 10
0.7349960387377337
 20
1040.8952915529509937
 30
0.0
 40
2.5
  1

 50
90.0
 41
0.8
  7
GREEKS
  0
TEXT
  5
4C5
  8
BEM
 10
-4.2107868975779752
 20
1040.9485514367140695
 30
0.0
 40
2.5
  1

 50
90.0
 41
0.8
  7
GREEKS
  0
TEXT
  5
4C6
  8
BEM
 10
5.829783678377737
 20
1040.991069474609958
 30
0.0
 40
1.8
  1

 50
90.0
 41
0.8
  7
GREEKS
  0
TEXT
  5
4C7
  8
BEM
 10
-19.6085608087905108
 20
1028.4187542310280605
 30
0.0
 40
2.0
  1

 50
90.0
 41
0.8
  7
GREEKS
 72
     1
 11
-19.6085608087905108
 21
1028.4187542310280605
 31
0.0
  0
TEXT
  5
4C8
  8
VOLL
 10
-5.5719394485323051
 20
761.613893755731965
 30
0.0
 40
1.8
  1

 50
90.0
  7
GREEKS
  0
TEXT
  5
4C9
  8
TEXT
 10
-11.1301749817577598
 20
1093.4461619593239448
 30
0.0
 40
2.5
  1
  
 50
90.0
  7
GREEKS
 72
     1
 11
-11.1301749817577598
 21
1095.7080667212289882
 31
0.0
  0
TEXT
  5
4CA
  8
BEM
 10
-146.6890570121599922
 20
1337.5658792718070345
 30
0.0
 40
2.5
  1
 
 50
90.0
 72
     4
 11
-146.6890570121599922
 21
1338.6968316527591014
 31
0.0
  0
TEXT
  5
4DE
  8
BEM
 10
-68.5108655493058905
 20
876.1029121338990535
 30
0.0
 40
2.5
  1

 50
90.0
  7
GREEKS
  0
TEXT
  5
4DF
  8
VOLL
 10
-48.3276048922707631
 20
862.0367191141776857
 30
0.0
 40
1.8
  1

 50
90.0
  7
GREEKS
  0
TEXT
  5
4E0
  8
BEM
 10
-53.053329215491317
 20
896.5247839534623608
 30
0.0
 40
2.5
  1

 50
90.0
 41
0.8
  7
GREEKS
  0
TEXT
  5
4E1
  8
BEM
 10
-48.3595606614392111
 20
896.5247839534623608
 30
0.0
 40
2.5
  1

 50
90.0
 41
0.8
  7
GREEKS
  0
TEXT
  5
4E2
  8
BEM
 10
-43.1217168427756903
 20
896.5247839534623608
 30
0.0
 40
2.5
  1

 50
90.0
 41
0.8
  7
GREEKS
  0
TEXT
  5
4E3
  8
BEM
 10
-38.616527892678107
 20
896.4518394760879119
 30
0.0
 40
1.8
  1

 50
90.0
 41
0.8
  7
GREEKS
  0
TEXT
  5
4E4
  8
BEM
 10
-64.2081169889033845
 20
883.768268596476787
 30
0.0
 40
2.0
  1

 50
90.0
 41
0.8
  7
GREEKS
 72
     1
 11
-64.2081169889033845
 21
883.768268596476787
 31
0.0
  0
TEXT
  5
4E5
  8
TEXT
 10
-53.885840425496319
 20
1193.8689873177700065
 30
0.0
 40
2.5
  1
  
 50
90.0
  7
GREEKS
 72
     1
 11
-53.885840425496319
 21
1196.1308920796750499
 31
0.0
  0
TEXT
  5
4E6
  8
BEM
 10
-189.4447224558984999
 20
1437.9887046302519593
 30
0.0
 40
2.5
  1
 
 50
90.0
 72
     4
 11
-189.4447224558984999
 21
1439.1196570112049358
 31
0.0
  0
TEXT
  5
4E7
  8
VOLL
 10
34.9605128464645531
 20
570.284511965063075
 30
0.0
 40
1.8
  1

 50
90.0
  7
GREEKS
  0
TEXT
  5
4E8
  8
VOLL
 10
29.6683961307452613
 20
659.9506858907361675
 30
0.0
 40
1.8
  1

 50
90.0
  7
GREEKS
  0
TEXT
  5
4E9
  8
TEXT
 10
24.1101605975197799
 20
991.7829540943292841
 30
0.0
 40
2.5
  1
  
 50
90.0
  7
GREEKS
 72
     1
 11
24.1101605975197799
 21
994.0448588562341001
 31
0.0
  0
TEXT
  5
4EA
  8
BEM
 10
-111.4487214328823939
 20
1235.9026714068108959
 30
0.0
 40
2.5
  1
 
 50
90.0
 72
     4
 11
-111.4487214328823939
 21
1237.0336237877640997
 31
0.0
  0
TEXT
  5
4EB
  8
BEM
 10
6.031681939583847
 20
801.5920155366607105
 30
0.0
 40
2.5
  1

 50
90.0
  7
GREEKS
  0
TEXT
  5
4EC
  8
VOLL
 10
26.2149425966189291
 20
787.5258225169394564
 30
0.0
 40
1.8
  1

 50
90.0
  7
GREEKS
  0
TEXT
  5
4ED
  8
BEM
 10
21.4892182733984214
 20
822.0138873562239041
 30
0.0
 40
2.5
  1

 50
90.0
 41
0.8
  7
GREEKS
  0
TEXT
  5
4EE
  8
BEM
 10
26.1829868274505806
 20
822.0138873562239041
 30
0.0
 40
2.5
  1

 50
90.0
 41
0.8
  7
GREEKS
  0
TEXT
  5
4EF
  8
BEM
 10
31.4208306461140694
 20
822.0138873562239041
 30
0.0
 40
2.5
  1

 50
90.0
 41
0.8
  7
GREEKS
  0
TEXT
  5
4F0
  8
BEM
 10
35.9260195962116597
 20
821.9409428788494552
 30
0.0
 40
1.8
  1

 50
90.0
 41
0.8
  7
GREEKS
  0
TEXT
  5
4F1
  8
BEM
 10
10.3344304999863503
 20
809.2573719992383303
 30
0.0
 40
2.0
  1

 50
90.0
 41
0.8
  7
GREEKS
 72
     1
 11
10.3344304999863503
 21
809.2573719992383303
 31
0.0
  0
TEXT
  5
4F2
  8
TEXT
 10
20.6567070633934691
 20
1119.3580907205318908
 30
0.0
 40
2.5
  1
  
 50
90.0
  7
GREEKS
 72
     1
 11
20.6567070633934691
 21
1121.6199954824369343
 31
0.0
  0
TEXT
  5
4F3
  8
BEM
 10
-114.9021749670087047
 20
1363.477808033014071
 30
0.0
 40
2.5
  1
 
 50
90.0
 72
     4
 11
-114.9021749670087047
 21
1364.6087604139659106
 31
0.0
  0
TEXT
  5
4F7
  8
VOLL
 10
-6.9941311912556321
 20
546.8128777676957952
 30
0.0
 40
1.8
  1

 50
90.0
  7
GREEKS
  0
TEXT
  5
4F8
  8
VOLL
 10
-12.2862479069749497
 20
636.4790516933687741
 30
0.0
 40
1.8
  1

 50
90.0
  7
GREEKS
  0
TEXT
  5
4F9
  8
TEXT
 10
-17.8444834402003991
 20
968.3113198969618907
 30
0.0
 40
2.5
  1
  
 50
90.0
  7
GREEKS
 72
     1
 11
-17.8444834402003991
 21
970.5732246588667067
 31
0.0
  0
TEXT
  5
4FA
  8
BEM
 10
-153.4033654706026084
 20
1212.4310372094439572
 30
0.0
 40
2.5
  1
 
 50
90.0
 72
     4
 11
-153.4033654706026084
 21
1213.5619895903960241
 31
0.0
  0
TEXT
  5
4FB
  8
BEM
 10
-35.9229620981363382
 20
778.1203813392934308
 30
0.0
 40
2.5
  1

 50
90.0
  7
GREEKS
  0
TEXT
  5
4FC
  8
VOLL
 10
-15.7397014411012606
 20
764.0541883195719493
 30
0.0
 40
1.8
  1

 50
90.0
  7
GREEKS
  0
TEXT
  5
4FD
  8
BEM
 10
-20.4654257643218216
 20
798.5422531588566244
 30
0.0
 40
2.5
  1

 50
90.0
 41
0.8
  7
GREEKS
  0
TEXT
  5
4FE
  8
BEM
 10
-15.7716572102696606
 20
798.5422531588566244
 30
0.0
 40
2.5
  1

 50
90.0
 41
0.8
  7
GREEKS
  0
TEXT
  5
4FF
  8
BEM
 10
-10.5338133916061398
 20
798.5422531588566244
 30
0.0
 40
2.5
  1

 50
90.0
 41
0.8
  7
GREEKS
  0
TEXT
  5
500
  8
BEM
 10
-6.0286244415085539
 20
798.4693086814821754
 30
0.0
 40
1.8
  1

 50
90.0
 41
0.8
  7
GREEKS
  0
TEXT
  5
501
  8
BEM
 10
-31.6202135377338287
 20
785.7857378018709369
 30
0.0
 40
2.0
  1

 50
90.0
 41
0.8
  7
GREEKS
 72
     1
 11
-31.6202135377338287
 21
785.7857378018709369
 31
0.0
  0
TEXT
  5
502
  8
TEXT
 10
-21.2979369743267206
 20
1095.8864565231649522
 30
0.0
 40
2.5
  1
  
 50
90.0
  7
GREEKS
 72
     1
 11
-21.2979369743267206
 21
1098.1483612850690861
 31
0.0
  0
TEXT
  5
503
  8
BEM
 10
-156.8568190047288908
 20
1340.006173835646905
 30
0.0
 40
2.5
  1
 
 50
90.0
 72
     4
 11
-156.8568190047288908
 21
1341.137126216598972
 31
0.0
  0
TEXT
  5
C8A
  8
VOLL
 10
552.5905070529804561
 20
453.5901358566271142
 30
0.0
 40
1.8
  1

  7
GREEKS
  0
INSERT
  5
137A
  8
STEMPEL
  2
A$C0A973067
 10
-0.0000000000000541
 20
-145.0
 30
0.0
  0
INSERT
  5
13B9
  8
STEMPEL
  2
A$C19A54EC8
 10
0.0
 20
0.0
 30
0.0
  0
VIEWPORT
  5
E52
 67
     1
  8
0
 10
4.8363262843973072
 20
6.7594070670420852
 30
0.0
 40
27.4289348991844193
 41
13.9694509081503604
 68
     1
 69
     1
1001
ACAD
1000
MVIEW
1002
{
1070
    16
1010
0.0
1020
0.0
1030
0.0
1010
0.0
1020
0.0
1030
1.0
1040
0.0
1040
13.9694509081503604
1040
4.8363262843973072
1040
6.7594070670420852
1040
50.0
1040
0.0
1040
0.0
1070
     0
1070
  1500
1070
     1
1070
     1
1070
     0
1070
     0
1070
     0
1070
     0
1040
0.0
1040
0.0
1040
0.0
1040
10.0
1040
10.0
1040
10.0
1040
10.0
1070
     0
1002
{
1002
}
1002
}
  0
VIEWPORT
  5
E56
 67
     1
  8
DEFPOINTS
 10
4.8003558287068797
 20
6.7596351660179446
 30
0.0
 40
9.9782811134901763
 41
13.8580210194066709
 68
     2
 69
     2
1001
ACAD
1000
MVIEW
1002
{
1070
    16
1010
561.4152400927023336
1020
278.7753823501906822
1030
-11.6083923716342508
1010
0.0
1020
0.0
1030
1.0
1040
0.0
1040
609.465021148851406
1040
-352.4540486121206868
1040
16.3897042224064506
1040
50.0
1040
0.0
1040
0.0
1070
     0
1070
  1500
1070
     1
1070
     0
1070
     0
1070
     0
1070
     0
1070
     0
1040
0.0
1040
0.0
1040
0.0
1040
1.0
1040
1.0
1040
10.0
1040
10.0
1070
     0
1002
{
1002
}
1002
}
  0
VIEWPORT
  5
E5A
 67
     1
  8
DEFPOINTS
 10
7.9197332783138057
 20
6.8528495813746551
 30
0.0
 40
2.3776393483394278
 41
3.7365069694225852
 68
     3
 69
     3
1001
ACAD
1000
MVIEW
1002
{
1070
    16
1010
828.3767664683318799
1020
284.3146092548059869
1030
-3.3599632869242302
1010
0.0
1020
79.3045080583069648
1030
512.4538781711883075
1040
3.2525847632436991
1040
367.4926850946582135
1040
0.0
1040
0.0
1040
50.0
1040
0.0
1040
0.0
1070
     0
1070
  1500
1070
     1
1070
     0
1070
     0
1070
     0
1070
     0
1070
     0
1040
0.0
1040
0.0
1040
0.0
1040
1.0
1040
1.0
1040
10.0
1040
10.0
1070
     0
1002
{
1002
}
1002
}
  0
ENDSEC
  0
EOF
