  0
SECTION
  2
HEADER
  9
$ACADVER
  1
AC1009
  9
$INSBASE
 10
0.0
 20
0.0
 30
0.0
  9
$EXTMIN
 10
-82.5153339130519043
 20
-182.5463547425420074
 30
-0.0015258207003583
  9
$EXTMAX
 10
82.5284965656794611
 20
305.0402768124362751
 30
0.0000000349246037
  9
$LIMMIN
 10
0.0
 20
0.0
  9
$LIMMAX
 10
419.9999999999998863
 20
594.0000000000002274
  9
$ORTHOMODE
 70
     1
  9
$REGENMODE
 70
     1
  9
$FILLMODE
 70
     1
  9
$QTEXTMODE
 70
     0
  9
$MIRRTEXT
 70
     1
  9
$DRAGMODE
 70
     2
  9
$LTSCALE
 40
20.0
  9
$OSMODE
 70
   511
  9
$ATTMODE
 70
     1
  9
$TEXTSIZE
 40
3.5
  9
$TRACEWID
 40
0.5
  9
$TEXTSTYLE
  7
STANDARD
  9
$CLAYER
  8
DEFPOINTS
  9
$CELTYPE
  6
BYLAYER
  9
$CECOLOR
 62
   256
  9
$DIMSCALE
 40
2.0
  9
$DIMASZ
 40
3.5
  9
$DIMEXO
 40
1.0
  9
$DIMDLI
 40
7.0
  9
$DIMRND
 40
0.0
  9
$DIMDLE
 40
0.0
  9
$DIMEXE
 40
1.0
  9
$DIMTP
 40
0.7
  9
$DIMTM
 40
0.0
  9
$DIMTXT
 40
3.5
  9
$DIMCEN
 40
1.5
  9
$DIMTSZ
 40
0.0
  9
$DIMTOL
 70
     0
  9
$DIMLIM
 70
     0
  9
$DIMTIH
 70
     0
  9
$DIMTOH
 70
     0
  9
$DIMSE1
 70
     0
  9
$DIMSE2
 70
     0
  9
$DIMTAD
 70
     1
  9
$DIMZIN
 70
     8
  9
$DIMBLK
  1

  9
$DIMASO
 70
     1
  9
$DIMSHO
 70
     0
  9
$DIMPOST
  1

  9
$DIMAPOST
  1

  9
$DIMALT
 70
     0
  9
$DIMALTD
 70
     2
  9
$DIMALTF
 40
25.3999999999999986
  9
$DIMLFAC
 40
1.0
  9
$DIMTOFL
 70
     1
  9
$DIMTVP
 40
0.0
  9
$DIMTIX
 70
     0
  9
$DIMSOXD
 70
     0
  9
$DIMSAH
 70
     0
  9
$DIMBLK1
  1

  9
$DIMBLK2
  1

  9
$DIMSTYLE
  2
STANDARD
  9
$DIMCLRD
 70
     0
  9
$DIMCLRE
 70
     0
  9
$DIMCLRT
 70
     1
  9
$DIMTFAC
 40
0.5
  9
$DIMGAP
 40
1.5
  9
$LUNITS
 70
     2
  9
$LUPREC
 70
     2
  9
$SKETCHINC
 40
1.0
  9
$FILLETRAD
 40
0.0
  9
$AUNITS
 70
     0
  9
$AUPREC
 70
     0
  9
$MENU
  1
ACAD
  9
$ELEVATION
 40
0.0
  9
$PELEVATION
 40
0.0
  9
$THICKNESS
 40
0.0
  9
$LIMCHECK
 70
     0
  9
$BLIPMODE
 70
     0
  9
$CHAMFERA
 40
0.0
  9
$CHAMFERB
 40
0.0
  9
$SKPOLY
 70
     0
  9
$TDCREATE
 40
2455397.8646990740671754
  9
$TDUPDATE
 40
2460293.5244560190476477
  9
$TDINDWG
 40
0.2780179514
  9
$TDUSRTIMER
 40
0.2780179514
  9
$USRTIMER
 70
     1
  9
$ANGBASE
 50
0.0
  9
$ANGDIR
 70
     0
  9
$PDMODE
 70
     0
  9
$PDSIZE
 40
0.0
  9
$PLINEWID
 40
0.0
  9
$COORDS
 70
     1
  9
$SPLFRAME
 70
     0
  9
$SPLINETYPE
 70
     6
  9
$SPLINESEGS
 70
     8
  9
$ATTDIA
 70
     1
  9
$ATTREQ
 70
     1
  9
$HANDLING
 70
     1
  9
$HANDSEED
  5
10AC
  9
$SURFTAB1
 70
     6
  9
$SURFTAB2
 70
     6
  9
$SURFTYPE
 70
     6
  9
$SURFU
 70
     6
  9
$SURFV
 70
     6
  9
$UCSNAME
  2

  9
$UCSORG
 10
0.0
 20
0.0
 30
0.0
  9
$UCSXDIR
 10
1.0
 20
0.0
 30
0.0
  9
$UCSYDIR
 10
0.0
 20
1.0
 30
0.0
  9
$PUCSNAME
  2

  9
$PUCSORG
 10
0.0
 20
0.0
 30
0.0
  9
$PUCSXDIR
 10
1.0
 20
0.0
 30
0.0
  9
$PUCSYDIR
 10
0.0
 20
1.0
 30
0.0
  9
$USERI1
 70
     0
  9
$USERI2
 70
     0
  9
$USERI3
 70
     0
  9
$USERI4
 70
     0
  9
$USERI5
 70
     0
  9
$USERR1
 40
0.0
  9
$USERR2
 40
0.0
  9
$USERR3
 40
0.0
  9
$USERR4
 40
0.0
  9
$USERR5
 40
0.0
  9
$WORLDVIEW
 70
     1
  9
$SHADEDGE
 70
     3
  9
$SHADEDIF
 70
    70
  9
$TILEMODE
 70
     1
  9
$MAXACTVP
 70
    16
  9
$PLIMCHECK
 70
     0
  9
$PEXTMIN
 10
-0.142074801877456
 20
-0.1347660636392938
 30
-0.000000000000013
  9
$PEXTMAX
 10
10.5967555296341303
 20
15.0688623697918391
 30
0.0000000000000023
  9
$PLIMMIN
 10
-0.2500002402958907
 20
-0.2499999962453767
  9
$PLIMMAX
 10
10.7499995194082203
 20
8.2499997634587334
  9
$UNITMODE
 70
     0
  9
$VISRETAIN
 70
     0
  9
$PLINEGEN
 70
     0
  9
$PSLTSCALE
 70
     0
  0
ENDSEC
  0
SECTION
  2
TABLES
  0
TABLE
  2
VPORT
 70
     1
  0
VPORT
  2
*ACTIVE
 70
     0
 10
0.0
 20
0.0
 11
1.0
 21
1.0
 12
0.0065813263137784
 22
-50.005915246791119
 13
0.0
 23
0.0
 14
1.0
 24
1.0
 15
10.0
 25
10.0
 16
-0.0000000000002409
 26
0.0
 36
1084.7528084241059787
 17
0.0
 27
111.252876281738196
 37
-0.0000000000000339
 40
490.0806808212441865
 41
1.8720136518771331
 42
50.0
 43
0.0
 44
0.0
 50
0.0
 51
0.0
 71
     0
 72
  1500
 73
     1
 74
     0
 75
     0
 76
     0
 77
     0
 78
     0
  0
ENDTAB
  0
TABLE
  2
LTYPE
 70
     5
  0
LTYPE
  2
CONTINUOUS
 70
     0
  3
Solid line
 72
    65
 73
     0
 40
0.0
  0
LTYPE
  2
AUSGEZOGEN
 70
     0
  3
Ausgezogene Linie
 72
    65
 73
     0
 40
0.0
  0
LTYPE
  2
PHANTOM2
 70
     0
  3
Phantom (.5x) ___ _ _ ___ _ _ ___ _ _ ___ _ _
 72
    65
 73
     6
 40
1.25
 49
0.625
 49
-0.125
 49
0.125
 49
-0.125
 49
0.125
 49
-0.125
  0
LTYPE
  2
VERDECKT
 70
     0
  3
Verdeckt __ __ __ __ __ __ __ __ __ __ __ __ __
 72
    65
 73
     2
 40
0.375
 49
0.25
 49
-0.125
  0
ENDTAB
  0
TABLE
  2
LAYER
 70
    11
  0
LAYER
  2
0
 70
     0
 62
     7
  6
CONTINUOUS
  0
LAYER
  2
VOLL
 70
     0
 62
     1
  6
CONTINUOUS
  0
LAYER
  2
DEFPOINTS
 70
     0
 62
     7
  6
AUSGEZOGEN
  0
ENDTAB
  0
TABLE
  2
STYLE
 70
     3
  0
STYLE
  2
STANDARD
 70
     0
 40
0.0
 41
0.8
 50
0.0
 71
     0
 42
3.5
  3
simplex.shx
  4

  0
STYLE
  2
GREEKS
 70
     0
 40
0.0
 41
0.8
 50
0.0
 71
     0
 42
2.5
  3
SIMPLEX.shx
  4

  0
ENDTAB
  0
TABLE
  2
VIEW
 70
     2
  0
ENDTAB
  0
TABLE
  2
UCS
 70
     0
  0
ENDTAB
  0
TABLE
  2
APPID
 70
    11
  0
APPID
  2
ACAD
 70
     0
  0
APPID
  2
ACAD_EXEMPT_FROM_CAD_STANDARDS
 70
     0
  0
APPID
  2
ACAD_NAV_VCDISPLAY
 70
     0
  0
APPID
  2
ACAD_MLEADERVER
 70
     0
  0
APPID
  2
ACAD_PSEXT
 70
     0
  0
APPID
  2
ACAD_DSTYLE_DIMRADIAL_EXTENSION
 70
     0
  0
APPID
  2
ACAECLAYERSTANDARD
 70
     0
  0
APPID
  2
ACCMTRANSPARENCY
 70
     0
  0
APPID
  2
GRADIENTCOLOR1ACI
 70
     0
  0
APPID
  2
GRADIENTCOLOR2ACI
 70
     0
  0
APPID
  2
ACAD_OBJECT_CHANGE_GUID
 70
     0
  0
ENDTAB
  0
TABLE
  2
DIMSTYLE
 70
     1
  0
DIMSTYLE
  2
STANDARD
 70
     0
  3

  4

  5

  6

  7

 40
1.0
 41
0.18
 42
0.0625
 43
0.38
 44
0.18
 45
0.0
 46
0.0
 47
0.0
 48
0.0
140
0.18
141
0.09
142
0.0
143
25.3999999999999986
144
1.0
145
0.0
146
1.0
147
0.09
 71
     0
 72
     0
 73
     1
 74
     1
 75
     0
 76
     0
 77
     0
 78
     0
170
     0
171
     2
172
     0
173
     0
174
     0
175
     0
176
     0
177
     0
178
     0
  0
ENDTAB
  0
ENDSEC
  0
SECTION
  2
BLOCKS
  0
BLOCK
  8
0
  2
$MODEL_SPACE
 70
     0
 10
0.0
 20
0.0
 30
0.0
  3
$MODEL_SPACE
  1

  0
ENDBLK
  5
36
  8
0
  0
BLOCK
 67
     1
  8
0
  2
$PAPER_SPACE
 70
     0
 10
0.0
 20
0.0
 30
0.0
  3
$PAPER_SPACE
  1

  0
ENDBLK
  5
34
 67
     1
  8
0
  0
BLOCK
  8
0
  2
A$CAF1D61CD
 70
     0
 10
0.0
 20
0.0
 30
0.0
  3
A$CAF1D61CD
  1

  0
CIRCLE
  5
1012
  8
0
  6
CONTINUOUS
 62
     3
 10
0.0000000000000533
 20
0.0000000000000005
 30
0.0
 40
82.5
  0
CIRCLE
  5
1013
  8
0
  6
CONTINUOUS
 62
     3
 10
0.0000000000000654
 20
0.0000000000000318
 30
0.0
 40
42.1000000000000227
  0
CIRCLE
  5
1014
  8
0
  6
CONTINUOUS
 62
     3
 10
0.0
 20
0.0000000000000137
 30
0.0
 40
34.1939789517227766
  0
CIRCLE
  5
1015
  8
0
  6
CONTINUOUS
 62
     3
 10
0.0000000000000543
 20
0.0000000000000287
 30
0.0
 40
34.8999999999999773
  0
CIRCLE
  5
1016
  8
0
  6
CONTINUOUS
 62
     3
 10
0.0000000000000677
 20
0.0000000000000324
 30
0.0
 40
38.0
  0
CIRCLE
  5
1017
  8
0
  6
CONTINUOUS
 62
     3
 10
0.0000000000000677
 20
0.0000000000000324
 30
0.0
 40
39.7653973282751778
  0
CIRCLE
  5
1018
  8
0
  6
VERDECKT
 62
     1
 10
0.0000000000000533
 20
0.0000000000000005
 30
0.0
 40
37.5
  0
CIRCLE
  5
1019
  8
0
  6
VERDECKT
 62
     1
 10
0.0000000000000614
 20
0.0000000000000307
 30
0.0
 40
39.6000000000000227
  0
CIRCLE
  5
101A
  8
0
  6
VERDECKT
 62
     1
 10
0.0000000000000543
 20
0.0000000000000287
 30
0.0
 40
36.5
  0
CIRCLE
  5
101B
  8
0
  6
VERDECKT
 62
     1
 10
0.0
 20
0.0000000000000137
 30
0.0
 40
35.8000906917923203
  0
CIRCLE
  5
101C
  8
0
  6
VERDECKT
 62
     1
 10
0.0000000000000654
 20
0.0000000000000318
 30
0.0
 40
40.4999999999999929
  0
ENDBLK
  5
101E
  8
0
  0
BLOCK
  8
0
  2
A$C08232BC0
 70
     0
 10
0.0
 20
0.0
 30
0.0
  3
A$C08232BC0
  1

  0
LINE
  5
1022
  8
0
  6
CONTINUOUS
 62
     3
 10
82.5
 20
240.0000000000001137
 30
-0.0000000000000533
 11
-82.5
 21
240.0000000000001137
 31
-0.0000000000000533
210
0.0
220
1.0
230
-0.0000000000000002
  0
LINE
  5
1023
  8
0
  6
CONTINUOUS
 62
     3
 10
-82.5
 20
232.0000000000001137
 30
-0.0000000000000515
 11
82.5
 21
232.0000000000001137
 31
-0.0000000000000515
210
0.0
220
1.0
230
-0.0000000000000002
  0
LINE
  5
1024
  8
0
  6
CONTINUOUS
 62
     3
 10
82.5
 20
240.0000000000001137
 30
-0.0000000000000533
 11
82.5
 21
232.0000000000001137
 31
-0.0000000000000515
210
0.0
220
1.0
230
-0.0000000000000002
  0
LINE
  5
1025
  8
0
  6
CONTINUOUS
 62
     3
 10
-82.5
 20
240.0000000000001137
 30
-0.0000000000000533
 11
-82.5
 21
232.0000000000001137
 31
-0.0000000000000515
210
0.0
220
1.0
230
-0.0000000000000002
  0
LINE
  5
1026
  8
0
  6
CONTINUOUS
 62
     3
 10
82.5
 20
232.0000000000001137
 30
-0.0000000000000515
 11
-82.5
 21
232.0000000000001137
 31
-0.0000000000000515
210
0.0
220
1.0
230
-0.0000000000000002
  0
LINE
  5
1027
  8
0
  6
CONTINUOUS
 62
     3
 10
-82.5
 20
224.0000000000001137
 30
-0.0000000000000497
 11
82.5
 21
224.0000000000001137
 31
-0.0000000000000497
210
0.0
220
1.0
230
-0.0000000000000002
  0
LINE
  5
1028
  8
0
  6
CONTINUOUS
 62
     3
 10
82.5
 20
232.0000000000001137
 30
-0.0000000000000515
 11
82.5
 21
224.0000000000001137
 31
-0.0000000000000497
210
0.0
220
1.0
230
-0.0000000000000002
  0
LINE
  5
1029
  8
0
  6
CONTINUOUS
 62
     3
 10
-82.5
 20
232.0000000000001137
 30
-0.0000000000000515
 11
-82.5
 21
224.0000000000001137
 31
-0.0000000000000497
210
0.0
220
1.0
230
-0.0000000000000002
  0
LINE
  5
102A
  8
0
  6
CONTINUOUS
 62
     3
 10
-35.8000906917923203
 20
0.0
 30
0.0
 11
35.8000906917923203
 21
0.0
 31
0.0
210
0.0
220
1.0
230
-0.0000000000000002
  0
LINE
  5
102B
  8
0
  6
CONTINUOUS
 62
     3
 10
-39.7653973282751778
 20
305.0000000000001137
 30
-0.0000000000000677
 11
39.7653973282751778
 21
305.0000000000001137
 31
-0.0000000000000677
210
0.0
220
1.0
230
-0.0000000000000002
  0
LINE
  5
102C
  8
0
  6
CONTINUOUS
 62
     3
 10
42.1000000000000227
 20
294.4510775928814041
 30
-0.0000000000000654
 11
42.1000000000000227
 21
289.6317199518190932
 31
-0.0000000000000643
210
0.0
220
1.0
230
-0.0000000000000002
  0
LINE
  5
102D
  8
0
  6
CONTINUOUS
 62
     3
 10
-42.1000000000000227
 20
294.4510775928814041
 30
-0.0000000000000654
 11
-42.1000000000000227
 21
289.6317199518190932
 31
-0.0000000000000643
210
0.0
220
1.0
230
-0.0000000000000002
  0
ARC
  5
102E
  8
0
  6
CONTINUOUS
 62
     3
 10
17.0999999999904695
 20
289.7000000000016939
 30
0.0
 40
25.0000932431352609
210
0.0
220
-0.0000000000000002
230
-1.0
 50
338.8168456069673766
 51
359.8435140456671775
  0
ARC
  5
102F
  8
0
  6
CONTINUOUS
 62
     3
 10
-17.09999999999064
 20
289.7000000000016939
 30
0.0
 40
25.0000932431350904
210
0.0
220
-0.0000000000000002
230
-1.0
 50
180.1564859543327088
 51
201.1831543930325097
  0
ARC
  5
1030
  8
0
  6
CONTINUOUS
 62
     3
 10
51.5999999999985377
 20
276.3300000000003251
 30
0.0
 40
11.9999999999985096
210
0.0
220
-0.0000000000000002
230
-1.0
 50
158.8168456069653871
 51
180.0000000000009948
  0
ARC
  5
1031
  8
0
  6
CONTINUOUS
 62
     3
 10
-51.5999999999988574
 20
276.3300000000003251
 30
0.0
 40
11.9999999999988294
210
0.0
220
-0.0000000000000002
230
-1.0
 50
359.9999999999992042
 51
21.1831543930339699
  0
LINE
  5
1032
  8
0
  6
CONTINUOUS
 62
     3
 10
39.6000000000000227
 20
276.3300000000000978
 30
-0.0000000000000614
 11
39.6000000000000227
 21
255.3887264174171037
 31
-0.0000000000000567
210
0.0
220
1.0
230
-0.0000000000000002
  0
LINE
  5
1033
  8
0
  6
CONTINUOUS
 62
     3
 10
-39.6000000000000227
 20
276.3300000000000978
 30
-0.0000000000000614
 11
-39.6000000000000227
 21
255.38872641741699
 31
-0.0000000000000567
210
0.0
220
1.0
230
-0.0000000000000002
  0
ARC
  5
1034
  8
0
  6
CONTINUOUS
 62
     3
 10
27.5999999999993015
 20
255.3887264174171889
 30
0.0
 40
12.0000000000007105
210
0.0
220
-0.0000000000000002
230
-1.0
 50
327.6719358778386777
 51
359.9999999999990905
  0
ARC
  5
1035
  8
0
  6
CONTINUOUS
 62
     3
 10
-27.5999999999993015
 20
255.3887264174171889
 30
0.0
 40
12.0000000000007194
210
0.0
220
-0.0000000000000002
230
-1.0
 50
180.0000000000009095
 51
212.3280641221612939
  0
ARC
  5
1036
  8
0
  6
CONTINUOUS
 62
     3
 10
44.4999999999994813
 20
244.6934003354315905
 30
0.0
 40
7.9999999999994911
210
0.0
220
-0.0000000000000002
230
-1.0
 50
147.6719358778364892
 51
180.0000000000013074
  0
ARC
  5
1037
  8
0
  6
CONTINUOUS
 62
     3
 10
-44.4999999999994813
 20
244.6934003354315905
 30
0.0
 40
7.9999999999994884
210
0.0
220
-0.0000000000000002
230
-1.0
 50
359.9999999999985789
 51
32.3280641221634966
  0
LINE
  5
1038
  8
0
  6
CONTINUOUS
 62
     3
 10
36.5
 20
244.6934003354313916
 30
-0.0000000000000543
 11
36.5
 21
240.0000000000001137
 31
-0.0000000000000533
210
0.0
220
1.0
230
-0.0000000000000002
  0
LINE
  5
1039
  8
0
  6
CONTINUOUS
 62
     3
 10
36.5
 20
224.0000000000001137
 30
-0.0000000000000497
 11
36.5
 21
8.0000000000045492
 31
-0.0000000000000018
210
0.0
220
1.0
230
-0.0000000000000002
  0
LINE
  5
103A
  8
0
  6
CONTINUOUS
 62
     3
 10
-36.5
 20
244.6934003354313916
 30
-0.0000000000000543
 11
-36.5
 21
240.0000000000001137
 31
-0.0000000000000533
210
0.0
220
1.0
230
-0.0000000000000002
  0
LINE
  5
103B
  8
0
  6
CONTINUOUS
 62
     3
 10
-36.5
 20
224.0000000000001137
 30
-0.0000000000000497
 11
-36.5
 21
8.0000000000045492
 31
-0.0000000000000018
210
0.0
220
1.0
230
-0.0000000000000002
  0
LINE
  5
103C
  8
0
  6
CONTINUOUS
 62
     3
 10
-35.8000906917923203
 20
-0.0000000000000009
 30
0.0
 11
-36.5
 21
8.0000000000045492
 31
-0.0000000000000018
210
0.0
220
1.0
230
-0.0000000000000002
  0
LINE
  5
103D
  8
0
  6
CONTINUOUS
 62
     3
 10
35.8000906917923203
 20
-0.0000000000000009
 30
0.0
 11
36.5
 21
8.0000000000045492
 31
-0.0000000000000018
210
0.0
220
1.0
230
-0.0000000000000002
  0
ARC
  5
103E
  8
0
  6
CONTINUOUS
 62
     3
 10
17.0999999999995893
 20
294.4510775928810062
 30
0.0
 40
25.0000000000004192
210
0.0
220
-0.0000000000000002
230
-1.0
 50
0.000000000000916
 51
24.9581963123159802
  0
ARC
  5
103F
  8
0
  6
CONTINUOUS
 62
     3
 10
-17.0999999999995893
 20
294.4510775928810062
 30
0.0
 40
25.0000000000004086
210
0.0
220
-0.0000000000000002
230
-1.0
 50
155.0418036876839949
 51
179.9999999999990052
  0
LINE
  5
1040
  8
0
  6
VERDECKT
 62
     1
 10
37.5
 20
240.0000000000001137
 30
-0.0000000000000533
 11
37.5
 21
232.0000000000001137
 31
-0.0000000000000515
210
0.0
220
1.0
230
-0.0000000000000002
  0
LINE
  5
1041
  8
0
  6
VERDECKT
 62
     1
 10
-37.5
 20
240.0000000000001137
 30
-0.0000000000000533
 11
-37.5
 21
232.0000000000001137
 31
-0.0000000000000515
210
0.0
220
1.0
230
-0.0000000000000002
  0
LINE
  5
1042
  8
0
  6
VERDECKT
 62
     1
 10
37.5
 20
232.0000000000001137
 30
-0.0000000000000515
 11
37.5
 21
224.0000000000001137
 31
-0.0000000000000497
210
0.0
220
1.0
230
-0.0000000000000002
  0
LINE
  5
1043
  8
0
  6
VERDECKT
 62
     1
 10
-37.5
 20
232.0000000000001137
 30
-0.0000000000000515
 11
-37.5
 21
224.0000000000001137
 31
-0.0000000000000497
210
0.0
220
1.0
230
-0.0000000000000002
  0
LINE
  5
1044
  8
0
  6
VERDECKT
 62
     1
 10
36.5
 20
240.0000000000001137
 30
-0.0000000000000533
 11
36.5
 21
224.0000000000001137
 31
-0.0000000000000497
210
0.0
220
1.0
230
-0.0000000000000002
  0
LINE
  5
1045
  8
0
  6
VERDECKT
 62
     1
 10
-36.5
 20
240.0000000000001137
 30
-0.0000000000000533
 11
-36.5
 21
224.0000000000001137
 31
-0.0000000000000497
210
0.0
220
1.0
230
-0.0000000000000002
  0
LINE
  5
1046
  8
0
  6
VERDECKT
 62
     1
 10
-34.1939789517227268
 20
0.0000000000000036
 30
0.0
 11
-34.8999999999999204
 21
8.0698575086579556
 31
-0.0000000000000018
210
0.0
220
1.0
230
-0.0000000000000002
  0
LINE
  5
1047
  8
0
  6
VERDECKT
 62
     1
 10
34.1939789517227268
 20
-0.0000000000000249
 30
0.0
 11
34.8999999999999204
 21
8.069857508657984
 31
-0.0000000000000018
210
0.0
220
1.0
230
-0.0000000000000002
  0
LINE
  5
1048
  8
0
  6
VERDECKT
 62
     1
 10
34.8999999999999773
 20
244.6934003354313916
 30
-0.0000000000000543
 11
34.8999999999999773
 21
8.0698575086579751
 31
-0.0000000000000018
210
0.0
220
1.0
230
-0.0000000000000002
  0
LINE
  5
1049
  8
0
  6
VERDECKT
 62
     1
 10
-34.8999999999999773
 20
244.6934003354313916
 30
-0.0000000000000543
 11
-34.8999999999999773
 21
8.0698575086579485
 31
-0.0000000000000018
210
0.0
220
1.0
230
-0.0000000000000002
  0
ARC
  5
104A
  8
0
  6
VERDECKT
 62
     1
 10
44.5000000000010232
 20
244.6934003354311074
 30
0.0
 40
9.6000000000010424
210
0.0
220
-0.0000000000000002
230
-1.0
 50
147.6719358778387914
 51
179.9999999999984084
  0
ARC
  5
104B
  8
0
  6
VERDECKT
 62
     1
 10
-44.5000000000010232
 20
244.6934003354311074
 30
0.0
 40
9.6000000000010441
210
0.0
220
-0.0000000000000002
230
-1.0
 50
0.0000000000015267
 51
32.3280641221611376
  0
ARC
  5
104C
  8
0
  6
VERDECKT
 62
     1
 10
27.599999999999099
 20
255.3887264174173026
 30
0.0
 40
10.4000000000009294
210
0.0
220
-0.0000000000000002
230
-1.0
 50
327.671935877839303
 51
358.6684170305695716
  0
ARC
  5
104D
  8
0
  6
VERDECKT
 62
     1
 10
-27.599999999999099
 20
255.3887264174173026
 30
0.0
 40
10.40000000000094
210
0.0
220
-0.0000000000000002
230
-1.0
 50
181.3315829694302863
 51
212.328064122160697
  0
LINE
  5
104E
  8
0
  6
VERDECKT
 62
     1
 10
-37.997191496333933
 20
255.1470469011929936
 30
-0.0000000000000567
 11
-38.0
 21
276.3300000000000978
 31
-0.0000000000000614
210
0.0
220
1.0
230
-0.0000000000000002
  0
LINE
  5
104F
  8
0
  6
VERDECKT
 62
     1
 10
37.997191496333933
 20
255.1470469011929936
 30
-0.0000000000000567
 11
38.0
 21
276.3300000000000978
 31
-0.0000000000000614
210
0.0
220
1.0
230
-0.0000000000000002
  0
ARC
  5
1050
  8
0
  6
VERDECKT
 62
     1
 10
51.609649629437591
 20
276.3281955891281996
 30
0.0
 40
13.6096497490548707
210
0.0
220
-0.0000000000000002
230
-1.0
 50
158.8244420646030051
 51
179.9924035423632063
  0
ARC
  5
1051
  8
0
  6
VERDECKT
 62
     1
 10
-51.609649629437591
 20
276.3281955891281996
 30
0.0
 40
13.6096497490548707
210
0.0
220
-0.0000000000000002
230
-1.0
 50
0.0075964576367922
 51
21.1755579353969985
  0
ARC
  5
1052
  8
0
  6
VERDECKT
 62
     1
 10
17.0832749354722893
 20
289.7031519056076831
 30
0.0
 40
23.4168273447198203
210
0.0
220
-0.0000000000000002
230
-1.0
 50
338.824442064605023
 51
359.8306561110792927
  0
ARC
  5
1053
  8
0
  6
VERDECKT
 62
     1
 10
-17.0832749354722999
 20
289.7031519056076831
 30
0.0
 40
23.416827344719831
210
0.0
220
-0.0000000000000002
230
-1.0
 50
180.1693438889205936
 51
201.1755579353950054
  0
LINE
  5
1054
  8
0
  6
VERDECKT
 62
     1
 10
40.4999999999999929
 20
294.4510775928814041
 30
-0.0000000000000654
 11
40.4999999999999929
 21
289.6339410340754057
 31
-0.0000000000000643
210
0.0
220
1.0
230
-0.0000000000000002
  0
LINE
  5
1055
  8
0
  6
VERDECKT
 62
     1
 10
-40.4999999999999929
 20
294.4510775928814041
 30
-0.0000000000000654
 11
-40.4999999999999929
 21
289.6339410340754057
 31
-0.0000000000000643
210
0.0
220
1.0
230
-0.0000000000000002
  0
ARC
  5
1056
  8
0
  6
VERDECKT
 62
     1
 10
17.100000000000751
 20
294.4510775928816884
 30
0.0
 40
23.3999999999992383
210
0.0
220
-0.0000000000000002
230
-1.0
 50
359.9999999999992042
 51
25.0000000000001315
  0
ARC
  5
1057
  8
0
  6
VERDECKT
 62
     1
 10
-17.1000000000004704
 20
294.4510775928816884
 30
0.0
 40
23.3999999999995083
210
0.0
220
-0.0000000000000002
230
-1.0
 50
155.0
 51
180.0000000000005116
  0
LINE
  5
1058
  8
0
  6
VERDECKT
 62
     1
 10
38.0
 20
305.0000000000001137
 30
-0.0000000000000677
 11
38.3076022166576422
 21
304.3403449176137769
 31
-0.0000000000000676
210
0.0
220
1.0
230
-0.0000000000000002
  0
LINE
  5
1059
  8
0
  6
VERDECKT
 62
     1
 10
-38.0
 20
305.0000000000001137
 30
-0.0000000000000677
 11
-38.3076022166576422
 21
304.3403449176137769
 31
-0.0000000000000676
210
0.0
220
1.0
230
-0.0000000000000002
  0
ENDBLK
  5
105B
  8
0
  0
ENDSEC
  0
SECTION
  2
ENTITIES
  0
TEXT
  5
8F
  8
VOLL
 10
78.076754716981128
 20
31.025947764705851
 30
0.0
 40
1.8
  1

  7
GREEKS
  0
TEXT
  5
6E8
  8
VOLL
 10
1952.6078262023791012
 20
245.5297146504655927
 30
0.0
 40
3.6000000000000001
  1

  7
GREEKS
  0
TEXT
  5
6E9
  8
VOLL
 10
2195.413363540741102
 20
660.1705307409906709
 30
0.0
 40
3.6000000000000001
  1

  7
GREEKS
  0
TEXT
  5
6EA
  8
VOLL
 10
2855.0797854695811111
 20
292.9916826728041883
 30
0.0
 40
3.6000000000000001
  1

  7
GREEKS
  0
TEXT
  5
6EB
  8
VOLL
 10
2847.4152324409060384
 20
270.5840352158825226
 30
0.0
 40
3.6000000000000001
  1

  7
GREEKS
  0
TEXT
  5
89D
  8
VOLL
 10
559.2319080860096392
 20
475.8962374274270246
 30
0.0
 40
1.8
  1

  7
GREEKS
  0
INSERT
  5
101F
  8
DEFPOINTS
  2
A$CAF1D61CD
 10
0.0
 20
-100.0
 30
0.0
  0
INSERT
  5
105C
  8
DEFPOINTS
  2
A$C08232BC0
 10
0.0
 20
0.0
 30
0.0
  0
VIEWPORT
  5
BA3
 67
     1
  8
0
 10
5.5154854864674787
 20
7.4666519409123024
 30
0.0
 40
30.0878024640855806
 41
15.3236019189599197
 68
     1
 69
     1
1001
ACAD
1000
MVIEW
1002
{
1070
    16
1010
0.0
1020
0.0
1030
0.0
1010
0.0
1020
0.0
1030
1.0
1040
0.0
1040
15.3236019189599197
1040
5.5154854864674787
1040
7.4666519409123024
1040
50.0
1040
0.0
1040
0.0
1070
     0
1070
  1500
1070
     1
1070
     1
1070
     0
1070
     0
1070
     0
1070
     0
1040
0.0
1040
0.0
1040
0.0
1040
10.0
1040
10.0
1040
10.0
1040
10.0
1070
     0
1002
{
1002
}
1002
}
  0
VIEWPORT
  5
BA7
 67
     1
  8
DEFPOINTS
 10
5.226985105824685
 20
7.4669069037231859
 30
0.0
 40
10.7380198379987508
 41
15.2024891858478401
 68
     2
 69
     2
1001
ACAD
1000
MVIEW
1002
{
1070
    16
1010
409.9814583995940893
1020
297.0000013216080106
1030
0.0000000155863805
1010
0.0
1020
0.0
1030
1.0
1040
0.0
1040
618.6589807454830634
1040
-197.574342498847102
1040
3.6688125928287292
1040
50.0
1040
0.0
1040
0.0
1070
     0
1070
  1500
1070
     1
1070
     0
1070
     0
1070
     0
1070
     0
1070
     0
1040
0.0
1040
0.0
1040
0.0
1040
1.0
1040
1.0
1040
10.0
1040
10.0
1070
     0
1002
{
1002
}
1002
}
  0
VIEWPORT
  5
BAB
 67
     1
  8
DEFPOINTS
 10
8.2473086319876181
 20
7.0808978128069127
 30
0.0
 40
2.9069274154488549
 41
4.9944056034967508
 68
     3
 69
     3
1001
ACAD
1000
MVIEW
1002
{
1070
    16
1010
769.9294122281238515
1020
330.3171584767932814
1030
9.7692049996438346
1010
0.0000000000001137
1020
138.102409066066997
1030
714.0713248880706487
1040
3.282176972900658
1040
327.8528622410107118
1040
0.0
1040
0.0
1040
50.0
1040
0.0
1040
0.0
1070
     0
1070
  1500
1070
     1
1070
     0
1070
     0
1070
     0
1070
     0
1070
     0
1040
0.0
1040
0.0
1040
0.0
1040
1.0
1040
1.0
1040
10.0
1040
10.0
1070
     0
1002
{
1002
}
1002
}
  0
ENDSEC
  0
EOF
