  0
SECTION
  2
HEADER
  9
$ACADVER
  1
AC1009
  9
$INSBASE
 10
0.0
 20
0.0
 30
0.0
  9
$EXTMIN
 10
124.0356212937720954
 20
-168.6326097677711005
 30
-33.5454411580986402
  9
$EXTMAX
 10
289.0533198345968913
 20
169.4821163495342091
 30
-33.5428819611890319
  9
$LIMMIN
 10
0.0
 20
0.0
  9
$LIMMAX
 10
210.0
 20
297.0
  9
$ORTHOMODE
 70
     1
  9
$REGENMODE
 70
     1
  9
$FILLMODE
 70
     1
  9
$QTEXTMODE
 70
     0
  9
$MIRRTEXT
 70
     1
  9
$DRAGMODE
 70
     2
  9
$LTSCALE
 40
10.0
  9
$OSMODE
 70
  2495
  9
$ATTMODE
 70
     1
  9
$TEXTSIZE
 40
3.5
  9
$TRACEWID
 40
0.5
  9
$TEXTSTYLE
  7
STANDARD
  9
$CLAYER
  8
STEMPEL
  9
$CELTYPE
  6
BYLAYER
  9
$CECOLOR
 62
   256
  9
$DIMSCALE
 40
1.0
  9
$DIMASZ
 40
3.5
  9
$DIMEXO
 40
1.0
  9
$DIMDLI
 40
7.0
  9
$DIMRND
 40
0.0
  9
$DIMDLE
 40
0.0
  9
$DIMEXE
 40
1.0
  9
$DIMTP
 40
0.0
  9
$DIMTM
 40
0.0
  9
$DIMTXT
 40
3.5
  9
$DIMCEN
 40
1.5
  9
$DIMTSZ
 40
0.0
  9
$DIMTOL
 70
     0
  9
$DIMLIM
 70
     0
  9
$DIMTIH
 70
     0
  9
$DIMTOH
 70
     0
  9
$DIMSE1
 70
     0
  9
$DIMSE2
 70
     0
  9
$DIMTAD
 70
     1
  9
$DIMZIN
 70
     8
  9
$DIMBLK
  1

  9
$DIMASO
 70
     1
  9
$DIMSHO
 70
     0
  9
$DIMPOST
  1

  9
$DIMAPOST
  1

  9
$DIMALT
 70
     0
  9
$DIMALTD
 70
     2
  9
$DIMALTF
 40
25.3999999999999986
  9
$DIMLFAC
 40
2.0
  9
$DIMTOFL
 70
     1
  9
$DIMTVP
 40
0.0
  9
$DIMTIX
 70
     0
  9
$DIMSOXD
 70
     0
  9
$DIMSAH
 70
     0
  9
$DIMBLK1
  1

  9
$DIMBLK2
  1

  9
$DIMSTYLE
  2
STANDARD
  9
$DIMCLRD
 70
     0
  9
$DIMCLRE
 70
     0
  9
$DIMCLRT
 70
     1
  9
$DIMTFAC
 40
0.5
  9
$DIMGAP
 40
1.5
  9
$LUNITS
 70
     2
  9
$LUPREC
 70
     2
  9
$SKETCHINC
 40
1.0
  9
$FILLETRAD
 40
5.5
  9
$AUNITS
 70
     0
  9
$AUPREC
 70
     0
  9
$MENU
  1
ACAD
  9
$ELEVATION
 40
0.0
  9
$PELEVATION
 40
0.0
  9
$THICKNESS
 40
0.0
  9
$LIMCHECK
 70
     0
  9
$BLIPMODE
 70
     0
  9
$CHAMFERA
 40
2.0
  9
$CHAMFERB
 40
2.0
  9
$SKPOLY
 70
     0
  9
$TDCREATE
 40
2455397.8646990740671754
  9
$TDUPDATE
 40
2459627.5275231478735805
  9
$TDINDWG
 40
0.25718
  9
$TDUSRTIMER
 40
0.25718
  9
$USRTIMER
 70
     1
  9
$ANGBASE
 50
0.0
  9
$ANGDIR
 70
     0
  9
$PDMODE
 70
     0
  9
$PDSIZE
 40
0.0
  9
$PLINEWID
 40
0.0
  9
$COORDS
 70
     1
  9
$SPLFRAME
 70
     0
  9
$SPLINETYPE
 70
     6
  9
$SPLINESEGS
 70
     8
  9
$ATTDIA
 70
     1
  9
$ATTREQ
 70
     1
  9
$HANDLING
 70
     1
  9
$HANDSEED
  5
2CC4
  9
$SURFTAB1
 70
     6
  9
$SURFTAB2
 70
     6
  9
$SURFTYPE
 70
     6
  9
$SURFU
 70
     6
  9
$SURFV
 70
     6
  9
$UCSNAME
  2

  9
$UCSORG
 10
0.0
 20
0.0
 30
0.0
  9
$UCSXDIR
 10
1.0
 20
0.0
 30
0.0
  9
$UCSYDIR
 10
0.0
 20
1.0
 30
0.0
  9
$PUCSNAME
  2

  9
$PUCSORG
 10
0.0
 20
0.0
 30
0.0
  9
$PUCSXDIR
 10
1.0
 20
0.0
 30
0.0
  9
$PUCSYDIR
 10
0.0
 20
1.0
 30
0.0
  9
$USERI1
 70
     0
  9
$USERI2
 70
     0
  9
$USERI3
 70
     0
  9
$USERI4
 70
     0
  9
$USERI5
 70
     0
  9
$USERR1
 40
0.0
  9
$USERR2
 40
0.0
  9
$USERR3
 40
0.0
  9
$USERR4
 40
0.0
  9
$USERR5
 40
0.0
  9
$WORLDVIEW
 70
     1
  9
$SHADEDGE
 70
     3
  9
$SHADEDIF
 70
    70
  9
$TILEMODE
 70
     1
  9
$MAXACTVP
 70
    16
  9
$PLIMCHECK
 70
     0
  9
$PEXTMIN
 10
1.0000000000000000E+20
 20
1.0000000000000000E+20
 30
1.0000000000000000E+20
  9
$PEXTMAX
 10
-1.0000000000000000E+20
 20
-1.0000000000000000E+20
 30
-1.0000000000000000E+20
  9
$PLIMMIN
 10
-0.0674642631973264
 20
-0.0511601294987543
  9
$PLIMMAX
 10
209.9325357368026914
 20
296.9488398705012742
  9
$UNITMODE
 70
     0
  9
$VISRETAIN
 70
     0
  9
$PLINEGEN
 70
     0
  9
$PSLTSCALE
 70
     0
  0
ENDSEC
  0
SECTION
  2
TABLES
  0
TABLE
  2
VPORT
 70
     1
  0
VPORT
  2
*ACTIVE
 70
     0
 10
0.0
 20
0.0
 11
1.0
 21
1.0
 12
0.10828128594963
 22
-207.4760238850115002
 13
0.0
 23
0.0
 14
1.0
 24
1.0
 15
10.0
 25
10.0
 16
-0.000000000000199
 26
0.0
 36
959.002537327653954
 17
206.4361892782349059
 27
207.9007771758930119
 37
-16.7722087709080583
 40
340.532709855927294
 41
1.785202863961814
 42
50.0
 43
0.0
 44
0.0
 50
0.0
 51
0.0
 71
     0
 72
  1500
 73
     1
 74
     0
 75
     0
 76
     0
 77
     0
 78
     0
  0
ENDTAB
  0
TABLE
  2
LTYPE
 70
     3
  0
LTYPE
  2
CONTINUOUS
 70
     0
  3
Solid line
 72
    65
 73
     0
 40
0.0
  0
LTYPE
  2
PHANTOM2
 70
     0
  3
Phantom (.5x) ___ _ _ ___ _ _ ___ _ _ ___ _ _
 72
    65
 73
     6
 40
1.25
 49
0.625
 49
-0.125
 49
0.125
 49
-0.125
 49
0.125
 49
-0.125
  0
LTYPE
  2
VERDECKT
 70
     0
  3
Verdeckt __ __ __ __ __ __ __ __ __ __ __ __ __
 72
    65
 73
     2
 40
0.375
 49
0.25
 49
-0.125
  0
ENDTAB
  0
TABLE
  2
LAYER
 70
     6
  0
LAYER
  2
0
 70
     0
 62
     7
  6
CONTINUOUS
  0
LAYER
  2
VOLL
 70
     0
 62
     1
  6
CONTINUOUS
  0
LAYER
  2
STEMPEL
 70
     0
 62
     3
  6
CONTINUOUS
  0
LAYER
  2
DEFPOINTS
 70
     0
 62
     7
  6
CONTINUOUS
  0
LAYER
  2
ADSK_ASSOC_ENTITY_BACKUPS
 70
     1
 62
    -7
  6
CONTINUOUS
  0
ENDTAB
  0
TABLE
  2
STYLE
 70
     3
  0
STYLE
  2
STANDARD
 70
     0
 40
0.0
 41
0.8
 50
0.0
 71
     0
 42
3.5
  3
simplex.shx
  4

  0
STYLE
  2
GREEKS
 70
     0
 40
0.0
 41
0.8
 50
0.0
 71
     0
 42
2.5
  3
SIMPLEX.shx
  4

  0
ENDTAB
  0
TABLE
  2
VIEW
 70
     0
  0
ENDTAB
  0
TABLE
  2
UCS
 70
     0
  0
ENDTAB
  0
TABLE
  2
APPID
 70
    23
  0
APPID
  2
ACAD
 70
     0
  0
APPID
  2
ACAD_NAV_VCDISPLAY
 70
     0
  0
APPID
  2
ACAD_MLEADERVER
 70
     0
  0
APPID
  2
ACAD_EXEMPT_FROM_CAD_STANDARDS
 70
     0
  0
APPID
  2
ACAD_PSEXT
 70
     0
  0
APPID
  2
ACAECLAYERSTANDARD
 70
     0
  0
APPID
  2
ACAUTHENVIRON
 70
     0
  0
APPID
  2
ACCMTRANSPARENCY
 70
     0
  0
APPID
  2
ACAD_STEPID
 70
     0
  0
APPID
  2
ACSYNERGY
 70
     0
  0
APPID
  2
SYNERGY_BODY_TBR_ID
 70
     0
  0
APPID
  2
ACAD_VIEW_EDGE_ID
 70
     0
  0
APPID
  2
ACSYNERGYSKETCH
 70
     0
  0
APPID
  2
ACAD_MODELDOC_XFORM
 70
     0
  0
APPID
  2
ACAD_DSTYLE_DIMJAG
 70
     0
  0
APPID
  2
ACAD_DSTYLE_DIMTALN
 70
     0
  0
APPID
  2
ACADANNOMONITORALERTICONDI
 70
     0
  0
APPID
  2
ACAD_DIMASSOC_CALC_DIMLFAC
 70
     0
  0
APPID
  2
ACAD_DIMASSOC_DIMLFAC
 70
     0
  0
APPID
  2
ACAD_DIMASSOC_OVERRIDDEN_D
 70
     0
  0
APPID
  2
ACAD_DSTYLE_DIMRADIAL_EXTENSION
 70
     0
  0
APPID
  2
GRADIENTCOLOR1ACI
 70
     0
  0
APPID
  2
GRADIENTCOLOR2ACI
 70
     0
  0
ENDTAB
  0
TABLE
  2
DIMSTYLE
 70
     1
  0
DIMSTYLE
  2
STANDARD
 70
     0
  3

  4

  5

  6

  7

 40
1.0
 41
0.18
 42
0.0625
 43
0.38
 44
0.18
 45
0.0
 46
0.0
 47
0.0
 48
0.0
140
0.18
141
0.09
142
0.0
143
25.3999999999999986
144
1.0
145
0.0
146
1.0
147
0.09
 71
     0
 72
     0
 73
     1
 74
     1
 75
     0
 76
     0
 77
     0
 78
     0
170
     0
171
     2
172
     0
173
     0
174
     0
175
     0
176
     0
177
     0
178
     0
  0
ENDTAB
  0
ENDSEC
  0
SECTION
  2
BLOCKS
  0
BLOCK
  8
0
  2
$MODEL_SPACE
 70
     0
 10
0.0
 20
0.0
 30
0.0
  3
$MODEL_SPACE
  1

  0
ENDBLK
  5
36
  8
0
  0
BLOCK
 67
     1
  8
0
  2
$PAPER_SPACE
 70
     0
 10
0.0
 20
0.0
 30
0.0
  3
$PAPER_SPACE
  1

  0
ENDBLK
  5
34
 67
     1
  8
0
  0
BLOCK
  8
0
  2
*S0
 70
     1
 10
0.0
 20
0.0
 30
0.0
  3
*S0
  1

  0
ENDBLK
  5
B3A
  8
0
  0
BLOCK
  8
0
  2
A$C3F932B2A
 70
     0
 10
0.0
 20
0.0
 30
0.0
  3
A$C3F932B2A
  1

  0
POLYLINE
  8
0
  5
20AC
  66
     1
 10
0.000000
 20
0.000000
 30
0.000000
  70
     8
  0
VERTEX
  8
0
  5
20AD
 10
70.5778
 20
215.212
 30
1.58000e-14
  70
    32
  0
VERTEX
  8
0
  5
20AE
 10
70.5778
 20
215.223
 30
1.58000e-14
  70
    32
  0
VERTEX
  8
0
  5
20AF
 10
70.5778
 20
215.234
 30
1.58000e-14
  70
    32
  0
VERTEX
  8
0
  5
20B0
 10
70.5778
 20
215.245
 30
1.58000e-14
  70
    32
  0
VERTEX
  8
0
  5
20B1
 10
70.5779
 20
215.255
 30
1.58000e-14
  70
    32
  0
VERTEX
  8
0
  5
20B2
 10
70.5779
 20
215.266
 30
1.58000e-14
  70
    32
  0
VERTEX
  8
0
  5
20B3
 10
70.5780
 20
215.277
 30
1.58000e-14
  70
    32
  0
VERTEX
  8
0
  5
20B4
 10
70.5781
 20
215.288
 30
1.58000e-14
  70
    32
  0
VERTEX
  8
0
  5
20B5
 10
70.5782
 20
215.298
 30
1.58000e-14
  70
    32
  0
VERTEX
  8
0
  5
20B6
 10
70.5783
 20
215.309
 30
1.58000e-14
  70
    32
  0
VERTEX
  8
0
  5
20B7
 10
70.5784
 20
215.320
 30
1.58000e-14
  70
    32
  0
VERTEX
  8
0
  5
20B8
 10
70.5786
 20
215.331
 30
1.58000e-14
  70
    32
  0
VERTEX
  8
0
  5
20B9
 10
70.5787
 20
215.341
 30
1.58000e-14
  70
    32
  0
VERTEX
  8
0
  5
20BA
 10
70.5789
 20
215.352
 30
1.58000e-14
  70
    32
  0
VERTEX
  8
0
  5
20BB
 10
70.5791
 20
215.363
 30
1.58000e-14
  70
    32
  0
VERTEX
  8
0
  5
20BC
 10
70.5793
 20
215.374
 30
1.58000e-14
  70
    32
  0
VERTEX
  8
0
  5
20BD
 10
70.5795
 20
215.385
 30
1.58000e-14
  70
    32
  0
VERTEX
  8
0
  5
20BE
 10
70.5797
 20
215.395
 30
1.58000e-14
  70
    32
  0
VERTEX
  8
0
  5
20BF
 10
70.5799
 20
215.406
 30
1.58000e-14
  70
    32
  0
VERTEX
  8
0
  5
20C0
 10
70.5801
 20
215.417
 30
1.58000e-14
  70
    32
  0
VERTEX
  8
0
  5
20C1
 10
70.5804
 20
215.428
 30
1.58000e-14
  70
    32
  0
VERTEX
  8
0
  5
20C2
 10
70.5807
 20
215.439
 30
1.58000e-14
  70
    32
  0
VERTEX
  8
0
  5
20C3
 10
70.5809
 20
215.449
 30
1.58000e-14
  70
    32
  0
VERTEX
  8
0
  5
20C4
 10
70.5812
 20
215.460
 30
1.58000e-14
  70
    32
  0
VERTEX
  8
0
  5
20C5
 10
70.5815
 20
215.471
 30
1.58000e-14
  70
    32
  0
VERTEX
  8
0
  5
20C6
 10
70.5819
 20
215.482
 30
1.58000e-14
  70
    32
  0
VERTEX
  8
0
  5
20C7
 10
70.5822
 20
215.493
 30
1.58000e-14
  70
    32
  0
VERTEX
  8
0
  5
20C8
 10
70.5825
 20
215.504
 30
1.58000e-14
  70
    32
  0
VERTEX
  8
0
  5
20C9
 10
70.5829
 20
215.514
 30
1.58000e-14
  70
    32
  0
VERTEX
  8
0
  5
20CA
 10
70.5833
 20
215.525
 30
1.58000e-14
  70
    32
  0
VERTEX
  8
0
  5
20CB
 10
70.5837
 20
215.536
 30
1.58000e-14
  70
    32
  0
VERTEX
  8
0
  5
20CC
 10
70.5841
 20
215.547
 30
1.58000e-14
  70
    32
  0
VERTEX
  8
0
  5
20CD
 10
70.5845
 20
215.558
 30
1.58000e-14
  70
    32
  0
VERTEX
  8
0
  5
20CE
 10
70.5849
 20
215.569
 30
1.58000e-14
  70
    32
  0
VERTEX
  8
0
  5
20CF
 10
70.5853
 20
215.580
 30
1.58000e-14
  70
    32
  0
VERTEX
  8
0
  5
20D0
 10
70.5858
 20
215.591
 30
1.58000e-14
  70
    32
  0
VERTEX
  8
0
  5
20D1
 10
70.5863
 20
215.601
 30
1.58000e-14
  70
    32
  0
VERTEX
  8
0
  5
20D2
 10
70.5867
 20
215.612
 30
1.58000e-14
  70
    32
  0
VERTEX
  8
0
  5
20D3
 10
70.5872
 20
215.623
 30
1.58000e-14
  70
    32
  0
VERTEX
  8
0
  5
20D4
 10
70.5877
 20
215.634
 30
1.58000e-14
  70
    32
  0
VERTEX
  8
0
  5
20D5
 10
70.5883
 20
215.645
 30
1.58000e-14
  70
    32
  0
VERTEX
  8
0
  5
20D6
 10
70.5888
 20
215.656
 30
1.58000e-14
  70
    32
  0
VERTEX
  8
0
  5
20D7
 10
70.5893
 20
215.667
 30
1.58000e-14
  70
    32
  0
VERTEX
  8
0
  5
20D8
 10
70.5899
 20
215.678
 30
1.58000e-14
  70
    32
  0
VERTEX
  8
0
  5
20D9
 10
70.5905
 20
215.688
 30
1.58000e-14
  70
    32
  0
VERTEX
  8
0
  5
20DA
 10
70.5911
 20
215.699
 30
1.58000e-14
  70
    32
  0
VERTEX
  8
0
  5
20DB
 10
70.5917
 20
215.710
 30
1.58000e-14
  70
    32
  0
VERTEX
  8
0
  5
20DC
 10
70.5923
 20
215.721
 30
1.58000e-14
  70
    32
  0
VERTEX
  8
0
  5
20DD
 10
70.5929
 20
215.732
 30
1.58000e-14
  70
    32
  0
VERTEX
  8
0
  5
20DE
 10
70.5935
 20
215.743
 30
1.58000e-14
  70
    32
  0
VERTEX
  8
0
  5
20DF
 10
70.5942
 20
215.754
 30
1.58000e-14
  70
    32
  0
VERTEX
  8
0
  5
20E0
 10
70.5948
 20
215.765
 30
1.58000e-14
  70
    32
  0
VERTEX
  8
0
  5
20E1
 10
70.5955
 20
215.776
 30
1.58000e-14
  70
    32
  0
VERTEX
  8
0
  5
20E2
 10
70.5962
 20
215.787
 30
1.58000e-14
  70
    32
  0
VERTEX
  8
0
  5
20E3
 10
70.5969
 20
215.798
 30
1.58000e-14
  70
    32
  0
VERTEX
  8
0
  5
20E4
 10
70.5976
 20
215.808
 30
1.58000e-14
  70
    32
  0
VERTEX
  8
0
  5
20E5
 10
70.5984
 20
215.819
 30
1.58000e-14
  70
    32
  0
VERTEX
  8
0
  5
20E6
 10
70.5991
 20
215.830
 30
1.58000e-14
  70
    32
  0
VERTEX
  8
0
  5
20E7
 10
70.5999
 20
215.841
 30
1.58000e-14
  70
    32
  0
VERTEX
  8
0
  5
20E8
 10
70.6007
 20
215.852
 30
1.58000e-14
  70
    32
  0
VERTEX
  8
0
  5
20E9
 10
70.6014
 20
215.863
 30
1.58000e-14
  70
    32
  0
VERTEX
  8
0
  5
20EA
 10
70.6022
 20
215.874
 30
1.58000e-14
  70
    32
  0
VERTEX
  8
0
  5
20EB
 10
70.6031
 20
215.885
 30
1.58000e-14
  70
    32
  0
VERTEX
  8
0
  5
20EC
 10
70.6039
 20
215.896
 30
1.58000e-14
  70
    32
  0
VERTEX
  8
0
  5
20ED
 10
70.6047
 20
215.907
 30
1.58000e-14
  70
    32
  0
VERTEX
  8
0
  5
20EE
 10
70.6056
 20
215.918
 30
1.58000e-14
  70
    32
  0
VERTEX
  8
0
  5
20EF
 10
70.6064
 20
215.929
 30
1.58000e-14
  70
    32
  0
VERTEX
  8
0
  5
20F0
 10
70.6073
 20
215.940
 30
1.58000e-14
  70
    32
  0
VERTEX
  8
0
  5
20F1
 10
70.6082
 20
215.951
 30
1.58000e-14
  70
    32
  0
VERTEX
  8
0
  5
20F2
 10
70.6091
 20
215.962
 30
1.58000e-14
  70
    32
  0
VERTEX
  8
0
  5
20F3
 10
70.6100
 20
215.973
 30
1.58000e-14
  70
    32
  0
VERTEX
  8
0
  5
20F4
 10
70.6110
 20
215.984
 30
1.58000e-14
  70
    32
  0
VERTEX
  8
0
  5
20F5
 10
70.6119
 20
215.994
 30
1.58000e-14
  70
    32
  0
VERTEX
  8
0
  5
20F6
 10
70.6129
 20
216.005
 30
1.58000e-14
  70
    32
  0
VERTEX
  8
0
  5
20F7
 10
70.6138
 20
216.016
 30
1.58000e-14
  70
    32
  0
VERTEX
  8
0
  5
20F8
 10
70.6148
 20
216.027
 30
1.58000e-14
  70
    32
  0
VERTEX
  8
0
  5
20F9
 10
70.6158
 20
216.038
 30
1.58000e-14
  70
    32
  0
VERTEX
  8
0
  5
20FA
 10
70.6169
 20
216.049
 30
1.58000e-14
  70
    32
  0
VERTEX
  8
0
  5
20FB
 10
70.6179
 20
216.060
 30
1.58000e-14
  70
    32
  0
VERTEX
  8
0
  5
20FC
 10
70.6189
 20
216.071
 30
1.58000e-14
  70
    32
  0
VERTEX
  8
0
  5
20FD
 10
70.6200
 20
216.082
 30
1.58000e-14
  70
    32
  0
VERTEX
  8
0
  5
20FE
 10
70.6210
 20
216.093
 30
1.58000e-14
  70
    32
  0
VERTEX
  8
0
  5
20FF
 10
70.6221
 20
216.104
 30
1.58000e-14
  70
    32
  0
VERTEX
  8
0
  5
2100
 10
70.6232
 20
216.115
 30
1.58000e-14
  70
    32
  0
VERTEX
  8
0
  5
2101
 10
70.6243
 20
216.126
 30
1.58000e-14
  70
    32
  0
VERTEX
  8
0
  5
2102
 10
70.6255
 20
216.137
 30
1.58000e-14
  70
    32
  0
VERTEX
  8
0
  5
2103
 10
70.6266
 20
216.148
 30
1.58000e-14
  70
    32
  0
VERTEX
  8
0
  5
2104
 10
70.6277
 20
216.159
 30
1.58000e-14
  70
    32
  0
VERTEX
  8
0
  5
2105
 10
70.6289
 20
216.170
 30
1.58000e-14
  70
    32
  0
VERTEX
  8
0
  5
2106
 10
70.6301
 20
216.181
 30
1.58000e-14
  70
    32
  0
VERTEX
  8
0
  5
2107
 10
70.6313
 20
216.192
 30
1.58000e-14
  70
    32
  0
VERTEX
  8
0
  5
2108
 10
70.6325
 20
216.203
 30
1.58000e-14
  70
    32
  0
VERTEX
  8
0
  5
2109
 10
70.6337
 20
216.214
 30
1.58000e-14
  70
    32
  0
VERTEX
  8
0
  5
210A
 10
70.6349
 20
216.225
 30
1.58000e-14
  70
    32
  0
VERTEX
  8
0
  5
210B
 10
70.6362
 20
216.236
 30
1.58000e-14
  70
    32
  0
VERTEX
  8
0
  5
210C
 10
70.6374
 20
216.247
 30
1.58000e-14
  70
    32
  0
VERTEX
  8
0
  5
210D
 10
70.6387
 20
216.257
 30
1.58000e-14
  70
    32
  0
VERTEX
  8
0
  5
210E
 10
70.6400
 20
216.268
 30
1.58000e-14
  70
    32
  0
VERTEX
  8
0
  5
210F
 10
70.6413
 20
216.279
 30
1.58000e-14
  70
    32
  0
VERTEX
  8
0
  5
2110
 10
70.6426
 20
216.290
 30
1.58000e-14
  70
    32
  0
VERTEX
  8
0
  5
2111
 10
70.6439
 20
216.301
 30
1.58000e-14
  70
    32
  0
VERTEX
  8
0
  5
2112
 10
70.6453
 20
216.312
 30
1.58000e-14
  70
    32
  0
VERTEX
  8
0
  5
2113
 10
70.6466
 20
216.323
 30
1.58000e-14
  70
    32
  0
VERTEX
  8
0
  5
2114
 10
70.6480
 20
216.334
 30
1.58000e-14
  70
    32
  0
VERTEX
  8
0
  5
2115
 10
70.6494
 20
216.345
 30
1.58000e-14
  70
    32
  0
VERTEX
  8
0
  5
2116
 10
70.6508
 20
216.356
 30
1.58000e-14
  70
    32
  0
VERTEX
  8
0
  5
2117
 10
70.6522
 20
216.367
 30
1.58000e-14
  70
    32
  0
VERTEX
  8
0
  5
2118
 10
70.6536
 20
216.378
 30
1.58000e-14
  70
    32
  0
VERTEX
  8
0
  5
2119
 10
70.6550
 20
216.389
 30
1.58000e-14
  70
    32
  0
VERTEX
  8
0
  5
211A
 10
70.6565
 20
216.400
 30
1.58000e-14
  70
    32
  0
VERTEX
  8
0
  5
211B
 10
70.6579
 20
216.411
 30
1.58000e-14
  70
    32
  0
VERTEX
  8
0
  5
211C
 10
70.6594
 20
216.422
 30
1.58000e-14
  70
    32
  0
VERTEX
  8
0
  5
211D
 10
70.6609
 20
216.433
 30
1.58000e-14
  70
    32
  0
VERTEX
  8
0
  5
211E
 10
70.6624
 20
216.444
 30
1.58000e-14
  70
    32
  0
VERTEX
  8
0
  5
211F
 10
70.6639
 20
216.455
 30
1.58000e-14
  70
    32
  0
VERTEX
  8
0
  5
2120
 10
70.6655
 20
216.466
 30
1.58000e-14
  70
    32
  0
VERTEX
  8
0
  5
2121
 10
70.6670
 20
216.477
 30
1.58000e-14
  70
    32
  0
VERTEX
  8
0
  5
2122
 10
70.6686
 20
216.488
 30
1.58000e-14
  70
    32
  0
VERTEX
  8
0
  5
2123
 10
70.6701
 20
216.498
 30
1.58000e-14
  70
    32
  0
VERTEX
  8
0
  5
2124
 10
70.6717
 20
216.509
 30
1.58000e-14
  70
    32
  0
VERTEX
  8
0
  5
2125
 10
70.6733
 20
216.520
 30
1.58000e-14
  70
    32
  0
VERTEX
  8
0
  5
2126
 10
70.6749
 20
216.531
 30
1.58000e-14
  70
    32
  0
VERTEX
  8
0
  5
2127
 10
70.6766
 20
216.542
 30
1.58000e-14
  70
    32
  0
VERTEX
  8
0
  5
2128
 10
70.6782
 20
216.553
 30
1.58000e-14
  70
    32
  0
VERTEX
  8
0
  5
2129
 10
70.6799
 20
216.564
 30
1.58000e-14
  70
    32
  0
VERTEX
  8
0
  5
212A
 10
70.6815
 20
216.575
 30
1.58000e-14
  70
    32
  0
VERTEX
  8
0
  5
212B
 10
70.6832
 20
216.586
 30
1.58001e-14
  70
    32
  0
VERTEX
  8
0
  5
212C
 10
70.6849
 20
216.597
 30
1.58001e-14
  70
    32
  0
VERTEX
  8
0
  5
212D
 10
70.6866
 20
216.608
 30
1.58001e-14
  70
    32
  0
VERTEX
  8
0
  5
212E
 10
70.6883
 20
216.619
 30
1.58001e-14
  70
    32
  0
VERTEX
  8
0
  5
212F
 10
70.6901
 20
216.630
 30
1.58002e-14
  70
    32
  0
VERTEX
  8
0
  5
2130
 10
70.6918
 20
216.641
 30
1.58002e-14
  70
    32
  0
VERTEX
  8
0
  5
2131
 10
70.6936
 20
216.651
 30
1.58002e-14
  70
    32
  0
VERTEX
  8
0
  5
2132
 10
70.6954
 20
216.662
 30
1.58003e-14
  70
    32
  0
VERTEX
  8
0
  5
2133
 10
70.6972
 20
216.673
 30
1.58003e-14
  70
    32
  0
VERTEX
  8
0
  5
2134
 10
70.6990
 20
216.684
 30
1.58004e-14
  70
    32
  0
VERTEX
  8
0
  5
2135
 10
70.7008
 20
216.695
 30
1.58004e-14
  70
    32
  0
VERTEX
  8
0
  5
2136
 10
70.7026
 20
216.706
 30
1.58005e-14
  70
    32
  0
VERTEX
  8
0
  5
2137
 10
70.7045
 20
216.717
 30
1.58006e-14
  70
    32
  0
VERTEX
  8
0
  5
2138
 10
70.7063
 20
216.728
 30
1.58007e-14
  70
    32
  0
VERTEX
  8
0
  5
2139
 10
70.7082
 20
216.739
 30
1.58008e-14
  70
    32
  0
VERTEX
  8
0
  5
213A
 10
70.7101
 20
216.750
 30
1.58009e-14
  70
    32
  0
VERTEX
  8
0
  5
213B
 10
70.7120
 20
216.760
 30
1.58010e-14
  70
    32
  0
VERTEX
  8
0
  5
213C
 10
70.7139
 20
216.771
 30
1.58011e-14
  70
    32
  0
VERTEX
  8
0
  5
213D
 10
70.7158
 20
216.782
 30
1.58012e-14
  70
    32
  0
VERTEX
  8
0
  5
213E
 10
70.7177
 20
216.793
 30
1.58013e-14
  70
    32
  0
VERTEX
  8
0
  5
213F
 10
70.7197
 20
216.804
 30
1.58015e-14
  70
    32
  0
VERTEX
  8
0
  5
2140
 10
70.7216
 20
216.815
 30
1.58016e-14
  70
    32
  0
VERTEX
  8
0
  5
2141
 10
70.7236
 20
216.826
 30
1.58018e-14
  70
    32
  0
VERTEX
  8
0
  5
2142
 10
70.7256
 20
216.837
 30
1.58020e-14
  70
    32
  0
VERTEX
  8
0
  5
2143
 10
70.7276
 20
216.847
 30
1.58021e-14
  70
    32
  0
VERTEX
  8
0
  5
2144
 10
70.7296
 20
216.858
 30
1.58023e-14
  70
    32
  0
VERTEX
  8
0
  5
2145
 10
70.7317
 20
216.869
 30
1.58025e-14
  70
    32
  0
VERTEX
  8
0
  5
2146
 10
70.7337
 20
216.880
 30
1.58028e-14
  70
    32
  0
VERTEX
  8
0
  5
2147
 10
70.7358
 20
216.891
 30
1.58030e-14
  70
    32
  0
VERTEX
  8
0
  5
2148
 10
70.7378
 20
216.902
 30
1.58032e-14
  70
    32
  0
VERTEX
  8
0
  5
2149
 10
70.7399
 20
216.913
 30
1.58035e-14
  70
    32
  0
VERTEX
  8
0
  5
214A
 10
70.7420
 20
216.923
 30
1.58037e-14
  70
    32
  0
VERTEX
  8
0
  5
214B
 10
70.7441
 20
216.934
 30
1.58040e-14
  70
    32
  0
VERTEX
  8
0
  5
214C
 10
70.7462
 20
216.945
 30
1.58043e-14
  70
    32
  0
VERTEX
  8
0
  5
214D
 10
70.7484
 20
216.956
 30
1.58046e-14
  70
    32
  0
VERTEX
  8
0
  5
214E
 10
70.7505
 20
216.967
 30
1.58049e-14
  70
    32
  0
VERTEX
  8
0
  5
214F
 10
70.7527
 20
216.978
 30
1.58053e-14
  70
    32
  0
VERTEX
  8
0
  5
2150
 10
70.7548
 20
216.988
 30
1.58056e-14
  70
    32
  0
VERTEX
  8
0
  5
2151
 10
70.7570
 20
216.999
 30
1.58060e-14
  70
    32
  0
VERTEX
  8
0
  5
2152
 10
70.7592
 20
217.010
 30
1.58064e-14
  70
    32
  0
VERTEX
  8
0
  5
2153
 10
70.7614
 20
217.021
 30
1.58068e-14
  70
    32
  0
VERTEX
  8
0
  5
2154
 10
70.7637
 20
217.032
 30
1.58072e-14
  70
    32
  0
VERTEX
  8
0
  5
2155
 10
70.7659
 20
217.042
 30
1.58076e-14
  70
    32
  0
VERTEX
  8
0
  5
2156
 10
70.7681
 20
217.053
 30
1.58081e-14
  70
    32
  0
VERTEX
  8
0
  5
2157
 10
70.7704
 20
217.064
 30
1.58085e-14
  70
    32
  0
VERTEX
  8
0
  5
2158
 10
70.7727
 20
217.075
 30
1.58090e-14
  70
    32
  0
VERTEX
  8
0
  5
2159
 10
70.7750
 20
217.086
 30
1.58095e-14
  70
    32
  0
VERTEX
  8
0
  5
215A
 10
70.7773
 20
217.096
 30
1.58100e-14
  70
    32
  0
VERTEX
  8
0
  5
215B
 10
70.7796
 20
217.107
 30
1.58106e-14
  70
    32
  0
VERTEX
  8
0
  5
215C
 10
70.7819
 20
217.118
 30
1.58111e-14
  70
    32
  0
VERTEX
  8
0
  5
215D
 10
70.7843
 20
217.129
 30
1.58117e-14
  70
    32
  0
VERTEX
  8
0
  5
215E
 10
70.7866
 20
217.139
 30
1.58123e-14
  70
    32
  0
VERTEX
  8
0
  5
215F
 10
70.7890
 20
217.150
 30
1.58129e-14
  70
    32
  0
VERTEX
  8
0
  5
2160
 10
70.7913
 20
217.161
 30
1.58135e-14
  70
    32
  0
VERTEX
  8
0
  5
2161
 10
70.7937
 20
217.172
 30
1.58142e-14
  70
    32
  0
VERTEX
  8
0
  5
2162
 10
70.7961
 20
217.182
 30
1.58148e-14
  70
    32
  0
VERTEX
  8
0
  5
2163
 10
70.7986
 20
217.193
 30
1.58155e-14
  70
    32
  0
VERTEX
  8
0
  5
2164
 10
70.8010
 20
217.204
 30
1.58162e-14
  70
    32
  0
VERTEX
  8
0
  5
2165
 10
70.8034
 20
217.215
 30
1.58170e-14
  70
    32
  0
VERTEX
  8
0
  5
2166
 10
70.8059
 20
217.225
 30
1.58177e-14
  70
    32
  0
VERTEX
  8
0
  5
2167
 10
70.8083
 20
217.236
 30
1.58185e-14
  70
    32
  0
VERTEX
  8
0
  5
2168
 10
70.8108
 20
217.247
 30
1.58193e-14
  70
    32
  0
VERTEX
  8
0
  5
2169
 10
70.8133
 20
217.258
 30
1.58202e-14
  70
    32
  0
VERTEX
  8
0
  5
216A
 10
70.8158
 20
217.268
 30
1.58210e-14
  70
    32
  0
VERTEX
  8
0
  5
216B
 10
70.8183
 20
217.279
 30
1.58219e-14
  70
    32
  0
VERTEX
  8
0
  5
216C
 10
70.8209
 20
217.290
 30
1.58228e-14
  70
    32
  0
VERTEX
  8
0
  5
216D
 10
70.8234
 20
217.300
 30
1.58237e-14
  70
    32
  0
VERTEX
  8
0
  5
216E
 10
70.8259
 20
217.311
 30
1.58246e-14
  70
    32
  0
VERTEX
  8
0
  5
216F
 10
70.8285
 20
217.322
 30
1.58256e-14
  70
    32
  0
VERTEX
  8
0
  5
2170
 10
70.8311
 20
217.332
 30
1.58266e-14
  70
    32
  0
VERTEX
  8
0
  5
2171
 10
70.8337
 20
217.343
 30
1.58276e-14
  70
    32
  0
VERTEX
  8
0
  5
2172
 10
70.8363
 20
217.354
 30
1.58287e-14
  70
    32
  0
VERTEX
  8
0
  5
2173
 10
70.8389
 20
217.364
 30
1.58297e-14
  70
    32
  0
VERTEX
  8
0
  5
2174
 10
70.8415
 20
217.375
 30
1.58308e-14
  70
    32
  0
VERTEX
  8
0
  5
2175
 10
70.8442
 20
217.386
 30
1.58320e-14
  70
    32
  0
VERTEX
  8
0
  5
2176
 10
70.8468
 20
217.396
 30
1.58331e-14
  70
    32
  0
VERTEX
  8
0
  5
2177
 10
70.8495
 20
217.407
 30
1.58343e-14
  70
    32
  0
VERTEX
  8
0
  5
2178
 10
70.8522
 20
217.418
 30
1.58355e-14
  70
    32
  0
VERTEX
  8
0
  5
2179
 10
70.8548
 20
217.428
 30
1.58367e-14
  70
    32
  0
VERTEX
  8
0
  5
217A
 10
70.8575
 20
217.439
 30
1.58380e-14
  70
    32
  0
VERTEX
  8
0
  5
217B
 10
70.8603
 20
217.449
 30
1.58393e-14
  70
    32
  0
VERTEX
  8
0
  5
217C
 10
70.8630
 20
217.460
 30
1.58406e-14
  70
    32
  0
VERTEX
  8
0
  5
217D
 10
70.8657
 20
217.471
 30
1.58420e-14
  70
    32
  0
VERTEX
  8
0
  5
217E
 10
70.8685
 20
217.481
 30
1.58434e-14
  70
    32
  0
VERTEX
  8
0
  5
217F
 10
70.8712
 20
217.492
 30
1.58448e-14
  70
    32
  0
VERTEX
  8
0
  5
2180
 10
70.8740
 20
217.502
 30
1.58462e-14
  70
    32
  0
VERTEX
  8
0
  5
2181
 10
70.8768
 20
217.513
 30
1.58477e-14
  70
    32
  0
VERTEX
  8
0
  5
2182
 10
70.8796
 20
217.524
 30
1.58492e-14
  70
    32
  0
VERTEX
  8
0
  5
2183
 10
70.8824
 20
217.534
 30
1.58507e-14
  70
    32
  0
VERTEX
  8
0
  5
2184
 10
70.8852
 20
217.545
 30
1.58523e-14
  70
    32
  0
VERTEX
  8
0
  5
2185
 10
70.8881
 20
217.555
 30
1.58539e-14
  70
    32
  0
VERTEX
  8
0
  5
2186
 10
70.8909
 20
217.566
 30
1.58555e-14
  70
    32
  0
VERTEX
  8
0
  5
2187
 10
70.8938
 20
217.576
 30
1.58572e-14
  70
    32
  0
VERTEX
  8
0
  5
2188
 10
70.8966
 20
217.587
 30
1.58589e-14
  70
    32
  0
VERTEX
  8
0
  5
2189
 10
70.8995
 20
217.597
 30
1.58606e-14
  70
    32
  0
VERTEX
  8
0
  5
218A
 10
70.9024
 20
217.608
 30
1.58623e-14
  70
    32
  0
VERTEX
  8
0
  5
218B
 10
70.9053
 20
217.618
 30
1.58641e-14
  70
    32
  0
VERTEX
  8
0
  5
218C
 10
70.9082
 20
217.629
 30
1.58660e-14
  70
    32
  0
VERTEX
  8
0
  5
218D
 10
70.9112
 20
217.639
 30
1.58678e-14
  70
    32
  0
VERTEX
  8
0
  5
218E
 10
70.9141
 20
217.650
 30
1.58697e-14
  70
    32
  0
VERTEX
  8
0
  5
218F
 10
70.9171
 20
217.660
 30
1.58717e-14
  70
    32
  0
VERTEX
  8
0
  5
2190
 10
70.9200
 20
217.671
 30
1.58736e-14
  70
    32
  0
VERTEX
  8
0
  5
2191
 10
70.9230
 20
217.681
 30
1.58756e-14
  70
    32
  0
VERTEX
  8
0
  5
2192
 10
70.9260
 20
217.692
 30
1.58777e-14
  70
    32
  0
VERTEX
  8
0
  5
2193
 10
70.9290
 20
217.702
 30
1.58798e-14
  70
    32
  0
VERTEX
  8
0
  5
2194
 10
70.9320
 20
217.713
 30
1.58819e-14
  70
    32
  0
VERTEX
  8
0
  5
2195
 10
70.9350
 20
217.723
 30
1.58840e-14
  70
    32
  0
VERTEX
  8
0
  5
2196
 10
70.9381
 20
217.733
 30
1.58860e-14
  70
    32
  0
VERTEX
  8
0
  5
2197
 10
70.9411
 20
217.744
 30
1.58878e-14
  70
    32
  0
VERTEX
  8
0
  5
2198
 10
70.9442
 20
217.754
 30
1.58895e-14
  70
    32
  0
VERTEX
  8
0
  5
2199
 10
70.9473
 20
217.765
 30
1.58910e-14
  70
    32
  0
VERTEX
  8
0
  5
219A
 10
70.9503
 20
217.775
 30
1.58923e-14
  70
    32
  0
VERTEX
  8
0
  5
219B
 10
70.9534
 20
217.785
 30
1.58935e-14
  70
    32
  0
VERTEX
  8
0
  5
219C
 10
70.9565
 20
217.796
 30
1.58946e-14
  70
    32
  0
VERTEX
  8
0
  5
219D
 10
70.9597
 20
217.806
 30
1.58956e-14
  70
    32
  0
VERTEX
  8
0
  5
219E
 10
70.9628
 20
217.817
 30
1.58964e-14
  70
    32
  0
VERTEX
  8
0
  5
219F
 10
70.9659
 20
217.827
 30
1.58971e-14
  70
    32
  0
VERTEX
  8
0
  5
21A0
 10
70.9691
 20
217.837
 30
1.58977e-14
  70
    32
  0
VERTEX
  8
0
  5
21A1
 10
70.9722
 20
217.848
 30
1.58983e-14
  70
    32
  0
VERTEX
  8
0
  5
21A2
 10
70.9754
 20
217.858
 30
1.58987e-14
  70
    32
  0
VERTEX
  8
0
  5
21A3
 10
70.9786
 20
217.868
 30
1.58990e-14
  70
    32
  0
VERTEX
  8
0
  5
21A4
 10
70.9818
 20
217.879
 30
1.58993e-14
  70
    32
  0
VERTEX
  8
0
  5
21A5
 10
70.9850
 20
217.889
 30
1.58995e-14
  70
    32
  0
VERTEX
  8
0
  5
21A6
 10
70.9882
 20
217.899
 30
1.58997e-14
  70
    32
  0
VERTEX
  8
0
  5
21A7
 10
70.9915
 20
217.910
 30
1.58998e-14
  70
    32
  0
VERTEX
  8
0
  5
21A8
 10
70.9947
 20
217.920
 30
1.58999e-14
  70
    32
  0
VERTEX
  8
0
  5
21A9
 10
70.9980
 20
217.930
 30
1.59000e-14
  70
    32
  0
VERTEX
  8
0
  5
21AA
 10
71.0012
 20
217.941
 30
1.59000e-14
  70
    32
  0
VERTEX
  8
0
  5
21AB
 10
71.0045
 20
217.951
 30
1.59000e-14
  70
    32
  0
VERTEX
  8
0
  5
21AC
 10
71.0078
 20
217.961
 30
1.59000e-14
  70
    32
  0
SEQEND
  8
0
  5
21AD
  0
POLYLINE
  8
0
  5
21AE
  66
     1
 10
0.000000
 20
0.000000
 30
0.000000
  70
     8
  0
VERTEX
  8
0
  5
21AF
 10
71.0078
 20
212.464
 30
1.59000e-14
  70
    32
  0
VERTEX
  8
0
  5
21B0
 10
71.0045
 20
212.474
 30
1.59000e-14
  70
    32
  0
VERTEX
  8
0
  5
21B1
 10
71.0012
 20
212.484
 30
1.59000e-14
  70
    32
  0
VERTEX
  8
0
  5
21B2
 10
70.9980
 20
212.495
 30
1.59000e-14
  70
    32
  0
VERTEX
  8
0
  5
21B3
 10
70.9947
 20
212.505
 30
1.58999e-14
  70
    32
  0
VERTEX
  8
0
  5
21B4
 10
70.9915
 20
212.515
 30
1.58998e-14
  70
    32
  0
VERTEX
  8
0
  5
21B5
 10
70.9882
 20
212.526
 30
1.58997e-14
  70
    32
  0
VERTEX
  8
0
  5
21B6
 10
70.9850
 20
212.536
 30
1.58995e-14
  70
    32
  0
VERTEX
  8
0
  5
21B7
 10
70.9818
 20
212.546
 30
1.58993e-14
  70
    32
  0
VERTEX
  8
0
  5
21B8
 10
70.9786
 20
212.556
 30
1.58990e-14
  70
    32
  0
VERTEX
  8
0
  5
21B9
 10
70.9754
 20
212.567
 30
1.58987e-14
  70
    32
  0
VERTEX
  8
0
  5
21BA
 10
70.9722
 20
212.577
 30
1.58983e-14
  70
    32
  0
VERTEX
  8
0
  5
21BB
 10
70.9691
 20
212.588
 30
1.58977e-14
  70
    32
  0
VERTEX
  8
0
  5
21BC
 10
70.9659
 20
212.598
 30
1.58971e-14
  70
    32
  0
VERTEX
  8
0
  5
21BD
 10
70.9628
 20
212.608
 30
1.58964e-14
  70
    32
  0
VERTEX
  8
0
  5
21BE
 10
70.9597
 20
212.619
 30
1.58956e-14
  70
    32
  0
VERTEX
  8
0
  5
21BF
 10
70.9565
 20
212.629
 30
1.58946e-14
  70
    32
  0
VERTEX
  8
0
  5
21C0
 10
70.9534
 20
212.639
 30
1.58935e-14
  70
    32
  0
VERTEX
  8
0
  5
21C1
 10
70.9503
 20
212.650
 30
1.58923e-14
  70
    32
  0
VERTEX
  8
0
  5
21C2
 10
70.9473
 20
212.660
 30
1.58910e-14
  70
    32
  0
VERTEX
  8
0
  5
21C3
 10
70.9442
 20
212.671
 30
1.58895e-14
  70
    32
  0
VERTEX
  8
0
  5
21C4
 10
70.9411
 20
212.681
 30
1.58878e-14
  70
    32
  0
VERTEX
  8
0
  5
21C5
 10
70.9381
 20
212.691
 30
1.58860e-14
  70
    32
  0
VERTEX
  8
0
  5
21C6
 10
70.9350
 20
212.702
 30
1.58840e-14
  70
    32
  0
VERTEX
  8
0
  5
21C7
 10
70.9320
 20
212.712
 30
1.58819e-14
  70
    32
  0
VERTEX
  8
0
  5
21C8
 10
70.9290
 20
212.723
 30
1.58798e-14
  70
    32
  0
VERTEX
  8
0
  5
21C9
 10
70.9260
 20
212.733
 30
1.58777e-14
  70
    32
  0
VERTEX
  8
0
  5
21CA
 10
70.9230
 20
212.744
 30
1.58756e-14
  70
    32
  0
VERTEX
  8
0
  5
21CB
 10
70.9200
 20
212.754
 30
1.58736e-14
  70
    32
  0
VERTEX
  8
0
  5
21CC
 10
70.9171
 20
212.765
 30
1.58717e-14
  70
    32
  0
VERTEX
  8
0
  5
21CD
 10
70.9141
 20
212.775
 30
1.58697e-14
  70
    32
  0
VERTEX
  8
0
  5
21CE
 10
70.9112
 20
212.786
 30
1.58678e-14
  70
    32
  0
VERTEX
  8
0
  5
21CF
 10
70.9082
 20
212.796
 30
1.58660e-14
  70
    32
  0
VERTEX
  8
0
  5
21D0
 10
70.9053
 20
212.807
 30
1.58641e-14
  70
    32
  0
VERTEX
  8
0
  5
21D1
 10
70.9024
 20
212.817
 30
1.58623e-14
  70
    32
  0
VERTEX
  8
0
  5
21D2
 10
70.8995
 20
212.828
 30
1.58606e-14
  70
    32
  0
VERTEX
  8
0
  5
21D3
 10
70.8966
 20
212.838
 30
1.58589e-14
  70
    32
  0
VERTEX
  8
0
  5
21D4
 10
70.8938
 20
212.849
 30
1.58572e-14
  70
    32
  0
VERTEX
  8
0
  5
21D5
 10
70.8909
 20
212.859
 30
1.58555e-14
  70
    32
  0
VERTEX
  8
0
  5
21D6
 10
70.8881
 20
212.870
 30
1.58539e-14
  70
    32
  0
VERTEX
  8
0
  5
21D7
 10
70.8852
 20
212.880
 30
1.58523e-14
  70
    32
  0
VERTEX
  8
0
  5
21D8
 10
70.8824
 20
212.891
 30
1.58507e-14
  70
    32
  0
VERTEX
  8
0
  5
21D9
 10
70.8796
 20
212.901
 30
1.58492e-14
  70
    32
  0
VERTEX
  8
0
  5
21DA
 10
70.8768
 20
212.912
 30
1.58477e-14
  70
    32
  0
VERTEX
  8
0
  5
21DB
 10
70.8740
 20
212.923
 30
1.58462e-14
  70
    32
  0
VERTEX
  8
0
  5
21DC
 10
70.8712
 20
212.933
 30
1.58448e-14
  70
    32
  0
VERTEX
  8
0
  5
21DD
 10
70.8685
 20
212.944
 30
1.58434e-14
  70
    32
  0
VERTEX
  8
0
  5
21DE
 10
70.8657
 20
212.954
 30
1.58420e-14
  70
    32
  0
VERTEX
  8
0
  5
21DF
 10
70.8630
 20
212.965
 30
1.58406e-14
  70
    32
  0
VERTEX
  8
0
  5
21E0
 10
70.8603
 20
212.975
 30
1.58393e-14
  70
    32
  0
VERTEX
  8
0
  5
21E1
 10
70.8575
 20
212.986
 30
1.58380e-14
  70
    32
  0
VERTEX
  8
0
  5
21E2
 10
70.8548
 20
212.997
 30
1.58367e-14
  70
    32
  0
VERTEX
  8
0
  5
21E3
 10
70.8522
 20
213.007
 30
1.58355e-14
  70
    32
  0
VERTEX
  8
0
  5
21E4
 10
70.8495
 20
213.018
 30
1.58343e-14
  70
    32
  0
VERTEX
  8
0
  5
21E5
 10
70.8468
 20
213.029
 30
1.58331e-14
  70
    32
  0
VERTEX
  8
0
  5
21E6
 10
70.8442
 20
213.039
 30
1.58320e-14
  70
    32
  0
VERTEX
  8
0
  5
21E7
 10
70.8415
 20
213.050
 30
1.58308e-14
  70
    32
  0
VERTEX
  8
0
  5
21E8
 10
70.8389
 20
213.061
 30
1.58297e-14
  70
    32
  0
VERTEX
  8
0
  5
21E9
 10
70.8363
 20
213.071
 30
1.58287e-14
  70
    32
  0
VERTEX
  8
0
  5
21EA
 10
70.8337
 20
213.082
 30
1.58276e-14
  70
    32
  0
VERTEX
  8
0
  5
21EB
 10
70.8311
 20
213.092
 30
1.58266e-14
  70
    32
  0
VERTEX
  8
0
  5
21EC
 10
70.8285
 20
213.103
 30
1.58256e-14
  70
    32
  0
VERTEX
  8
0
  5
21ED
 10
70.8259
 20
213.114
 30
1.58246e-14
  70
    32
  0
VERTEX
  8
0
  5
21EE
 10
70.8234
 20
213.125
 30
1.58237e-14
  70
    32
  0
VERTEX
  8
0
  5
21EF
 10
70.8209
 20
213.135
 30
1.58228e-14
  70
    32
  0
VERTEX
  8
0
  5
21F0
 10
70.8183
 20
213.146
 30
1.58219e-14
  70
    32
  0
VERTEX
  8
0
  5
21F1
 10
70.8158
 20
213.157
 30
1.58210e-14
  70
    32
  0
VERTEX
  8
0
  5
21F2
 10
70.8133
 20
213.167
 30
1.58202e-14
  70
    32
  0
VERTEX
  8
0
  5
21F3
 10
70.8108
 20
213.178
 30
1.58193e-14
  70
    32
  0
VERTEX
  8
0
  5
21F4
 10
70.8083
 20
213.189
 30
1.58185e-14
  70
    32
  0
VERTEX
  8
0
  5
21F5
 10
70.8059
 20
213.199
 30
1.58177e-14
  70
    32
  0
VERTEX
  8
0
  5
21F6
 10
70.8034
 20
213.210
 30
1.58170e-14
  70
    32
  0
VERTEX
  8
0
  5
21F7
 10
70.8010
 20
213.221
 30
1.58162e-14
  70
    32
  0
VERTEX
  8
0
  5
21F8
 10
70.7986
 20
213.232
 30
1.58155e-14
  70
    32
  0
VERTEX
  8
0
  5
21F9
 10
70.7961
 20
213.242
 30
1.58148e-14
  70
    32
  0
VERTEX
  8
0
  5
21FA
 10
70.7937
 20
213.253
 30
1.58142e-14
  70
    32
  0
VERTEX
  8
0
  5
21FB
 10
70.7913
 20
213.264
 30
1.58135e-14
  70
    32
  0
VERTEX
  8
0
  5
21FC
 10
70.7890
 20
213.275
 30
1.58129e-14
  70
    32
  0
VERTEX
  8
0
  5
21FD
 10
70.7866
 20
213.285
 30
1.58123e-14
  70
    32
  0
VERTEX
  8
0
  5
21FE
 10
70.7843
 20
213.296
 30
1.58117e-14
  70
    32
  0
VERTEX
  8
0
  5
21FF
 10
70.7819
 20
213.307
 30
1.58111e-14
  70
    32
  0
VERTEX
  8
0
  5
2200
 10
70.7796
 20
213.318
 30
1.58106e-14
  70
    32
  0
VERTEX
  8
0
  5
2201
 10
70.7773
 20
213.328
 30
1.58100e-14
  70
    32
  0
VERTEX
  8
0
  5
2202
 10
70.7750
 20
213.339
 30
1.58095e-14
  70
    32
  0
VERTEX
  8
0
  5
2203
 10
70.7727
 20
213.350
 30
1.58090e-14
  70
    32
  0
VERTEX
  8
0
  5
2204
 10
70.7704
 20
213.361
 30
1.58085e-14
  70
    32
  0
VERTEX
  8
0
  5
2205
 10
70.7681
 20
213.372
 30
1.58081e-14
  70
    32
  0
VERTEX
  8
0
  5
2206
 10
70.7659
 20
213.382
 30
1.58076e-14
  70
    32
  0
VERTEX
  8
0
  5
2207
 10
70.7637
 20
213.393
 30
1.58072e-14
  70
    32
  0
VERTEX
  8
0
  5
2208
 10
70.7614
 20
213.404
 30
1.58068e-14
  70
    32
  0
VERTEX
  8
0
  5
2209
 10
70.7592
 20
213.415
 30
1.58064e-14
  70
    32
  0
VERTEX
  8
0
  5
220A
 10
70.7570
 20
213.426
 30
1.58060e-14
  70
    32
  0
VERTEX
  8
0
  5
220B
 10
70.7548
 20
213.436
 30
1.58056e-14
  70
    32
  0
VERTEX
  8
0
  5
220C
 10
70.7527
 20
213.447
 30
1.58053e-14
  70
    32
  0
VERTEX
  8
0
  5
220D
 10
70.7505
 20
213.458
 30
1.58049e-14
  70
    32
  0
VERTEX
  8
0
  5
220E
 10
70.7484
 20
213.469
 30
1.58046e-14
  70
    32
  0
VERTEX
  8
0
  5
220F
 10
70.7462
 20
213.480
 30
1.58043e-14
  70
    32
  0
VERTEX
  8
0
  5
2210
 10
70.7441
 20
213.491
 30
1.58040e-14
  70
    32
  0
VERTEX
  8
0
  5
2211
 10
70.7420
 20
213.501
 30
1.58037e-14
  70
    32
  0
VERTEX
  8
0
  5
2212
 10
70.7399
 20
213.512
 30
1.58035e-14
  70
    32
  0
VERTEX
  8
0
  5
2213
 10
70.7378
 20
213.523
 30
1.58032e-14
  70
    32
  0
VERTEX
  8
0
  5
2214
 10
70.7358
 20
213.534
 30
1.58030e-14
  70
    32
  0
VERTEX
  8
0
  5
2215
 10
70.7337
 20
213.545
 30
1.58028e-14
  70
    32
  0
VERTEX
  8
0
  5
2216
 10
70.7317
 20
213.556
 30
1.58025e-14
  70
    32
  0
VERTEX
  8
0
  5
2217
 10
70.7296
 20
213.567
 30
1.58023e-14
  70
    32
  0
VERTEX
  8
0
  5
2218
 10
70.7276
 20
213.577
 30
1.58021e-14
  70
    32
  0
VERTEX
  8
0
  5
2219
 10
70.7256
 20
213.588
 30
1.58020e-14
  70
    32
  0
VERTEX
  8
0
  5
221A
 10
70.7236
 20
213.599
 30
1.58018e-14
  70
    32
  0
VERTEX
  8
0
  5
221B
 10
70.7216
 20
213.610
 30
1.58016e-14
  70
    32
  0
VERTEX
  8
0
  5
221C
 10
70.7197
 20
213.621
 30
1.58015e-14
  70
    32
  0
VERTEX
  8
0
  5
221D
 10
70.7177
 20
213.632
 30
1.58013e-14
  70
    32
  0
VERTEX
  8
0
  5
221E
 10
70.7158
 20
213.643
 30
1.58012e-14
  70
    32
  0
VERTEX
  8
0
  5
221F
 10
70.7139
 20
213.654
 30
1.58011e-14
  70
    32
  0
VERTEX
  8
0
  5
2220
 10
70.7120
 20
213.664
 30
1.58010e-14
  70
    32
  0
VERTEX
  8
0
  5
2221
 10
70.7101
 20
213.675
 30
1.58009e-14
  70
    32
  0
VERTEX
  8
0
  5
2222
 10
70.7082
 20
213.686
 30
1.58008e-14
  70
    32
  0
VERTEX
  8
0
  5
2223
 10
70.7063
 20
213.697
 30
1.58007e-14
  70
    32
  0
VERTEX
  8
0
  5
2224
 10
70.7045
 20
213.708
 30
1.58006e-14
  70
    32
  0
VERTEX
  8
0
  5
2225
 10
70.7026
 20
213.719
 30
1.58005e-14
  70
    32
  0
VERTEX
  8
0
  5
2226
 10
70.7008
 20
213.730
 30
1.58004e-14
  70
    32
  0
VERTEX
  8
0
  5
2227
 10
70.6990
 20
213.741
 30
1.58004e-14
  70
    32
  0
VERTEX
  8
0
  5
2228
 10
70.6972
 20
213.752
 30
1.58003e-14
  70
    32
  0
VERTEX
  8
0
  5
2229
 10
70.6954
 20
213.763
 30
1.58003e-14
  70
    32
  0
VERTEX
  8
0
  5
222A
 10
70.6936
 20
213.773
 30
1.58002e-14
  70
    32
  0
VERTEX
  8
0
  5
222B
 10
70.6918
 20
213.784
 30
1.58002e-14
  70
    32
  0
VERTEX
  8
0
  5
222C
 10
70.6901
 20
213.795
 30
1.58002e-14
  70
    32
  0
VERTEX
  8
0
  5
222D
 10
70.6883
 20
213.806
 30
1.58001e-14
  70
    32
  0
VERTEX
  8
0
  5
222E
 10
70.6866
 20
213.817
 30
1.58001e-14
  70
    32
  0
VERTEX
  8
0
  5
222F
 10
70.6849
 20
213.828
 30
1.58001e-14
  70
    32
  0
VERTEX
  8
0
  5
2230
 10
70.6832
 20
213.839
 30
1.58001e-14
  70
    32
  0
VERTEX
  8
0
  5
2231
 10
70.6815
 20
213.850
 30
1.58000e-14
  70
    32
  0
VERTEX
  8
0
  5
2232
 10
70.6799
 20
213.861
 30
1.58000e-14
  70
    32
  0
VERTEX
  8
0
  5
2233
 10
70.6782
 20
213.872
 30
1.58000e-14
  70
    32
  0
VERTEX
  8
0
  5
2234
 10
70.6766
 20
213.883
 30
1.58000e-14
  70
    32
  0
VERTEX
  8
0
  5
2235
 10
70.6749
 20
213.894
 30
1.58000e-14
  70
    32
  0
VERTEX
  8
0
  5
2236
 10
70.6733
 20
213.905
 30
1.58000e-14
  70
    32
  0
VERTEX
  8
0
  5
2237
 10
70.6717
 20
213.915
 30
1.58000e-14
  70
    32
  0
VERTEX
  8
0
  5
2238
 10
70.6701
 20
213.926
 30
1.58000e-14
  70
    32
  0
VERTEX
  8
0
  5
2239
 10
70.6686
 20
213.937
 30
1.58000e-14
  70
    32
  0
VERTEX
  8
0
  5
223A
 10
70.6670
 20
213.948
 30
1.58000e-14
  70
    32
  0
VERTEX
  8
0
  5
223B
 10
70.6655
 20
213.959
 30
1.58000e-14
  70
    32
  0
VERTEX
  8
0
  5
223C
 10
70.6639
 20
213.970
 30
1.58000e-14
  70
    32
  0
VERTEX
  8
0
  5
223D
 10
70.6624
 20
213.981
 30
1.58000e-14
  70
    32
  0
VERTEX
  8
0
  5
223E
 10
70.6609
 20
213.992
 30
1.58000e-14
  70
    32
  0
VERTEX
  8
0
  5
223F
 10
70.6594
 20
214.003
 30
1.58000e-14
  70
    32
  0
VERTEX
  8
0
  5
2240
 10
70.6579
 20
214.014
 30
1.58000e-14
  70
    32
  0
VERTEX
  8
0
  5
2241
 10
70.6565
 20
214.025
 30
1.58000e-14
  70
    32
  0
VERTEX
  8
0
  5
2242
 10
70.6550
 20
214.036
 30
1.58000e-14
  70
    32
  0
VERTEX
  8
0
  5
2243
 10
70.6536
 20
214.047
 30
1.58000e-14
  70
    32
  0
VERTEX
  8
0
  5
2244
 10
70.6522
 20
214.058
 30
1.58000e-14
  70
    32
  0
VERTEX
  8
0
  5
2245
 10
70.6508
 20
214.069
 30
1.58000e-14
  70
    32
  0
VERTEX
  8
0
  5
2246
 10
70.6494
 20
214.080
 30
1.58000e-14
  70
    32
  0
VERTEX
  8
0
  5
2247
 10
70.6480
 20
214.091
 30
1.58000e-14
  70
    32
  0
VERTEX
  8
0
  5
2248
 10
70.6466
 20
214.102
 30
1.58000e-14
  70
    32
  0
VERTEX
  8
0
  5
2249
 10
70.6453
 20
214.113
 30
1.58000e-14
  70
    32
  0
VERTEX
  8
0
  5
224A
 10
70.6439
 20
214.124
 30
1.58000e-14
  70
    32
  0
VERTEX
  8
0
  5
224B
 10
70.6426
 20
214.135
 30
1.58000e-14
  70
    32
  0
VERTEX
  8
0
  5
224C
 10
70.6413
 20
214.145
 30
1.58000e-14
  70
    32
  0
VERTEX
  8
0
  5
224D
 10
70.6400
 20
214.156
 30
1.58000e-14
  70
    32
  0
VERTEX
  8
0
  5
224E
 10
70.6387
 20
214.167
 30
1.58000e-14
  70
    32
  0
VERTEX
  8
0
  5
224F
 10
70.6374
 20
214.178
 30
1.58000e-14
  70
    32
  0
VERTEX
  8
0
  5
2250
 10
70.6362
 20
214.189
 30
1.58000e-14
  70
    32
  0
VERTEX
  8
0
  5
2251
 10
70.6349
 20
214.200
 30
1.58000e-14
  70
    32
  0
VERTEX
  8
0
  5
2252
 10
70.6337
 20
214.211
 30
1.58000e-14
  70
    32
  0
VERTEX
  8
0
  5
2253
 10
70.6325
 20
214.222
 30
1.58000e-14
  70
    32
  0
VERTEX
  8
0
  5
2254
 10
70.6313
 20
214.233
 30
1.58000e-14
  70
    32
  0
VERTEX
  8
0
  5
2255
 10
70.6301
 20
214.244
 30
1.58000e-14
  70
    32
  0
VERTEX
  8
0
  5
2256
 10
70.6289
 20
214.255
 30
1.58000e-14
  70
    32
  0
VERTEX
  8
0
  5
2257
 10
70.6277
 20
214.266
 30
1.58000e-14
  70
    32
  0
VERTEX
  8
0
  5
2258
 10
70.6266
 20
214.277
 30
1.58000e-14
  70
    32
  0
VERTEX
  8
0
  5
2259
 10
70.6255
 20
214.288
 30
1.58000e-14
  70
    32
  0
VERTEX
  8
0
  5
225A
 10
70.6243
 20
214.299
 30
1.58000e-14
  70
    32
  0
VERTEX
  8
0
  5
225B
 10
70.6232
 20
214.310
 30
1.58000e-14
  70
    32
  0
VERTEX
  8
0
  5
225C
 10
70.6221
 20
214.321
 30
1.58000e-14
  70
    32
  0
VERTEX
  8
0
  5
225D
 10
70.6210
 20
214.332
 30
1.58000e-14
  70
    32
  0
VERTEX
  8
0
  5
225E
 10
70.6200
 20
214.343
 30
1.58000e-14
  70
    32
  0
VERTEX
  8
0
  5
225F
 10
70.6189
 20
214.354
 30
1.58000e-14
  70
    32
  0
VERTEX
  8
0
  5
2260
 10
70.6179
 20
214.365
 30
1.58000e-14
  70
    32
  0
VERTEX
  8
0
  5
2261
 10
70.6169
 20
214.376
 30
1.58000e-14
  70
    32
  0
VERTEX
  8
0
  5
2262
 10
70.6158
 20
214.387
 30
1.58000e-14
  70
    32
  0
VERTEX
  8
0
  5
2263
 10
70.6148
 20
214.398
 30
1.58000e-14
  70
    32
  0
VERTEX
  8
0
  5
2264
 10
70.6138
 20
214.409
 30
1.58000e-14
  70
    32
  0
VERTEX
  8
0
  5
2265
 10
70.6129
 20
214.419
 30
1.58000e-14
  70
    32
  0
VERTEX
  8
0
  5
2266
 10
70.6119
 20
214.430
 30
1.58000e-14
  70
    32
  0
VERTEX
  8
0
  5
2267
 10
70.6110
 20
214.441
 30
1.58000e-14
  70
    32
  0
VERTEX
  8
0
  5
2268
 10
70.6100
 20
214.452
 30
1.58000e-14
  70
    32
  0
VERTEX
  8
0
  5
2269
 10
70.6091
 20
214.463
 30
1.58000e-14
  70
    32
  0
VERTEX
  8
0
  5
226A
 10
70.6082
 20
214.474
 30
1.58000e-14
  70
    32
  0
VERTEX
  8
0
  5
226B
 10
70.6073
 20
214.485
 30
1.58000e-14
  70
    32
  0
VERTEX
  8
0
  5
226C
 10
70.6064
 20
214.496
 30
1.58000e-14
  70
    32
  0
VERTEX
  8
0
  5
226D
 10
70.6056
 20
214.507
 30
1.58000e-14
  70
    32
  0
VERTEX
  8
0
  5
226E
 10
70.6047
 20
214.518
 30
1.58000e-14
  70
    32
  0
VERTEX
  8
0
  5
226F
 10
70.6039
 20
214.529
 30
1.58000e-14
  70
    32
  0
VERTEX
  8
0
  5
2270
 10
70.6031
 20
214.540
 30
1.58000e-14
  70
    32
  0
VERTEX
  8
0
  5
2271
 10
70.6022
 20
214.551
 30
1.58000e-14
  70
    32
  0
VERTEX
  8
0
  5
2272
 10
70.6014
 20
214.562
 30
1.58000e-14
  70
    32
  0
VERTEX
  8
0
  5
2273
 10
70.6007
 20
214.573
 30
1.58000e-14
  70
    32
  0
VERTEX
  8
0
  5
2274
 10
70.5999
 20
214.584
 30
1.58000e-14
  70
    32
  0
VERTEX
  8
0
  5
2275
 10
70.5991
 20
214.595
 30
1.58000e-14
  70
    32
  0
VERTEX
  8
0
  5
2276
 10
70.5984
 20
214.605
 30
1.58000e-14
  70
    32
  0
VERTEX
  8
0
  5
2277
 10
70.5976
 20
214.616
 30
1.58000e-14
  70
    32
  0
VERTEX
  8
0
  5
2278
 10
70.5969
 20
214.627
 30
1.58000e-14
  70
    32
  0
VERTEX
  8
0
  5
2279
 10
70.5962
 20
214.638
 30
1.58000e-14
  70
    32
  0
VERTEX
  8
0
  5
227A
 10
70.5955
 20
214.649
 30
1.58000e-14
  70
    32
  0
VERTEX
  8
0
  5
227B
 10
70.5948
 20
214.660
 30
1.58000e-14
  70
    32
  0
VERTEX
  8
0
  5
227C
 10
70.5942
 20
214.671
 30
1.58000e-14
  70
    32
  0
VERTEX
  8
0
  5
227D
 10
70.5935
 20
214.682
 30
1.58000e-14
  70
    32
  0
VERTEX
  8
0
  5
227E
 10
70.5929
 20
214.693
 30
1.58000e-14
  70
    32
  0
VERTEX
  8
0
  5
227F
 10
70.5923
 20
214.704
 30
1.58000e-14
  70
    32
  0
VERTEX
  8
0
  5
2280
 10
70.5917
 20
214.715
 30
1.58000e-14
  70
    32
  0
VERTEX
  8
0
  5
2281
 10
70.5911
 20
214.726
 30
1.58000e-14
  70
    32
  0
VERTEX
  8
0
  5
2282
 10
70.5905
 20
214.736
 30
1.58000e-14
  70
    32
  0
VERTEX
  8
0
  5
2283
 10
70.5899
 20
214.747
 30
1.58000e-14
  70
    32
  0
VERTEX
  8
0
  5
2284
 10
70.5893
 20
214.758
 30
1.58000e-14
  70
    32
  0
VERTEX
  8
0
  5
2285
 10
70.5888
 20
214.769
 30
1.58000e-14
  70
    32
  0
VERTEX
  8
0
  5
2286
 10
70.5883
 20
214.780
 30
1.58000e-14
  70
    32
  0
VERTEX
  8
0
  5
2287
 10
70.5877
 20
214.791
 30
1.58000e-14
  70
    32
  0
VERTEX
  8
0
  5
2288
 10
70.5872
 20
214.802
 30
1.58000e-14
  70
    32
  0
VERTEX
  8
0
  5
2289
 10
70.5867
 20
214.813
 30
1.58000e-14
  70
    32
  0
VERTEX
  8
0
  5
228A
 10
70.5863
 20
214.824
 30
1.58000e-14
  70
    32
  0
VERTEX
  8
0
  5
228B
 10
70.5858
 20
214.834
 30
1.58000e-14
  70
    32
  0
VERTEX
  8
0
  5
228C
 10
70.5853
 20
214.845
 30
1.58000e-14
  70
    32
  0
VERTEX
  8
0
  5
228D
 10
70.5849
 20
214.856
 30
1.58000e-14
  70
    32
  0
VERTEX
  8
0
  5
228E
 10
70.5845
 20
214.867
 30
1.58000e-14
  70
    32
  0
VERTEX
  8
0
  5
228F
 10
70.5841
 20
214.878
 30
1.58000e-14
  70
    32
  0
VERTEX
  8
0
  5
2290
 10
70.5837
 20
214.889
 30
1.58000e-14
  70
    32
  0
VERTEX
  8
0
  5
2291
 10
70.5833
 20
214.900
 30
1.58000e-14
  70
    32
  0
VERTEX
  8
0
  5
2292
 10
70.5829
 20
214.910
 30
1.58000e-14
  70
    32
  0
VERTEX
  8
0
  5
2293
 10
70.5825
 20
214.921
 30
1.58000e-14
  70
    32
  0
VERTEX
  8
0
  5
2294
 10
70.5822
 20
214.932
 30
1.58000e-14
  70
    32
  0
VERTEX
  8
0
  5
2295
 10
70.5819
 20
214.943
 30
1.58000e-14
  70
    32
  0
VERTEX
  8
0
  5
2296
 10
70.5815
 20
214.954
 30
1.58000e-14
  70
    32
  0
VERTEX
  8
0
  5
2297
 10
70.5812
 20
214.965
 30
1.58000e-14
  70
    32
  0
VERTEX
  8
0
  5
2298
 10
70.5809
 20
214.975
 30
1.58000e-14
  70
    32
  0
VERTEX
  8
0
  5
2299
 10
70.5807
 20
214.986
 30
1.58000e-14
  70
    32
  0
VERTEX
  8
0
  5
229A
 10
70.5804
 20
214.997
 30
1.58000e-14
  70
    32
  0
VERTEX
  8
0
  5
229B
 10
70.5801
 20
215.008
 30
1.58000e-14
  70
    32
  0
VERTEX
  8
0
  5
229C
 10
70.5799
 20
215.019
 30
1.58000e-14
  70
    32
  0
VERTEX
  8
0
  5
229D
 10
70.5797
 20
215.029
 30
1.58000e-14
  70
    32
  0
VERTEX
  8
0
  5
229E
 10
70.5795
 20
215.040
 30
1.58000e-14
  70
    32
  0
VERTEX
  8
0
  5
229F
 10
70.5793
 20
215.051
 30
1.58000e-14
  70
    32
  0
VERTEX
  8
0
  5
22A0
 10
70.5791
 20
215.062
 30
1.58000e-14
  70
    32
  0
VERTEX
  8
0
  5
22A1
 10
70.5789
 20
215.073
 30
1.58000e-14
  70
    32
  0
VERTEX
  8
0
  5
22A2
 10
70.5787
 20
215.083
 30
1.58000e-14
  70
    32
  0
VERTEX
  8
0
  5
22A3
 10
70.5786
 20
215.094
 30
1.58000e-14
  70
    32
  0
VERTEX
  8
0
  5
22A4
 10
70.5784
 20
215.105
 30
1.58000e-14
  70
    32
  0
VERTEX
  8
0
  5
22A5
 10
70.5783
 20
215.116
 30
1.58000e-14
  70
    32
  0
VERTEX
  8
0
  5
22A6
 10
70.5782
 20
215.127
 30
1.58000e-14
  70
    32
  0
VERTEX
  8
0
  5
22A7
 10
70.5781
 20
215.137
 30
1.58000e-14
  70
    32
  0
VERTEX
  8
0
  5
22A8
 10
70.5780
 20
215.148
 30
1.58000e-14
  70
    32
  0
VERTEX
  8
0
  5
22A9
 10
70.5779
 20
215.159
 30
1.58000e-14
  70
    32
  0
VERTEX
  8
0
  5
22AA
 10
70.5779
 20
215.170
 30
1.58000e-14
  70
    32
  0
VERTEX
  8
0
  5
22AB
 10
70.5778
 20
215.180
 30
1.58000e-14
  70
    32
  0
VERTEX
  8
0
  5
22AC
 10
70.5778
 20
215.191
 30
1.58000e-14
  70
    32
  0
VERTEX
  8
0
  5
22AD
 10
70.5778
 20
215.202
 30
1.58000e-14
  70
    32
  0
VERTEX
  8
0
  5
22AE
 10
70.5778
 20
215.212
 30
1.58000e-14
  70
    32
  0
SEQEND
  8
0
  5
22AF
  0
ARC
  5
1FDB
  8
0
 10
79.5777825510818815
 20
215.2124394272755126
 30
0.0000000000000142
 40
8.9999999999999751
 50
197.7825929444740893
 51
162.2174070555257117
  0
POLYLINE
  8
0
  5
22B0
  66
     1
 10
0.000000
 20
0.000000
 30
0.000000
  70
     8
  0
VERTEX
  8
0
  5
22B1
 10
-36.4222
 20
215.212
 30
-8.10000e-15
  70
    32
  0
VERTEX
  8
0
  5
22B2
 10
-36.4222
 20
215.202
 30
-8.10000e-15
  70
    32
  0
VERTEX
  8
0
  5
22B3
 10
-36.4222
 20
215.191
 30
-8.10000e-15
  70
    32
  0
VERTEX
  8
0
  5
22B4
 10
-36.4223
 20
215.180
 30
-8.10000e-15
  70
    32
  0
VERTEX
  8
0
  5
22B5
 10
-36.4223
 20
215.170
 30
-8.10000e-15
  70
    32
  0
VERTEX
  8
0
  5
22B6
 10
-36.4224
 20
215.159
 30
-8.10000e-15
  70
    32
  0
VERTEX
  8
0
  5
22B7
 10
-36.4225
 20
215.148
 30
-8.10001e-15
  70
    32
  0
VERTEX
  8
0
  5
22B8
 10
-36.4225
 20
215.137
 30
-8.10001e-15
  70
    32
  0
VERTEX
  8
0
  5
22B9
 10
-36.4226
 20
215.127
 30
-8.10002e-15
  70
    32
  0
VERTEX
  8
0
  5
22BA
 10
-36.4227
 20
215.116
 30
-8.10002e-15
  70
    32
  0
VERTEX
  8
0
  5
22BB
 10
-36.4229
 20
215.105
 30
-8.10003e-15
  70
    32
  0
VERTEX
  8
0
  5
22BC
 10
-36.4230
 20
215.094
 30
-8.10004e-15
  70
    32
  0
VERTEX
  8
0
  5
22BD
 10
-36.4232
 20
215.083
 30
-8.10006e-15
  70
    32
  0
VERTEX
  8
0
  5
22BE
 10
-36.4233
 20
215.073
 30
-8.10007e-15
  70
    32
  0
VERTEX
  8
0
  5
22BF
 10
-36.4235
 20
215.062
 30
-8.10009e-15
  70
    32
  0
VERTEX
  8
0
  5
22C0
 10
-36.4237
 20
215.051
 30
-8.10011e-15
  70
    32
  0
VERTEX
  8
0
  5
22C1
 10
-36.4239
 20
215.040
 30
-8.10013e-15
  70
    32
  0
VERTEX
  8
0
  5
22C2
 10
-36.4241
 20
215.029
 30
-8.10016e-15
  70
    32
  0
VERTEX
  8
0
  5
22C3
 10
-36.4243
 20
215.019
 30
-8.10019e-15
  70
    32
  0
VERTEX
  8
0
  5
22C4
 10
-36.4246
 20
215.008
 30
-8.10022e-15
  70
    32
  0
VERTEX
  8
0
  5
22C5
 10
-36.4248
 20
214.997
 30
-8.10026e-15
  70
    32
  0
VERTEX
  8
0
  5
22C6
 10
-36.4251
 20
214.986
 30
-8.10030e-15
  70
    32
  0
VERTEX
  8
0
  5
22C7
 10
-36.4254
 20
214.975
 30
-8.10034e-15
  70
    32
  0
VERTEX
  8
0
  5
22C8
 10
-36.4257
 20
214.965
 30
-8.10039e-15
  70
    32
  0
VERTEX
  8
0
  5
22C9
 10
-36.4260
 20
214.954
 30
-8.10045e-15
  70
    32
  0
VERTEX
  8
0
  5
22CA
 10
-36.4263
 20
214.943
 30
-8.10050e-15
  70
    32
  0
VERTEX
  8
0
  5
22CB
 10
-36.4266
 20
214.932
 30
-8.10057e-15
  70
    32
  0
VERTEX
  8
0
  5
22CC
 10
-36.4270
 20
214.921
 30
-8.10063e-15
  70
    32
  0
VERTEX
  8
0
  5
22CD
 10
-36.4273
 20
214.910
 30
-8.10071e-15
  70
    32
  0
VERTEX
  8
0
  5
22CE
 10
-36.4277
 20
214.900
 30
-8.10079e-15
  70
    32
  0
VERTEX
  8
0
  5
22CF
 10
-36.4281
 20
214.889
 30
-8.10087e-15
  70
    32
  0
VERTEX
  8
0
  5
22D0
 10
-36.4285
 20
214.878
 30
-8.10096e-15
  70
    32
  0
VERTEX
  8
0
  5
22D1
 10
-36.4289
 20
214.867
 30
-8.10105e-15
  70
    32
  0
VERTEX
  8
0
  5
22D2
 10
-36.4293
 20
214.856
 30
-8.10116e-15
  70
    32
  0
VERTEX
  8
0
  5
22D3
 10
-36.4298
 20
214.845
 30
-8.10127e-15
  70
    32
  0
VERTEX
  8
0
  5
22D4
 10
-36.4302
 20
214.834
 30
-8.10138e-15
  70
    32
  0
VERTEX
  8
0
  5
22D5
 10
-36.4307
 20
214.824
 30
-8.10150e-15
  70
    32
  0
VERTEX
  8
0
  5
22D6
 10
-36.4312
 20
214.813
 30
-8.10163e-15
  70
    32
  0
VERTEX
  8
0
  5
22D7
 10
-36.4317
 20
214.802
 30
-8.10177e-15
  70
    32
  0
VERTEX
  8
0
  5
22D8
 10
-36.4322
 20
214.791
 30
-8.10191e-15
  70
    32
  0
VERTEX
  8
0
  5
22D9
 10
-36.4327
 20
214.780
 30
-8.10206e-15
  70
    32
  0
VERTEX
  8
0
  5
22DA
 10
-36.4332
 20
214.769
 30
-8.10222e-15
  70
    32
  0
VERTEX
  8
0
  5
22DB
 10
-36.4338
 20
214.758
 30
-8.10238e-15
  70
    32
  0
VERTEX
  8
0
  5
22DC
 10
-36.4343
 20
214.747
 30
-8.10256e-15
  70
    32
  0
VERTEX
  8
0
  5
22DD
 10
-36.4349
 20
214.736
 30
-8.10274e-15
  70
    32
  0
VERTEX
  8
0
  5
22DE
 10
-36.4355
 20
214.726
 30
-8.10293e-15
  70
    32
  0
VERTEX
  8
0
  5
22DF
 10
-36.4361
 20
214.715
 30
-8.10313e-15
  70
    32
  0
VERTEX
  8
0
  5
22E0
 10
-36.4367
 20
214.704
 30
-8.10334e-15
  70
    32
  0
VERTEX
  8
0
  5
22E1
 10
-36.4373
 20
214.693
 30
-8.10356e-15
  70
    32
  0
VERTEX
  8
0
  5
22E2
 10
-36.4380
 20
214.682
 30
-8.10379e-15
  70
    32
  0
VERTEX
  8
0
  5
22E3
 10
-36.4386
 20
214.671
 30
-8.10402e-15
  70
    32
  0
VERTEX
  8
0
  5
22E4
 10
-36.4393
 20
214.660
 30
-8.10427e-15
  70
    32
  0
VERTEX
  8
0
  5
22E5
 10
-36.4400
 20
214.649
 30
-8.10453e-15
  70
    32
  0
VERTEX
  8
0
  5
22E6
 10
-36.4407
 20
214.638
 30
-8.10479e-15
  70
    32
  0
VERTEX
  8
0
  5
22E7
 10
-36.4414
 20
214.627
 30
-8.10507e-15
  70
    32
  0
VERTEX
  8
0
  5
22E8
 10
-36.4421
 20
214.616
 30
-8.10536e-15
  70
    32
  0
VERTEX
  8
0
  5
22E9
 10
-36.4428
 20
214.605
 30
-8.10565e-15
  70
    32
  0
VERTEX
  8
0
  5
22EA
 10
-36.4436
 20
214.595
 30
-8.10596e-15
  70
    32
  0
VERTEX
  8
0
  5
22EB
 10
-36.4443
 20
214.584
 30
-8.10628e-15
  70
    32
  0
VERTEX
  8
0
  5
22EC
 10
-36.4451
 20
214.573
 30
-8.10661e-15
  70
    32
  0
VERTEX
  8
0
  5
22ED
 10
-36.4459
 20
214.562
 30
-8.10695e-15
  70
    32
  0
VERTEX
  8
0
  5
22EE
 10
-36.4467
 20
214.551
 30
-8.10731e-15
  70
    32
  0
VERTEX
  8
0
  5
22EF
 10
-36.4475
 20
214.540
 30
-8.10767e-15
  70
    32
  0
VERTEX
  8
0
  5
22F0
 10
-36.4483
 20
214.529
 30
-8.10805e-15
  70
    32
  0
VERTEX
  8
0
  5
22F1
 10
-36.4492
 20
214.518
 30
-8.10844e-15
  70
    32
  0
VERTEX
  8
0
  5
22F2
 10
-36.4500
 20
214.507
 30
-8.10884e-15
  70
    32
  0
VERTEX
  8
0
  5
22F3
 10
-36.4509
 20
214.496
 30
-8.10925e-15
  70
    32
  0
VERTEX
  8
0
  5
22F4
 10
-36.4517
 20
214.485
 30
-8.10968e-15
  70
    32
  0
VERTEX
  8
0
  5
22F5
 10
-36.4526
 20
214.474
 30
-8.11012e-15
  70
    32
  0
VERTEX
  8
0
  5
22F6
 10
-36.4535
 20
214.463
 30
-8.11057e-15
  70
    32
  0
VERTEX
  8
0
  5
22F7
 10
-36.4545
 20
214.452
 30
-8.11104e-15
  70
    32
  0
VERTEX
  8
0
  5
22F8
 10
-36.4554
 20
214.441
 30
-8.11152e-15
  70
    32
  0
VERTEX
  8
0
  5
22F9
 10
-36.4563
 20
214.430
 30
-8.11202e-15
  70
    32
  0
VERTEX
  8
0
  5
22FA
 10
-36.4573
 20
214.419
 30
-8.11252e-15
  70
    32
  0
VERTEX
  8
0
  5
22FB
 10
-36.4583
 20
214.409
 30
-8.11304e-15
  70
    32
  0
VERTEX
  8
0
  5
22FC
 10
-36.4593
 20
214.398
 30
-8.11358e-15
  70
    32
  0
VERTEX
  8
0
  5
22FD
 10
-36.4603
 20
214.387
 30
-8.11413e-15
  70
    32
  0
VERTEX
  8
0
  5
22FE
 10
-36.4613
 20
214.376
 30
-8.11470e-15
  70
    32
  0
VERTEX
  8
0
  5
22FF
 10
-36.4623
 20
214.365
 30
-8.11528e-15
  70
    32
  0
VERTEX
  8
0
  5
2300
 10
-36.4634
 20
214.354
 30
-8.11587e-15
  70
    32
  0
VERTEX
  8
0
  5
2301
 10
-36.4644
 20
214.343
 30
-8.11648e-15
  70
    32
  0
VERTEX
  8
0
  5
2302
 10
-36.4655
 20
214.332
 30
-8.11711e-15
  70
    32
  0
VERTEX
  8
0
  5
2303
 10
-36.4666
 20
214.321
 30
-8.11775e-15
  70
    32
  0
VERTEX
  8
0
  5
2304
 10
-36.4677
 20
214.310
 30
-8.11841e-15
  70
    32
  0
VERTEX
  8
0
  5
2305
 10
-36.4688
 20
214.299
 30
-8.11908e-15
  70
    32
  0
VERTEX
  8
0
  5
2306
 10
-36.4699
 20
214.288
 30
-8.11977e-15
  70
    32
  0
VERTEX
  8
0
  5
2307
 10
-36.4710
 20
214.277
 30
-8.12048e-15
  70
    32
  0
VERTEX
  8
0
  5
2308
 10
-36.4722
 20
214.266
 30
-8.12120e-15
  70
    32
  0
VERTEX
  8
0
  5
2309
 10
-36.4733
 20
214.255
 30
-8.12194e-15
  70
    32
  0
VERTEX
  8
0
  5
230A
 10
-36.4745
 20
214.244
 30
-8.12269e-15
  70
    32
  0
VERTEX
  8
0
  5
230B
 10
-36.4757
 20
214.233
 30
-8.12347e-15
  70
    32
  0
VERTEX
  8
0
  5
230C
 10
-36.4769
 20
214.222
 30
-8.12426e-15
  70
    32
  0
VERTEX
  8
0
  5
230D
 10
-36.4781
 20
214.211
 30
-8.12507e-15
  70
    32
  0
VERTEX
  8
0
  5
230E
 10
-36.4794
 20
214.200
 30
-8.12589e-15
  70
    32
  0
VERTEX
  8
0
  5
230F
 10
-36.4806
 20
214.189
 30
-8.12674e-15
  70
    32
  0
VERTEX
  8
0
  5
2310
 10
-36.4819
 20
214.178
 30
-8.12760e-15
  70
    32
  0
VERTEX
  8
0
  5
2311
 10
-36.4831
 20
214.167
 30
-8.12848e-15
  70
    32
  0
VERTEX
  8
0
  5
2312
 10
-36.4844
 20
214.156
 30
-8.12938e-15
  70
    32
  0
VERTEX
  8
0
  5
2313
 10
-36.4857
 20
214.145
 30
-8.13030e-15
  70
    32
  0
VERTEX
  8
0
  5
2314
 10
-36.4870
 20
214.135
 30
-8.13123e-15
  70
    32
  0
VERTEX
  8
0
  5
2315
 10
-36.4884
 20
214.124
 30
-8.13219e-15
  70
    32
  0
VERTEX
  8
0
  5
2316
 10
-36.4897
 20
214.113
 30
-8.13317e-15
  70
    32
  0
VERTEX
  8
0
  5
2317
 10
-36.4910
 20
214.102
 30
-8.13416e-15
  70
    32
  0
VERTEX
  8
0
  5
2318
 10
-36.4924
 20
214.091
 30
-8.13518e-15
  70
    32
  0
VERTEX
  8
0
  5
2319
 10
-36.4938
 20
214.080
 30
-8.13621e-15
  70
    32
  0
VERTEX
  8
0
  5
231A
 10
-36.4952
 20
214.069
 30
-8.13726e-15
  70
    32
  0
VERTEX
  8
0
  5
231B
 10
-36.4966
 20
214.058
 30
-8.13834e-15
  70
    32
  0
VERTEX
  8
0
  5
231C
 10
-36.4980
 20
214.047
 30
-8.13943e-15
  70
    32
  0
VERTEX
  8
0
  5
231D
 10
-36.4995
 20
214.036
 30
-8.14055e-15
  70
    32
  0
VERTEX
  8
0
  5
231E
 10
-36.5009
 20
214.025
 30
-8.14169e-15
  70
    32
  0
VERTEX
  8
0
  5
231F
 10
-36.5024
 20
214.014
 30
-8.14285e-15
  70
    32
  0
VERTEX
  8
0
  5
2320
 10
-36.5038
 20
214.003
 30
-8.14402e-15
  70
    32
  0
VERTEX
  8
0
  5
2321
 10
-36.5053
 20
213.992
 30
-8.14523e-15
  70
    32
  0
VERTEX
  8
0
  5
2322
 10
-36.5068
 20
213.981
 30
-8.14645e-15
  70
    32
  0
VERTEX
  8
0
  5
2323
 10
-36.5084
 20
213.970
 30
-8.14769e-15
  70
    32
  0
VERTEX
  8
0
  5
2324
 10
-36.5099
 20
213.959
 30
-8.14896e-15
  70
    32
  0
VERTEX
  8
0
  5
2325
 10
-36.5114
 20
213.948
 30
-8.15025e-15
  70
    32
  0
VERTEX
  8
0
  5
2326
 10
-36.5130
 20
213.937
 30
-8.15153e-15
  70
    32
  0
VERTEX
  8
0
  5
2327
 10
-36.5146
 20
213.926
 30
-8.15278e-15
  70
    32
  0
VERTEX
  8
0
  5
2328
 10
-36.5162
 20
213.915
 30
-8.15402e-15
  70
    32
  0
VERTEX
  8
0
  5
2329
 10
-36.5178
 20
213.905
 30
-8.15523e-15
  70
    32
  0
VERTEX
  8
0
  5
232A
 10
-36.5194
 20
213.894
 30
-8.15643e-15
  70
    32
  0
VERTEX
  8
0
  5
232B
 10
-36.5210
 20
213.883
 30
-8.15760e-15
  70
    32
  0
VERTEX
  8
0
  5
232C
 10
-36.5226
 20
213.872
 30
-8.15875e-15
  70
    32
  0
VERTEX
  8
0
  5
232D
 10
-36.5243
 20
213.861
 30
-8.15988e-15
  70
    32
  0
VERTEX
  8
0
  5
232E
 10
-36.5260
 20
213.850
 30
-8.16098e-15
  70
    32
  0
VERTEX
  8
0
  5
232F
 10
-36.5276
 20
213.839
 30
-8.16207e-15
  70
    32
  0
VERTEX
  8
0
  5
2330
 10
-36.5293
 20
213.828
 30
-8.16314e-15
  70
    32
  0
VERTEX
  8
0
  5
2331
 10
-36.5311
 20
213.817
 30
-8.16419e-15
  70
    32
  0
VERTEX
  8
0
  5
2332
 10
-36.5328
 20
213.806
 30
-8.16521e-15
  70
    32
  0
VERTEX
  8
0
  5
2333
 10
-36.5345
 20
213.795
 30
-8.16622e-15
  70
    32
  0
VERTEX
  8
0
  5
2334
 10
-36.5363
 20
213.784
 30
-8.16721e-15
  70
    32
  0
VERTEX
  8
0
  5
2335
 10
-36.5380
 20
213.773
 30
-8.16817e-15
  70
    32
  0
VERTEX
  8
0
  5
2336
 10
-36.5398
 20
213.763
 30
-8.16912e-15
  70
    32
  0
VERTEX
  8
0
  5
2337
 10
-36.5416
 20
213.752
 30
-8.17005e-15
  70
    32
  0
VERTEX
  8
0
  5
2338
 10
-36.5434
 20
213.741
 30
-8.17096e-15
  70
    32
  0
VERTEX
  8
0
  5
2339
 10
-36.5452
 20
213.730
 30
-8.17186e-15
  70
    32
  0
VERTEX
  8
0
  5
233A
 10
-36.5470
 20
213.719
 30
-8.17273e-15
  70
    32
  0
VERTEX
  8
0
  5
233B
 10
-36.5489
 20
213.708
 30
-8.17359e-15
  70
    32
  0
VERTEX
  8
0
  5
233C
 10
-36.5507
 20
213.697
 30
-8.17442e-15
  70
    32
  0
VERTEX
  8
0
  5
233D
 10
-36.5526
 20
213.686
 30
-8.17524e-15
  70
    32
  0
VERTEX
  8
0
  5
233E
 10
-36.5545
 20
213.675
 30
-8.17604e-15
  70
    32
  0
VERTEX
  8
0
  5
233F
 10
-36.5564
 20
213.664
 30
-8.17683e-15
  70
    32
  0
VERTEX
  8
0
  5
2340
 10
-36.5583
 20
213.654
 30
-8.17760e-15
  70
    32
  0
VERTEX
  8
0
  5
2341
 10
-36.5602
 20
213.643
 30
-8.17835e-15
  70
    32
  0
VERTEX
  8
0
  5
2342
 10
-36.5622
 20
213.632
 30
-8.17908e-15
  70
    32
  0
VERTEX
  8
0
  5
2343
 10
-36.5641
 20
213.621
 30
-8.17979e-15
  70
    32
  0
VERTEX
  8
0
  5
2344
 10
-36.5661
 20
213.610
 30
-8.18049e-15
  70
    32
  0
VERTEX
  8
0
  5
2345
 10
-36.5681
 20
213.599
 30
-8.18118e-15
  70
    32
  0
VERTEX
  8
0
  5
2346
 10
-36.5700
 20
213.588
 30
-8.18185e-15
  70
    32
  0
VERTEX
  8
0
  5
2347
 10
-36.5720
 20
213.577
 30
-8.18250e-15
  70
    32
  0
VERTEX
  8
0
  5
2348
 10
-36.5741
 20
213.567
 30
-8.18313e-15
  70
    32
  0
VERTEX
  8
0
  5
2349
 10
-36.5761
 20
213.556
 30
-8.18375e-15
  70
    32
  0
VERTEX
  8
0
  5
234A
 10
-36.5781
 20
213.545
 30
-8.18436e-15
  70
    32
  0
VERTEX
  8
0
  5
234B
 10
-36.5802
 20
213.534
 30
-8.18495e-15
  70
    32
  0
VERTEX
  8
0
  5
234C
 10
-36.5823
 20
213.523
 30
-8.18552e-15
  70
    32
  0
VERTEX
  8
0
  5
234D
 10
-36.5843
 20
213.512
 30
-8.18608e-15
  70
    32
  0
VERTEX
  8
0
  5
234E
 10
-36.5864
 20
213.501
 30
-8.18662e-15
  70
    32
  0
VERTEX
  8
0
  5
234F
 10
-36.5885
 20
213.491
 30
-8.18716e-15
  70
    32
  0
VERTEX
  8
0
  5
2350
 10
-36.5907
 20
213.480
 30
-8.18767e-15
  70
    32
  0
VERTEX
  8
0
  5
2351
 10
-36.5928
 20
213.469
 30
-8.18817e-15
  70
    32
  0
VERTEX
  8
0
  5
2352
 10
-36.5949
 20
213.458
 30
-8.18866e-15
  70
    32
  0
VERTEX
  8
0
  5
2353
 10
-36.5971
 20
213.447
 30
-8.18914e-15
  70
    32
  0
VERTEX
  8
0
  5
2354
 10
-36.5993
 20
213.436
 30
-8.18960e-15
  70
    32
  0
VERTEX
  8
0
  5
2355
 10
-36.6015
 20
213.426
 30
-8.19005e-15
  70
    32
  0
VERTEX
  8
0
  5
2356
 10
-36.6037
 20
213.415
 30
-8.19048e-15
  70
    32
  0
VERTEX
  8
0
  5
2357
 10
-36.6059
 20
213.404
 30
-8.19090e-15
  70
    32
  0
VERTEX
  8
0
  5
2358
 10
-36.6081
 20
213.393
 30
-8.19131e-15
  70
    32
  0
VERTEX
  8
0
  5
2359
 10
-36.6103
 20
213.382
 30
-8.19171e-15
  70
    32
  0
VERTEX
  8
0
  5
235A
 10
-36.6126
 20
213.372
 30
-8.19210e-15
  70
    32
  0
VERTEX
  8
0
  5
235B
 10
-36.6148
 20
213.361
 30
-8.19247e-15
  70
    32
  0
VERTEX
  8
0
  5
235C
 10
-36.6171
 20
213.350
 30
-8.19283e-15
  70
    32
  0
VERTEX
  8
0
  5
235D
 10
-36.6194
 20
213.339
 30
-8.19318e-15
  70
    32
  0
VERTEX
  8
0
  5
235E
 10
-36.6217
 20
213.328
 30
-8.19352e-15
  70
    32
  0
VERTEX
  8
0
  5
235F
 10
-36.6240
 20
213.318
 30
-8.19384e-15
  70
    32
  0
VERTEX
  8
0
  5
2360
 10
-36.6263
 20
213.307
 30
-8.19416e-15
  70
    32
  0
VERTEX
  8
0
  5
2361
 10
-36.6287
 20
213.296
 30
-8.19446e-15
  70
    32
  0
VERTEX
  8
0
  5
2362
 10
-36.6310
 20
213.285
 30
-8.19475e-15
  70
    32
  0
VERTEX
  8
0
  5
2363
 10
-36.6334
 20
213.275
 30
-8.19504e-15
  70
    32
  0
VERTEX
  8
0
  5
2364
 10
-36.6358
 20
213.264
 30
-8.19531e-15
  70
    32
  0
VERTEX
  8
0
  5
2365
 10
-36.6382
 20
213.253
 30
-8.19557e-15
  70
    32
  0
VERTEX
  8
0
  5
2366
 10
-36.6406
 20
213.242
 30
-8.19582e-15
  70
    32
  0
VERTEX
  8
0
  5
2367
 10
-36.6430
 20
213.232
 30
-8.19607e-15
  70
    32
  0
VERTEX
  8
0
  5
2368
 10
-36.6454
 20
213.221
 30
-8.19630e-15
  70
    32
  0
VERTEX
  8
0
  5
2369
 10
-36.6479
 20
213.210
 30
-8.19652e-15
  70
    32
  0
VERTEX
  8
0
  5
236A
 10
-36.6503
 20
213.199
 30
-8.19674e-15
  70
    32
  0
VERTEX
  8
0
  5
236B
 10
-36.6528
 20
213.189
 30
-8.19694e-15
  70
    32
  0
VERTEX
  8
0
  5
236C
 10
-36.6553
 20
213.178
 30
-8.19714e-15
  70
    32
  0
VERTEX
  8
0
  5
236D
 10
-36.6577
 20
213.167
 30
-8.19733e-15
  70
    32
  0
VERTEX
  8
0
  5
236E
 10
-36.6602
 20
213.157
 30
-8.19751e-15
  70
    32
  0
VERTEX
  8
0
  5
236F
 10
-36.6628
 20
213.146
 30
-8.19768e-15
  70
    32
  0
VERTEX
  8
0
  5
2370
 10
-36.6653
 20
213.135
 30
-8.19784e-15
  70
    32
  0
VERTEX
  8
0
  5
2371
 10
-36.6678
 20
213.125
 30
-8.19800e-15
  70
    32
  0
VERTEX
  8
0
  5
2372
 10
-36.6704
 20
213.114
 30
-8.19815e-15
  70
    32
  0
VERTEX
  8
0
  5
2373
 10
-36.6729
 20
213.103
 30
-8.19829e-15
  70
    32
  0
VERTEX
  8
0
  5
2374
 10
-36.6755
 20
213.092
 30
-8.19842e-15
  70
    32
  0
VERTEX
  8
0
  5
2375
 10
-36.6781
 20
213.082
 30
-8.19855e-15
  70
    32
  0
VERTEX
  8
0
  5
2376
 10
-36.6807
 20
213.071
 30
-8.19866e-15
  70
    32
  0
VERTEX
  8
0
  5
2377
 10
-36.6833
 20
213.061
 30
-8.19878e-15
  70
    32
  0
VERTEX
  8
0
  5
2378
 10
-36.6860
 20
213.050
 30
-8.19888e-15
  70
    32
  0
VERTEX
  8
0
  5
2379
 10
-36.6886
 20
213.039
 30
-8.19898e-15
  70
    32
  0
VERTEX
  8
0
  5
237A
 10
-36.6913
 20
213.029
 30
-8.19908e-15
  70
    32
  0
VERTEX
  8
0
  5
237B
 10
-36.6939
 20
213.018
 30
-8.19916e-15
  70
    32
  0
VERTEX
  8
0
  5
237C
 10
-36.6966
 20
213.007
 30
-8.19925e-15
  70
    32
  0
VERTEX
  8
0
  5
237D
 10
-36.6993
 20
212.997
 30
-8.19932e-15
  70
    32
  0
VERTEX
  8
0
  5
237E
 10
-36.7020
 20
212.986
 30
-8.19939e-15
  70
    32
  0
VERTEX
  8
0
  5
237F
 10
-36.7047
 20
212.975
 30
-8.19946e-15
  70
    32
  0
VERTEX
  8
0
  5
2380
 10
-36.7074
 20
212.965
 30
-8.19952e-15
  70
    32
  0
VERTEX
  8
0
  5
2381
 10
-36.7102
 20
212.954
 30
-8.19958e-15
  70
    32
  0
VERTEX
  8
0
  5
2382
 10
-36.7129
 20
212.944
 30
-8.19963e-15
  70
    32
  0
VERTEX
  8
0
  5
2383
 10
-36.7157
 20
212.933
 30
-8.19967e-15
  70
    32
  0
VERTEX
  8
0
  5
2384
 10
-36.7184
 20
212.923
 30
-8.19972e-15
  70
    32
  0
VERTEX
  8
0
  5
2385
 10
-36.7212
 20
212.912
 30
-8.19976e-15
  70
    32
  0
VERTEX
  8
0
  5
2386
 10
-36.7240
 20
212.901
 30
-8.19979e-15
  70
    32
  0
VERTEX
  8
0
  5
2387
 10
-36.7268
 20
212.891
 30
-8.19982e-15
  70
    32
  0
VERTEX
  8
0
  5
2388
 10
-36.7297
 20
212.880
 30
-8.19985e-15
  70
    32
  0
VERTEX
  8
0
  5
2389
 10
-36.7325
 20
212.870
 30
-8.19988e-15
  70
    32
  0
VERTEX
  8
0
  5
238A
 10
-36.7353
 20
212.859
 30
-8.19990e-15
  70
    32
  0
VERTEX
  8
0
  5
238B
 10
-36.7382
 20
212.849
 30
-8.19992e-15
  70
    32
  0
VERTEX
  8
0
  5
238C
 10
-36.7411
 20
212.838
 30
-8.19994e-15
  70
    32
  0
VERTEX
  8
0
  5
238D
 10
-36.7440
 20
212.828
 30
-8.19995e-15
  70
    32
  0
VERTEX
  8
0
  5
238E
 10
-36.7469
 20
212.817
 30
-8.19996e-15
  70
    32
  0
VERTEX
  8
0
  5
238F
 10
-36.7498
 20
212.807
 30
-8.19997e-15
  70
    32
  0
VERTEX
  8
0
  5
2390
 10
-36.7527
 20
212.796
 30
-8.19998e-15
  70
    32
  0
VERTEX
  8
0
  5
2391
 10
-36.7556
 20
212.786
 30
-8.19999e-15
  70
    32
  0
VERTEX
  8
0
  5
2392
 10
-36.7585
 20
212.775
 30
-8.19999e-15
  70
    32
  0
VERTEX
  8
0
  5
2393
 10
-36.7615
 20
212.765
 30
-8.19999e-15
  70
    32
  0
VERTEX
  8
0
  5
2394
 10
-36.7645
 20
212.754
 30
-8.20000e-15
  70
    32
  0
VERTEX
  8
0
  5
2395
 10
-36.7674
 20
212.744
 30
-8.20000e-15
  70
    32
  0
VERTEX
  8
0
  5
2396
 10
-36.7704
 20
212.733
 30
-8.20000e-15
  70
    32
  0
VERTEX
  8
0
  5
2397
 10
-36.7734
 20
212.723
 30
-8.20000e-15
  70
    32
  0
VERTEX
  8
0
  5
2398
 10
-36.7764
 20
212.712
 30
-8.20000e-15
  70
    32
  0
VERTEX
  8
0
  5
2399
 10
-36.7795
 20
212.702
 30
-8.20000e-15
  70
    32
  0
VERTEX
  8
0
  5
239A
 10
-36.7825
 20
212.691
 30
-8.20000e-15
  70
    32
  0
VERTEX
  8
0
  5
239B
 10
-36.7856
 20
212.681
 30
-8.20000e-15
  70
    32
  0
VERTEX
  8
0
  5
239C
 10
-36.7886
 20
212.671
 30
-8.20000e-15
  70
    32
  0
VERTEX
  8
0
  5
239D
 10
-36.7917
 20
212.660
 30
-8.20000e-15
  70
    32
  0
VERTEX
  8
0
  5
239E
 10
-36.7948
 20
212.650
 30
-8.20000e-15
  70
    32
  0
VERTEX
  8
0
  5
239F
 10
-36.7979
 20
212.639
 30
-8.20000e-15
  70
    32
  0
VERTEX
  8
0
  5
23A0
 10
-36.8010
 20
212.629
 30
-8.20000e-15
  70
    32
  0
VERTEX
  8
0
  5
23A1
 10
-36.8041
 20
212.619
 30
-8.20000e-15
  70
    32
  0
VERTEX
  8
0
  5
23A2
 10
-36.8072
 20
212.608
 30
-8.20000e-15
  70
    32
  0
VERTEX
  8
0
  5
23A3
 10
-36.8104
 20
212.598
 30
-8.20000e-15
  70
    32
  0
VERTEX
  8
0
  5
23A4
 10
-36.8135
 20
212.588
 30
-8.20000e-15
  70
    32
  0
VERTEX
  8
0
  5
23A5
 10
-36.8167
 20
212.577
 30
-8.20000e-15
  70
    32
  0
VERTEX
  8
0
  5
23A6
 10
-36.8199
 20
212.567
 30
-8.20000e-15
  70
    32
  0
VERTEX
  8
0
  5
23A7
 10
-36.8230
 20
212.556
 30
-8.20000e-15
  70
    32
  0
VERTEX
  8
0
  5
23A8
 10
-36.8262
 20
212.546
 30
-8.20000e-15
  70
    32
  0
VERTEX
  8
0
  5
23A9
 10
-36.8294
 20
212.536
 30
-8.20000e-15
  70
    32
  0
VERTEX
  8
0
  5
23AA
 10
-36.8327
 20
212.526
 30
-8.20000e-15
  70
    32
  0
VERTEX
  8
0
  5
23AB
 10
-36.8359
 20
212.515
 30
-8.20000e-15
  70
    32
  0
VERTEX
  8
0
  5
23AC
 10
-36.8391
 20
212.505
 30
-8.20000e-15
  70
    32
  0
VERTEX
  8
0
  5
23AD
 10
-36.8424
 20
212.495
 30
-8.20000e-15
  70
    32
  0
VERTEX
  8
0
  5
23AE
 10
-36.8457
 20
212.484
 30
-8.20000e-15
  70
    32
  0
VERTEX
  8
0
  5
23AF
 10
-36.8489
 20
212.474
 30
-8.20000e-15
  70
    32
  0
VERTEX
  8
0
  5
23B0
 10
-36.8522
 20
212.464
 30
-8.20000e-15
  70
    32
  0
SEQEND
  8
0
  5
23B1
  0
POLYLINE
  8
0
  5
23B2
  66
     1
 10
0.000000
 20
0.000000
 30
0.000000
  70
     8
  0
VERTEX
  8
0
  5
23B3
 10
-36.8522
 20
217.961
 30
-8.20000e-15
  70
    32
  0
VERTEX
  8
0
  5
23B4
 10
-36.8489
 20
217.951
 30
-8.20000e-15
  70
    32
  0
VERTEX
  8
0
  5
23B5
 10
-36.8457
 20
217.941
 30
-8.20000e-15
  70
    32
  0
VERTEX
  8
0
  5
23B6
 10
-36.8424
 20
217.930
 30
-8.20000e-15
  70
    32
  0
VERTEX
  8
0
  5
23B7
 10
-36.8391
 20
217.920
 30
-8.20000e-15
  70
    32
  0
VERTEX
  8
0
  5
23B8
 10
-36.8359
 20
217.910
 30
-8.20000e-15
  70
    32
  0
VERTEX
  8
0
  5
23B9
 10
-36.8327
 20
217.899
 30
-8.20000e-15
  70
    32
  0
VERTEX
  8
0
  5
23BA
 10
-36.8294
 20
217.889
 30
-8.20000e-15
  70
    32
  0
VERTEX
  8
0
  5
23BB
 10
-36.8262
 20
217.879
 30
-8.20000e-15
  70
    32
  0
VERTEX
  8
0
  5
23BC
 10
-36.8230
 20
217.868
 30
-8.20000e-15
  70
    32
  0
VERTEX
  8
0
  5
23BD
 10
-36.8199
 20
217.858
 30
-8.20000e-15
  70
    32
  0
VERTEX
  8
0
  5
23BE
 10
-36.8167
 20
217.848
 30
-8.20000e-15
  70
    32
  0
VERTEX
  8
0
  5
23BF
 10
-36.8135
 20
217.837
 30
-8.20000e-15
  70
    32
  0
VERTEX
  8
0
  5
23C0
 10
-36.8104
 20
217.827
 30
-8.20000e-15
  70
    32
  0
VERTEX
  8
0
  5
23C1
 10
-36.8072
 20
217.817
 30
-8.20000e-15
  70
    32
  0
VERTEX
  8
0
  5
23C2
 10
-36.8041
 20
217.806
 30
-8.20000e-15
  70
    32
  0
VERTEX
  8
0
  5
23C3
 10
-36.8010
 20
217.796
 30
-8.20000e-15
  70
    32
  0
VERTEX
  8
0
  5
23C4
 10
-36.7979
 20
217.785
 30
-8.20000e-15
  70
    32
  0
VERTEX
  8
0
  5
23C5
 10
-36.7948
 20
217.775
 30
-8.20000e-15
  70
    32
  0
VERTEX
  8
0
  5
23C6
 10
-36.7917
 20
217.765
 30
-8.20000e-15
  70
    32
  0
VERTEX
  8
0
  5
23C7
 10
-36.7886
 20
217.754
 30
-8.20000e-15
  70
    32
  0
VERTEX
  8
0
  5
23C8
 10
-36.7856
 20
217.744
 30
-8.20000e-15
  70
    32
  0
VERTEX
  8
0
  5
23C9
 10
-36.7825
 20
217.733
 30
-8.20000e-15
  70
    32
  0
VERTEX
  8
0
  5
23CA
 10
-36.7795
 20
217.723
 30
-8.20000e-15
  70
    32
  0
VERTEX
  8
0
  5
23CB
 10
-36.7764
 20
217.713
 30
-8.20000e-15
  70
    32
  0
VERTEX
  8
0
  5
23CC
 10
-36.7734
 20
217.702
 30
-8.20000e-15
  70
    32
  0
VERTEX
  8
0
  5
23CD
 10
-36.7704
 20
217.692
 30
-8.20000e-15
  70
    32
  0
VERTEX
  8
0
  5
23CE
 10
-36.7674
 20
217.681
 30
-8.20000e-15
  70
    32
  0
VERTEX
  8
0
  5
23CF
 10
-36.7645
 20
217.671
 30
-8.20000e-15
  70
    32
  0
VERTEX
  8
0
  5
23D0
 10
-36.7615
 20
217.660
 30
-8.19999e-15
  70
    32
  0
VERTEX
  8
0
  5
23D1
 10
-36.7585
 20
217.650
 30
-8.19999e-15
  70
    32
  0
VERTEX
  8
0
  5
23D2
 10
-36.7556
 20
217.639
 30
-8.19999e-15
  70
    32
  0
VERTEX
  8
0
  5
23D3
 10
-36.7527
 20
217.629
 30
-8.19998e-15
  70
    32
  0
VERTEX
  8
0
  5
23D4
 10
-36.7498
 20
217.618
 30
-8.19997e-15
  70
    32
  0
VERTEX
  8
0
  5
23D5
 10
-36.7469
 20
217.608
 30
-8.19996e-15
  70
    32
  0
VERTEX
  8
0
  5
23D6
 10
-36.7440
 20
217.597
 30
-8.19995e-15
  70
    32
  0
VERTEX
  8
0
  5
23D7
 10
-36.7411
 20
217.587
 30
-8.19994e-15
  70
    32
  0
VERTEX
  8
0
  5
23D8
 10
-36.7382
 20
217.576
 30
-8.19992e-15
  70
    32
  0
VERTEX
  8
0
  5
23D9
 10
-36.7353
 20
217.566
 30
-8.19990e-15
  70
    32
  0
VERTEX
  8
0
  5
23DA
 10
-36.7325
 20
217.555
 30
-8.19988e-15
  70
    32
  0
VERTEX
  8
0
  5
23DB
 10
-36.7297
 20
217.545
 30
-8.19985e-15
  70
    32
  0
VERTEX
  8
0
  5
23DC
 10
-36.7268
 20
217.534
 30
-8.19982e-15
  70
    32
  0
VERTEX
  8
0
  5
23DD
 10
-36.7240
 20
217.524
 30
-8.19979e-15
  70
    32
  0
VERTEX
  8
0
  5
23DE
 10
-36.7212
 20
217.513
 30
-8.19976e-15
  70
    32
  0
VERTEX
  8
0
  5
23DF
 10
-36.7184
 20
217.502
 30
-8.19972e-15
  70
    32
  0
VERTEX
  8
0
  5
23E0
 10
-36.7157
 20
217.492
 30
-8.19967e-15
  70
    32
  0
VERTEX
  8
0
  5
23E1
 10
-36.7129
 20
217.481
 30
-8.19963e-15
  70
    32
  0
VERTEX
  8
0
  5
23E2
 10
-36.7102
 20
217.471
 30
-8.19958e-15
  70
    32
  0
VERTEX
  8
0
  5
23E3
 10
-36.7074
 20
217.460
 30
-8.19952e-15
  70
    32
  0
VERTEX
  8
0
  5
23E4
 10
-36.7047
 20
217.449
 30
-8.19946e-15
  70
    32
  0
VERTEX
  8
0
  5
23E5
 10
-36.7020
 20
217.439
 30
-8.19939e-15
  70
    32
  0
VERTEX
  8
0
  5
23E6
 10
-36.6993
 20
217.428
 30
-8.19932e-15
  70
    32
  0
VERTEX
  8
0
  5
23E7
 10
-36.6966
 20
217.418
 30
-8.19925e-15
  70
    32
  0
VERTEX
  8
0
  5
23E8
 10
-36.6939
 20
217.407
 30
-8.19916e-15
  70
    32
  0
VERTEX
  8
0
  5
23E9
 10
-36.6913
 20
217.396
 30
-8.19908e-15
  70
    32
  0
VERTEX
  8
0
  5
23EA
 10
-36.6886
 20
217.386
 30
-8.19898e-15
  70
    32
  0
VERTEX
  8
0
  5
23EB
 10
-36.6860
 20
217.375
 30
-8.19888e-15
  70
    32
  0
VERTEX
  8
0
  5
23EC
 10
-36.6833
 20
217.364
 30
-8.19878e-15
  70
    32
  0
VERTEX
  8
0
  5
23ED
 10
-36.6807
 20
217.354
 30
-8.19866e-15
  70
    32
  0
VERTEX
  8
0
  5
23EE
 10
-36.6781
 20
217.343
 30
-8.19855e-15
  70
    32
  0
VERTEX
  8
0
  5
23EF
 10
-36.6755
 20
217.332
 30
-8.19842e-15
  70
    32
  0
VERTEX
  8
0
  5
23F0
 10
-36.6729
 20
217.322
 30
-8.19829e-15
  70
    32
  0
VERTEX
  8
0
  5
23F1
 10
-36.6704
 20
217.311
 30
-8.19815e-15
  70
    32
  0
VERTEX
  8
0
  5
23F2
 10
-36.6678
 20
217.300
 30
-8.19800e-15
  70
    32
  0
VERTEX
  8
0
  5
23F3
 10
-36.6653
 20
217.290
 30
-8.19784e-15
  70
    32
  0
VERTEX
  8
0
  5
23F4
 10
-36.6628
 20
217.279
 30
-8.19768e-15
  70
    32
  0
VERTEX
  8
0
  5
23F5
 10
-36.6602
 20
217.268
 30
-8.19751e-15
  70
    32
  0
VERTEX
  8
0
  5
23F6
 10
-36.6577
 20
217.258
 30
-8.19733e-15
  70
    32
  0
VERTEX
  8
0
  5
23F7
 10
-36.6553
 20
217.247
 30
-8.19714e-15
  70
    32
  0
VERTEX
  8
0
  5
23F8
 10
-36.6528
 20
217.236
 30
-8.19694e-15
  70
    32
  0
VERTEX
  8
0
  5
23F9
 10
-36.6503
 20
217.225
 30
-8.19674e-15
  70
    32
  0
VERTEX
  8
0
  5
23FA
 10
-36.6479
 20
217.215
 30
-8.19652e-15
  70
    32
  0
VERTEX
  8
0
  5
23FB
 10
-36.6454
 20
217.204
 30
-8.19630e-15
  70
    32
  0
VERTEX
  8
0
  5
23FC
 10
-36.6430
 20
217.193
 30
-8.19607e-15
  70
    32
  0
VERTEX
  8
0
  5
23FD
 10
-36.6406
 20
217.182
 30
-8.19582e-15
  70
    32
  0
VERTEX
  8
0
  5
23FE
 10
-36.6382
 20
217.172
 30
-8.19557e-15
  70
    32
  0
VERTEX
  8
0
  5
23FF
 10
-36.6358
 20
217.161
 30
-8.19531e-15
  70
    32
  0
VERTEX
  8
0
  5
2400
 10
-36.6334
 20
217.150
 30
-8.19504e-15
  70
    32
  0
VERTEX
  8
0
  5
2401
 10
-36.6310
 20
217.139
 30
-8.19475e-15
  70
    32
  0
VERTEX
  8
0
  5
2402
 10
-36.6287
 20
217.129
 30
-8.19446e-15
  70
    32
  0
VERTEX
  8
0
  5
2403
 10
-36.6263
 20
217.118
 30
-8.19416e-15
  70
    32
  0
VERTEX
  8
0
  5
2404
 10
-36.6240
 20
217.107
 30
-8.19384e-15
  70
    32
  0
VERTEX
  8
0
  5
2405
 10
-36.6217
 20
217.096
 30
-8.19352e-15
  70
    32
  0
VERTEX
  8
0
  5
2406
 10
-36.6194
 20
217.086
 30
-8.19318e-15
  70
    32
  0
VERTEX
  8
0
  5
2407
 10
-36.6171
 20
217.075
 30
-8.19283e-15
  70
    32
  0
VERTEX
  8
0
  5
2408
 10
-36.6148
 20
217.064
 30
-8.19247e-15
  70
    32
  0
VERTEX
  8
0
  5
2409
 10
-36.6126
 20
217.053
 30
-8.19210e-15
  70
    32
  0
VERTEX
  8
0
  5
240A
 10
-36.6103
 20
217.042
 30
-8.19171e-15
  70
    32
  0
VERTEX
  8
0
  5
240B
 10
-36.6081
 20
217.032
 30
-8.19131e-15
  70
    32
  0
VERTEX
  8
0
  5
240C
 10
-36.6059
 20
217.021
 30
-8.19090e-15
  70
    32
  0
VERTEX
  8
0
  5
240D
 10
-36.6037
 20
217.010
 30
-8.19048e-15
  70
    32
  0
VERTEX
  8
0
  5
240E
 10
-36.6015
 20
216.999
 30
-8.19005e-15
  70
    32
  0
VERTEX
  8
0
  5
240F
 10
-36.5993
 20
216.988
 30
-8.18960e-15
  70
    32
  0
VERTEX
  8
0
  5
2410
 10
-36.5971
 20
216.978
 30
-8.18914e-15
  70
    32
  0
VERTEX
  8
0
  5
2411
 10
-36.5949
 20
216.967
 30
-8.18866e-15
  70
    32
  0
VERTEX
  8
0
  5
2412
 10
-36.5928
 20
216.956
 30
-8.18817e-15
  70
    32
  0
VERTEX
  8
0
  5
2413
 10
-36.5907
 20
216.945
 30
-8.18767e-15
  70
    32
  0
VERTEX
  8
0
  5
2414
 10
-36.5885
 20
216.934
 30
-8.18716e-15
  70
    32
  0
VERTEX
  8
0
  5
2415
 10
-36.5864
 20
216.923
 30
-8.18662e-15
  70
    32
  0
VERTEX
  8
0
  5
2416
 10
-36.5843
 20
216.913
 30
-8.18608e-15
  70
    32
  0
VERTEX
  8
0
  5
2417
 10
-36.5823
 20
216.902
 30
-8.18552e-15
  70
    32
  0
VERTEX
  8
0
  5
2418
 10
-36.5802
 20
216.891
 30
-8.18495e-15
  70
    32
  0
VERTEX
  8
0
  5
2419
 10
-36.5781
 20
216.880
 30
-8.18436e-15
  70
    32
  0
VERTEX
  8
0
  5
241A
 10
-36.5761
 20
216.869
 30
-8.18375e-15
  70
    32
  0
VERTEX
  8
0
  5
241B
 10
-36.5741
 20
216.858
 30
-8.18313e-15
  70
    32
  0
VERTEX
  8
0
  5
241C
 10
-36.5720
 20
216.847
 30
-8.18250e-15
  70
    32
  0
VERTEX
  8
0
  5
241D
 10
-36.5700
 20
216.837
 30
-8.18185e-15
  70
    32
  0
VERTEX
  8
0
  5
241E
 10
-36.5681
 20
216.826
 30
-8.18118e-15
  70
    32
  0
VERTEX
  8
0
  5
241F
 10
-36.5661
 20
216.815
 30
-8.18049e-15
  70
    32
  0
VERTEX
  8
0
  5
2420
 10
-36.5641
 20
216.804
 30
-8.17979e-15
  70
    32
  0
VERTEX
  8
0
  5
2421
 10
-36.5622
 20
216.793
 30
-8.17908e-15
  70
    32
  0
VERTEX
  8
0
  5
2422
 10
-36.5602
 20
216.782
 30
-8.17835e-15
  70
    32
  0
VERTEX
  8
0
  5
2423
 10
-36.5583
 20
216.771
 30
-8.17760e-15
  70
    32
  0
VERTEX
  8
0
  5
2424
 10
-36.5564
 20
216.760
 30
-8.17683e-15
  70
    32
  0
VERTEX
  8
0
  5
2425
 10
-36.5545
 20
216.750
 30
-8.17604e-15
  70
    32
  0
VERTEX
  8
0
  5
2426
 10
-36.5526
 20
216.739
 30
-8.17524e-15
  70
    32
  0
VERTEX
  8
0
  5
2427
 10
-36.5507
 20
216.728
 30
-8.17442e-15
  70
    32
  0
VERTEX
  8
0
  5
2428
 10
-36.5489
 20
216.717
 30
-8.17359e-15
  70
    32
  0
VERTEX
  8
0
  5
2429
 10
-36.5470
 20
216.706
 30
-8.17273e-15
  70
    32
  0
VERTEX
  8
0
  5
242A
 10
-36.5452
 20
216.695
 30
-8.17186e-15
  70
    32
  0
VERTEX
  8
0
  5
242B
 10
-36.5434
 20
216.684
 30
-8.17096e-15
  70
    32
  0
VERTEX
  8
0
  5
242C
 10
-36.5416
 20
216.673
 30
-8.17005e-15
  70
    32
  0
VERTEX
  8
0
  5
242D
 10
-36.5398
 20
216.662
 30
-8.16912e-15
  70
    32
  0
VERTEX
  8
0
  5
242E
 10
-36.5380
 20
216.651
 30
-8.16817e-15
  70
    32
  0
VERTEX
  8
0
  5
242F
 10
-36.5363
 20
216.641
 30
-8.16721e-15
  70
    32
  0
VERTEX
  8
0
  5
2430
 10
-36.5345
 20
216.630
 30
-8.16622e-15
  70
    32
  0
VERTEX
  8
0
  5
2431
 10
-36.5328
 20
216.619
 30
-8.16521e-15
  70
    32
  0
VERTEX
  8
0
  5
2432
 10
-36.5311
 20
216.608
 30
-8.16419e-15
  70
    32
  0
VERTEX
  8
0
  5
2433
 10
-36.5293
 20
216.597
 30
-8.16314e-15
  70
    32
  0
VERTEX
  8
0
  5
2434
 10
-36.5276
 20
216.586
 30
-8.16207e-15
  70
    32
  0
VERTEX
  8
0
  5
2435
 10
-36.5260
 20
216.575
 30
-8.16098e-15
  70
    32
  0
VERTEX
  8
0
  5
2436
 10
-36.5243
 20
216.564
 30
-8.15988e-15
  70
    32
  0
VERTEX
  8
0
  5
2437
 10
-36.5226
 20
216.553
 30
-8.15875e-15
  70
    32
  0
VERTEX
  8
0
  5
2438
 10
-36.5210
 20
216.542
 30
-8.15760e-15
  70
    32
  0
VERTEX
  8
0
  5
2439
 10
-36.5194
 20
216.531
 30
-8.15643e-15
  70
    32
  0
VERTEX
  8
0
  5
243A
 10
-36.5178
 20
216.520
 30
-8.15523e-15
  70
    32
  0
VERTEX
  8
0
  5
243B
 10
-36.5162
 20
216.509
 30
-8.15402e-15
  70
    32
  0
VERTEX
  8
0
  5
243C
 10
-36.5146
 20
216.498
 30
-8.15278e-15
  70
    32
  0
VERTEX
  8
0
  5
243D
 10
-36.5130
 20
216.488
 30
-8.15153e-15
  70
    32
  0
VERTEX
  8
0
  5
243E
 10
-36.5114
 20
216.477
 30
-8.15025e-15
  70
    32
  0
VERTEX
  8
0
  5
243F
 10
-36.5099
 20
216.466
 30
-8.14896e-15
  70
    32
  0
VERTEX
  8
0
  5
2440
 10
-36.5084
 20
216.455
 30
-8.14769e-15
  70
    32
  0
VERTEX
  8
0
  5
2441
 10
-36.5068
 20
216.444
 30
-8.14645e-15
  70
    32
  0
VERTEX
  8
0
  5
2442
 10
-36.5053
 20
216.433
 30
-8.14523e-15
  70
    32
  0
VERTEX
  8
0
  5
2443
 10
-36.5038
 20
216.422
 30
-8.14402e-15
  70
    32
  0
VERTEX
  8
0
  5
2444
 10
-36.5024
 20
216.411
 30
-8.14285e-15
  70
    32
  0
VERTEX
  8
0
  5
2445
 10
-36.5009
 20
216.400
 30
-8.14169e-15
  70
    32
  0
VERTEX
  8
0
  5
2446
 10
-36.4995
 20
216.389
 30
-8.14055e-15
  70
    32
  0
VERTEX
  8
0
  5
2447
 10
-36.4980
 20
216.378
 30
-8.13943e-15
  70
    32
  0
VERTEX
  8
0
  5
2448
 10
-36.4966
 20
216.367
 30
-8.13834e-15
  70
    32
  0
VERTEX
  8
0
  5
2449
 10
-36.4952
 20
216.356
 30
-8.13726e-15
  70
    32
  0
VERTEX
  8
0
  5
244A
 10
-36.4938
 20
216.345
 30
-8.13621e-15
  70
    32
  0
VERTEX
  8
0
  5
244B
 10
-36.4924
 20
216.334
 30
-8.13518e-15
  70
    32
  0
VERTEX
  8
0
  5
244C
 10
-36.4910
 20
216.323
 30
-8.13416e-15
  70
    32
  0
VERTEX
  8
0
  5
244D
 10
-36.4897
 20
216.312
 30
-8.13317e-15
  70
    32
  0
VERTEX
  8
0
  5
244E
 10
-36.4884
 20
216.301
 30
-8.13219e-15
  70
    32
  0
VERTEX
  8
0
  5
244F
 10
-36.4870
 20
216.290
 30
-8.13123e-15
  70
    32
  0
VERTEX
  8
0
  5
2450
 10
-36.4857
 20
216.279
 30
-8.13030e-15
  70
    32
  0
VERTEX
  8
0
  5
2451
 10
-36.4844
 20
216.268
 30
-8.12938e-15
  70
    32
  0
VERTEX
  8
0
  5
2452
 10
-36.4831
 20
216.257
 30
-8.12848e-15
  70
    32
  0
VERTEX
  8
0
  5
2453
 10
-36.4819
 20
216.247
 30
-8.12760e-15
  70
    32
  0
VERTEX
  8
0
  5
2454
 10
-36.4806
 20
216.236
 30
-8.12674e-15
  70
    32
  0
VERTEX
  8
0
  5
2455
 10
-36.4794
 20
216.225
 30
-8.12589e-15
  70
    32
  0
VERTEX
  8
0
  5
2456
 10
-36.4781
 20
216.214
 30
-8.12507e-15
  70
    32
  0
VERTEX
  8
0
  5
2457
 10
-36.4769
 20
216.203
 30
-8.12426e-15
  70
    32
  0
VERTEX
  8
0
  5
2458
 10
-36.4757
 20
216.192
 30
-8.12347e-15
  70
    32
  0
VERTEX
  8
0
  5
2459
 10
-36.4745
 20
216.181
 30
-8.12269e-15
  70
    32
  0
VERTEX
  8
0
  5
245A
 10
-36.4733
 20
216.170
 30
-8.12194e-15
  70
    32
  0
VERTEX
  8
0
  5
245B
 10
-36.4722
 20
216.159
 30
-8.12120e-15
  70
    32
  0
VERTEX
  8
0
  5
245C
 10
-36.4710
 20
216.148
 30
-8.12048e-15
  70
    32
  0
VERTEX
  8
0
  5
245D
 10
-36.4699
 20
216.137
 30
-8.11977e-15
  70
    32
  0
VERTEX
  8
0
  5
245E
 10
-36.4688
 20
216.126
 30
-8.11908e-15
  70
    32
  0
VERTEX
  8
0
  5
245F
 10
-36.4677
 20
216.115
 30
-8.11841e-15
  70
    32
  0
VERTEX
  8
0
  5
2460
 10
-36.4666
 20
216.104
 30
-8.11775e-15
  70
    32
  0
VERTEX
  8
0
  5
2461
 10
-36.4655
 20
216.093
 30
-8.11711e-15
  70
    32
  0
VERTEX
  8
0
  5
2462
 10
-36.4644
 20
216.082
 30
-8.11648e-15
  70
    32
  0
VERTEX
  8
0
  5
2463
 10
-36.4634
 20
216.071
 30
-8.11587e-15
  70
    32
  0
VERTEX
  8
0
  5
2464
 10
-36.4623
 20
216.060
 30
-8.11528e-15
  70
    32
  0
VERTEX
  8
0
  5
2465
 10
-36.4613
 20
216.049
 30
-8.11470e-15
  70
    32
  0
VERTEX
  8
0
  5
2466
 10
-36.4603
 20
216.038
 30
-8.11413e-15
  70
    32
  0
VERTEX
  8
0
  5
2467
 10
-36.4593
 20
216.027
 30
-8.11358e-15
  70
    32
  0
VERTEX
  8
0
  5
2468
 10
-36.4583
 20
216.016
 30
-8.11304e-15
  70
    32
  0
VERTEX
  8
0
  5
2469
 10
-36.4573
 20
216.005
 30
-8.11252e-15
  70
    32
  0
VERTEX
  8
0
  5
246A
 10
-36.4563
 20
215.994
 30
-8.11202e-15
  70
    32
  0
VERTEX
  8
0
  5
246B
 10
-36.4554
 20
215.984
 30
-8.11152e-15
  70
    32
  0
VERTEX
  8
0
  5
246C
 10
-36.4545
 20
215.973
 30
-8.11104e-15
  70
    32
  0
VERTEX
  8
0
  5
246D
 10
-36.4535
 20
215.962
 30
-8.11057e-15
  70
    32
  0
VERTEX
  8
0
  5
246E
 10
-36.4526
 20
215.951
 30
-8.11012e-15
  70
    32
  0
VERTEX
  8
0
  5
246F
 10
-36.4517
 20
215.940
 30
-8.10968e-15
  70
    32
  0
VERTEX
  8
0
  5
2470
 10
-36.4509
 20
215.929
 30
-8.10925e-15
  70
    32
  0
VERTEX
  8
0
  5
2471
 10
-36.4500
 20
215.918
 30
-8.10884e-15
  70
    32
  0
VERTEX
  8
0
  5
2472
 10
-36.4492
 20
215.907
 30
-8.10844e-15
  70
    32
  0
VERTEX
  8
0
  5
2473
 10
-36.4483
 20
215.896
 30
-8.10805e-15
  70
    32
  0
VERTEX
  8
0
  5
2474
 10
-36.4475
 20
215.885
 30
-8.10767e-15
  70
    32
  0
VERTEX
  8
0
  5
2475
 10
-36.4467
 20
215.874
 30
-8.10731e-15
  70
    32
  0
VERTEX
  8
0
  5
2476
 10
-36.4459
 20
215.863
 30
-8.10695e-15
  70
    32
  0
VERTEX
  8
0
  5
2477
 10
-36.4451
 20
215.852
 30
-8.10661e-15
  70
    32
  0
VERTEX
  8
0
  5
2478
 10
-36.4443
 20
215.841
 30
-8.10628e-15
  70
    32
  0
VERTEX
  8
0
  5
2479
 10
-36.4436
 20
215.830
 30
-8.10596e-15
  70
    32
  0
VERTEX
  8
0
  5
247A
 10
-36.4428
 20
215.819
 30
-8.10565e-15
  70
    32
  0
VERTEX
  8
0
  5
247B
 10
-36.4421
 20
215.808
 30
-8.10536e-15
  70
    32
  0
VERTEX
  8
0
  5
247C
 10
-36.4414
 20
215.798
 30
-8.10507e-15
  70
    32
  0
VERTEX
  8
0
  5
247D
 10
-36.4407
 20
215.787
 30
-8.10479e-15
  70
    32
  0
VERTEX
  8
0
  5
247E
 10
-36.4400
 20
215.776
 30
-8.10453e-15
  70
    32
  0
VERTEX
  8
0
  5
247F
 10
-36.4393
 20
215.765
 30
-8.10427e-15
  70
    32
  0
VERTEX
  8
0
  5
2480
 10
-36.4386
 20
215.754
 30
-8.10402e-15
  70
    32
  0
VERTEX
  8
0
  5
2481
 10
-36.4380
 20
215.743
 30
-8.10379e-15
  70
    32
  0
VERTEX
  8
0
  5
2482
 10
-36.4373
 20
215.732
 30
-8.10356e-15
  70
    32
  0
VERTEX
  8
0
  5
2483
 10
-36.4367
 20
215.721
 30
-8.10334e-15
  70
    32
  0
VERTEX
  8
0
  5
2484
 10
-36.4361
 20
215.710
 30
-8.10313e-15
  70
    32
  0
VERTEX
  8
0
  5
2485
 10
-36.4355
 20
215.699
 30
-8.10293e-15
  70
    32
  0
VERTEX
  8
0
  5
2486
 10
-36.4349
 20
215.688
 30
-8.10274e-15
  70
    32
  0
VERTEX
  8
0
  5
2487
 10
-36.4343
 20
215.678
 30
-8.10256e-15
  70
    32
  0
VERTEX
  8
0
  5
2488
 10
-36.4338
 20
215.667
 30
-8.10238e-15
  70
    32
  0
VERTEX
  8
0
  5
2489
 10
-36.4332
 20
215.656
 30
-8.10222e-15
  70
    32
  0
VERTEX
  8
0
  5
248A
 10
-36.4327
 20
215.645
 30
-8.10206e-15
  70
    32
  0
VERTEX
  8
0
  5
248B
 10
-36.4322
 20
215.634
 30
-8.10191e-15
  70
    32
  0
VERTEX
  8
0
  5
248C
 10
-36.4317
 20
215.623
 30
-8.10177e-15
  70
    32
  0
VERTEX
  8
0
  5
248D
 10
-36.4312
 20
215.612
 30
-8.10163e-15
  70
    32
  0
VERTEX
  8
0
  5
248E
 10
-36.4307
 20
215.601
 30
-8.10150e-15
  70
    32
  0
VERTEX
  8
0
  5
248F
 10
-36.4302
 20
215.591
 30
-8.10138e-15
  70
    32
  0
VERTEX
  8
0
  5
2490
 10
-36.4298
 20
215.580
 30
-8.10127e-15
  70
    32
  0
VERTEX
  8
0
  5
2491
 10
-36.4293
 20
215.569
 30
-8.10116e-15
  70
    32
  0
VERTEX
  8
0
  5
2492
 10
-36.4289
 20
215.558
 30
-8.10105e-15
  70
    32
  0
VERTEX
  8
0
  5
2493
 10
-36.4285
 20
215.547
 30
-8.10096e-15
  70
    32
  0
VERTEX
  8
0
  5
2494
 10
-36.4281
 20
215.536
 30
-8.10087e-15
  70
    32
  0
VERTEX
  8
0
  5
2495
 10
-36.4277
 20
215.525
 30
-8.10079e-15
  70
    32
  0
VERTEX
  8
0
  5
2496
 10
-36.4273
 20
215.514
 30
-8.10071e-15
  70
    32
  0
VERTEX
  8
0
  5
2497
 10
-36.4270
 20
215.504
 30
-8.10063e-15
  70
    32
  0
VERTEX
  8
0
  5
2498
 10
-36.4266
 20
215.493
 30
-8.10057e-15
  70
    32
  0
VERTEX
  8
0
  5
2499
 10
-36.4263
 20
215.482
 30
-8.10050e-15
  70
    32
  0
VERTEX
  8
0
  5
249A
 10
-36.4260
 20
215.471
 30
-8.10045e-15
  70
    32
  0
VERTEX
  8
0
  5
249B
 10
-36.4257
 20
215.460
 30
-8.10039e-15
  70
    32
  0
VERTEX
  8
0
  5
249C
 10
-36.4254
 20
215.449
 30
-8.10034e-15
  70
    32
  0
VERTEX
  8
0
  5
249D
 10
-36.4251
 20
215.439
 30
-8.10030e-15
  70
    32
  0
VERTEX
  8
0
  5
249E
 10
-36.4248
 20
215.428
 30
-8.10026e-15
  70
    32
  0
VERTEX
  8
0
  5
249F
 10
-36.4246
 20
215.417
 30
-8.10022e-15
  70
    32
  0
VERTEX
  8
0
  5
24A0
 10
-36.4243
 20
215.406
 30
-8.10019e-15
  70
    32
  0
VERTEX
  8
0
  5
24A1
 10
-36.4241
 20
215.395
 30
-8.10016e-15
  70
    32
  0
VERTEX
  8
0
  5
24A2
 10
-36.4239
 20
215.385
 30
-8.10013e-15
  70
    32
  0
VERTEX
  8
0
  5
24A3
 10
-36.4237
 20
215.374
 30
-8.10011e-15
  70
    32
  0
VERTEX
  8
0
  5
24A4
 10
-36.4235
 20
215.363
 30
-8.10009e-15
  70
    32
  0
VERTEX
  8
0
  5
24A5
 10
-36.4233
 20
215.352
 30
-8.10007e-15
  70
    32
  0
VERTEX
  8
0
  5
24A6
 10
-36.4232
 20
215.341
 30
-8.10006e-15
  70
    32
  0
VERTEX
  8
0
  5
24A7
 10
-36.4230
 20
215.331
 30
-8.10004e-15
  70
    32
  0
VERTEX
  8
0
  5
24A8
 10
-36.4229
 20
215.320
 30
-8.10003e-15
  70
    32
  0
VERTEX
  8
0
  5
24A9
 10
-36.4227
 20
215.309
 30
-8.10002e-15
  70
    32
  0
VERTEX
  8
0
  5
24AA
 10
-36.4226
 20
215.298
 30
-8.10002e-15
  70
    32
  0
VERTEX
  8
0
  5
24AB
 10
-36.4225
 20
215.288
 30
-8.10001e-15
  70
    32
  0
VERTEX
  8
0
  5
24AC
 10
-36.4225
 20
215.277
 30
-8.10001e-15
  70
    32
  0
VERTEX
  8
0
  5
24AD
 10
-36.4224
 20
215.266
 30
-8.10000e-15
  70
    32
  0
VERTEX
  8
0
  5
24AE
 10
-36.4223
 20
215.255
 30
-8.10000e-15
  70
    32
  0
VERTEX
  8
0
  5
24AF
 10
-36.4223
 20
215.245
 30
-8.10000e-15
  70
    32
  0
VERTEX
  8
0
  5
24B0
 10
-36.4222
 20
215.234
 30
-8.10000e-15
  70
    32
  0
VERTEX
  8
0
  5
24B1
 10
-36.4222
 20
215.223
 30
-8.10000e-15
  70
    32
  0
VERTEX
  8
0
  5
24B2
 10
-36.4222
 20
215.212
 30
-8.10000e-15
  70
    32
  0
SEQEND
  8
0
  5
24B3
  0
ARC
  5
1FDE
  8
0
 10
-45.422217448918353
 20
215.2124394272755126
 30
-0.0000000000000142
 40
8.9999999999999751
 50
17.7825929444741888
 51
342.2174070555258254
  0
POLYLINE
  8
0
  5
24B4
  66
     1
 10
0.000000
 20
0.000000
 30
0.000000
  70
     8
  0
VERTEX
  8
0
  5
24B5
 10
17.0778
 20
161.712
 30
3.80000e-15
  70
    32
  0
VERTEX
  8
0
  5
24B6
 10
17.0885
 20
161.712
 30
3.80259e-15
  70
    32
  0
VERTEX
  8
0
  5
24B7
 10
17.0992
 20
161.712
 30
3.80518e-15
  70
    32
  0
VERTEX
  8
0
  5
24B8
 10
17.1100
 20
161.712
 30
3.80777e-15
  70
    32
  0
VERTEX
  8
0
  5
24B9
 10
17.1207
 20
161.712
 30
3.81036e-15
  70
    32
  0
VERTEX
  8
0
  5
24BA
 10
17.1315
 20
161.712
 30
3.81295e-15
  70
    32
  0
VERTEX
  8
0
  5
24BB
 10
17.1422
 20
161.712
 30
3.81554e-15
  70
    32
  0
VERTEX
  8
0
  5
24BC
 10
17.1530
 20
161.712
 30
3.81813e-15
  70
    32
  0
VERTEX
  8
0
  5
24BD
 10
17.1637
 20
161.712
 30
3.82072e-15
  70
    32
  0
VERTEX
  8
0
  5
24BE
 10
17.1745
 20
161.712
 30
3.82331e-15
  70
    32
  0
VERTEX
  8
0
  5
24BF
 10
17.1852
 20
161.712
 30
3.82590e-15
  70
    32
  0
VERTEX
  8
0
  5
24C0
 10
17.1960
 20
161.712
 30
3.82849e-15
  70
    32
  0
VERTEX
  8
0
  5
24C1
 10
17.2068
 20
161.712
 30
3.83109e-15
  70
    32
  0
VERTEX
  8
0
  5
24C2
 10
17.2176
 20
161.711
 30
3.83368e-15
  70
    32
  0
VERTEX
  8
0
  5
24C3
 10
17.2284
 20
161.711
 30
3.83627e-15
  70
    32
  0
VERTEX
  8
0
  5
24C4
 10
17.2392
 20
161.711
 30
3.83886e-15
  70
    32
  0
VERTEX
  8
0
  5
24C5
 10
17.2500
 20
161.711
 30
3.84145e-15
  70
    32
  0
VERTEX
  8
0
  5
24C6
 10
17.2608
 20
161.711
 30
3.84404e-15
  70
    32
  0
VERTEX
  8
0
  5
24C7
 10
17.2716
 20
161.710
 30
3.84663e-15
  70
    32
  0
VERTEX
  8
0
  5
24C8
 10
17.2824
 20
161.710
 30
3.84922e-15
  70
    32
  0
VERTEX
  8
0
  5
24C9
 10
17.2932
 20
161.710
 30
3.85181e-15
  70
    32
  0
VERTEX
  8
0
  5
24CA
 10
17.3040
 20
161.710
 30
3.85440e-15
  70
    32
  0
VERTEX
  8
0
  5
24CB
 10
17.3148
 20
161.709
 30
3.85699e-15
  70
    32
  0
VERTEX
  8
0
  5
24CC
 10
17.3256
 20
161.709
 30
3.85958e-15
  70
    32
  0
VERTEX
  8
0
  5
24CD
 10
17.3365
 20
161.709
 30
3.86217e-15
  70
    32
  0
VERTEX
  8
0
  5
24CE
 10
17.3473
 20
161.708
 30
3.86476e-15
  70
    32
  0
VERTEX
  8
0
  5
24CF
 10
17.3581
 20
161.708
 30
3.86735e-15
  70
    32
  0
VERTEX
  8
0
  5
24D0
 10
17.3690
 20
161.708
 30
3.86994e-15
  70
    32
  0
VERTEX
  8
0
  5
24D1
 10
17.3798
 20
161.707
 30
3.87253e-15
  70
    32
  0
VERTEX
  8
0
  5
24D2
 10
17.3907
 20
161.707
 30
3.87512e-15
  70
    32
  0
VERTEX
  8
0
  5
24D3
 10
17.4015
 20
161.707
 30
3.87771e-15
  70
    32
  0
VERTEX
  8
0
  5
24D4
 10
17.4124
 20
161.706
 30
3.88030e-15
  70
    32
  0
VERTEX
  8
0
  5
24D5
 10
17.4232
 20
161.706
 30
3.88289e-15
  70
    32
  0
VERTEX
  8
0
  5
24D6
 10
17.4341
 20
161.705
 30
3.88548e-15
  70
    32
  0
VERTEX
  8
0
  5
24D7
 10
17.4450
 20
161.705
 30
3.88808e-15
  70
    32
  0
VERTEX
  8
0
  5
24D8
 10
17.4558
 20
161.704
 30
3.89067e-15
  70
    32
  0
VERTEX
  8
0
  5
24D9
 10
17.4667
 20
161.704
 30
3.89326e-15
  70
    32
  0
VERTEX
  8
0
  5
24DA
 10
17.4776
 20
161.703
 30
3.89585e-15
  70
    32
  0
VERTEX
  8
0
  5
24DB
 10
17.4885
 20
161.703
 30
3.89844e-15
  70
    32
  0
VERTEX
  8
0
  5
24DC
 10
17.4994
 20
161.702
 30
3.90103e-15
  70
    32
  0
VERTEX
  8
0
  5
24DD
 10
17.5102
 20
161.702
 30
3.90362e-15
  70
    32
  0
VERTEX
  8
0
  5
24DE
 10
17.5211
 20
161.701
 30
3.90621e-15
  70
    32
  0
VERTEX
  8
0
  5
24DF
 10
17.5320
 20
161.701
 30
3.90880e-15
  70
    32
  0
VERTEX
  8
0
  5
24E0
 10
17.5429
 20
161.700
 30
3.91139e-15
  70
    32
  0
VERTEX
  8
0
  5
24E1
 10
17.5538
 20
161.700
 30
3.91398e-15
  70
    32
  0
VERTEX
  8
0
  5
24E2
 10
17.5647
 20
161.699
 30
3.91657e-15
  70
    32
  0
VERTEX
  8
0
  5
24E3
 10
17.5756
 20
161.699
 30
3.91916e-15
  70
    32
  0
VERTEX
  8
0
  5
24E4
 10
17.5865
 20
161.698
 30
3.92175e-15
  70
    32
  0
VERTEX
  8
0
  5
24E5
 10
17.5974
 20
161.697
 30
3.92434e-15
  70
    32
  0
VERTEX
  8
0
  5
24E6
 10
17.6083
 20
161.697
 30
3.92693e-15
  70
    32
  0
VERTEX
  8
0
  5
24E7
 10
17.6192
 20
161.696
 30
3.92952e-15
  70
    32
  0
VERTEX
  8
0
  5
24E8
 10
17.6302
 20
161.695
 30
3.93211e-15
  70
    32
  0
VERTEX
  8
0
  5
24E9
 10
17.6411
 20
161.695
 30
3.93470e-15
  70
    32
  0
VERTEX
  8
0
  5
24EA
 10
17.6520
 20
161.694
 30
3.93729e-15
  70
    32
  0
VERTEX
  8
0
  5
24EB
 10
17.6629
 20
161.693
 30
3.93988e-15
  70
    32
  0
VERTEX
  8
0
  5
24EC
 10
17.6738
 20
161.693
 30
3.94247e-15
  70
    32
  0
VERTEX
  8
0
  5
24ED
 10
17.6848
 20
161.692
 30
3.94507e-15
  70
    32
  0
VERTEX
  8
0
  5
24EE
 10
17.6957
 20
161.691
 30
3.94766e-15
  70
    32
  0
VERTEX
  8
0
  5
24EF
 10
17.7066
 20
161.690
 30
3.95025e-15
  70
    32
  0
VERTEX
  8
0
  5
24F0
 10
17.7176
 20
161.690
 30
3.95284e-15
  70
    32
  0
VERTEX
  8
0
  5
24F1
 10
17.7285
 20
161.689
 30
3.95543e-15
  70
    32
  0
VERTEX
  8
0
  5
24F2
 10
17.7394
 20
161.688
 30
3.95802e-15
  70
    32
  0
VERTEX
  8
0
  5
24F3
 10
17.7504
 20
161.687
 30
3.96061e-15
  70
    32
  0
VERTEX
  8
0
  5
24F4
 10
17.7613
 20
161.686
 30
3.96320e-15
  70
    32
  0
VERTEX
  8
0
  5
24F5
 10
17.7722
 20
161.686
 30
3.96579e-15
  70
    32
  0
VERTEX
  8
0
  5
24F6
 10
17.7832
 20
161.685
 30
3.96838e-15
  70
    32
  0
VERTEX
  8
0
  5
24F7
 10
17.7941
 20
161.684
 30
3.97097e-15
  70
    32
  0
VERTEX
  8
0
  5
24F8
 10
17.8051
 20
161.683
 30
3.97356e-15
  70
    32
  0
VERTEX
  8
0
  5
24F9
 10
17.8160
 20
161.682
 30
3.97615e-15
  70
    32
  0
VERTEX
  8
0
  5
24FA
 10
17.8270
 20
161.681
 30
3.97874e-15
  70
    32
  0
VERTEX
  8
0
  5
24FB
 10
17.8379
 20
161.680
 30
3.98133e-15
  70
    32
  0
VERTEX
  8
0
  5
24FC
 10
17.8489
 20
161.679
 30
3.98392e-15
  70
    32
  0
VERTEX
  8
0
  5
24FD
 10
17.8598
 20
161.678
 30
3.98651e-15
  70
    32
  0
VERTEX
  8
0
  5
24FE
 10
17.8708
 20
161.677
 30
3.98910e-15
  70
    32
  0
VERTEX
  8
0
  5
24FF
 10
17.8817
 20
161.676
 30
3.99169e-15
  70
    32
  0
VERTEX
  8
0
  5
2500
 10
17.8927
 20
161.675
 30
3.99428e-15
  70
    32
  0
VERTEX
  8
0
  5
2501
 10
17.9036
 20
161.674
 30
3.99687e-15
  70
    32
  0
VERTEX
  8
0
  5
2502
 10
17.9146
 20
161.673
 30
3.99946e-15
  70
    32
  0
VERTEX
  8
0
  5
2503
 10
17.9255
 20
161.672
 30
4.00205e-15
  70
    32
  0
VERTEX
  8
0
  5
2504
 10
17.9365
 20
161.671
 30
4.00465e-15
  70
    32
  0
VERTEX
  8
0
  5
2505
 10
17.9475
 20
161.670
 30
4.00724e-15
  70
    32
  0
VERTEX
  8
0
  5
2506
 10
17.9584
 20
161.669
 30
4.00983e-15
  70
    32
  0
VERTEX
  8
0
  5
2507
 10
17.9694
 20
161.668
 30
4.01242e-15
  70
    32
  0
VERTEX
  8
0
  5
2508
 10
17.9803
 20
161.667
 30
4.01501e-15
  70
    32
  0
VERTEX
  8
0
  5
2509
 10
17.9913
 20
161.666
 30
4.01760e-15
  70
    32
  0
VERTEX
  8
0
  5
250A
 10
18.0023
 20
161.665
 30
4.02019e-15
  70
    32
  0
VERTEX
  8
0
  5
250B
 10
18.0132
 20
161.664
 30
4.02278e-15
  70
    32
  0
VERTEX
  8
0
  5
250C
 10
18.0242
 20
161.662
 30
4.02537e-15
  70
    32
  0
VERTEX
  8
0
  5
250D
 10
18.0351
 20
161.661
 30
4.02796e-15
  70
    32
  0
VERTEX
  8
0
  5
250E
 10
18.0461
 20
161.660
 30
4.03055e-15
  70
    32
  0
VERTEX
  8
0
  5
250F
 10
18.0571
 20
161.659
 30
4.03314e-15
  70
    32
  0
VERTEX
  8
0
  5
2510
 10
18.0680
 20
161.658
 30
4.03573e-15
  70
    32
  0
VERTEX
  8
0
  5
2511
 10
18.0790
 20
161.657
 30
4.03832e-15
  70
    32
  0
VERTEX
  8
0
  5
2512
 10
18.0899
 20
161.655
 30
4.04091e-15
  70
    32
  0
VERTEX
  8
0
  5
2513
 10
18.1009
 20
161.654
 30
4.04350e-15
  70
    32
  0
VERTEX
  8
0
  5
2514
 10
18.1119
 20
161.653
 30
4.04609e-15
  70
    32
  0
VERTEX
  8
0
  5
2515
 10
18.1228
 20
161.652
 30
4.04868e-15
  70
    32
  0
VERTEX
  8
0
  5
2516
 10
18.1338
 20
161.650
 30
4.05127e-15
  70
    32
  0
VERTEX
  8
0
  5
2517
 10
18.1448
 20
161.649
 30
4.05386e-15
  70
    32
  0
VERTEX
  8
0
  5
2518
 10
18.1557
 20
161.648
 30
4.05645e-15
  70
    32
  0
VERTEX
  8
0
  5
2519
 10
18.1667
 20
161.646
 30
4.05904e-15
  70
    32
  0
VERTEX
  8
0
  5
251A
 10
18.1776
 20
161.645
 30
4.06164e-15
  70
    32
  0
VERTEX
  8
0
  5
251B
 10
18.1886
 20
161.644
 30
4.06423e-15
  70
    32
  0
VERTEX
  8
0
  5
251C
 10
18.1995
 20
161.642
 30
4.06682e-15
  70
    32
  0
VERTEX
  8
0
  5
251D
 10
18.2105
 20
161.641
 30
4.06941e-15
  70
    32
  0
VERTEX
  8
0
  5
251E
 10
18.2215
 20
161.639
 30
4.07200e-15
  70
    32
  0
VERTEX
  8
0
  5
251F
 10
18.2324
 20
161.638
 30
4.07459e-15
  70
    32
  0
VERTEX
  8
0
  5
2520
 10
18.2434
 20
161.637
 30
4.07718e-15
  70
    32
  0
VERTEX
  8
0
  5
2521
 10
18.2543
 20
161.635
 30
4.07977e-15
  70
    32
  0
VERTEX
  8
0
  5
2522
 10
18.2653
 20
161.634
 30
4.08236e-15
  70
    32
  0
VERTEX
  8
0
  5
2523
 10
18.2762
 20
161.632
 30
4.08495e-15
  70
    32
  0
VERTEX
  8
0
  5
2524
 10
18.2872
 20
161.631
 30
4.08754e-15
  70
    32
  0
VERTEX
  8
0
  5
2525
 10
18.2981
 20
161.629
 30
4.09013e-15
  70
    32
  0
VERTEX
  8
0
  5
2526
 10
18.3091
 20
161.628
 30
4.09272e-15
  70
    32
  0
VERTEX
  8
0
  5
2527
 10
18.3200
 20
161.626
 30
4.09531e-15
  70
    32
  0
VERTEX
  8
0
  5
2528
 10
18.3310
 20
161.625
 30
4.09790e-15
  70
    32
  0
VERTEX
  8
0
  5
2529
 10
18.3419
 20
161.623
 30
4.10049e-15
  70
    32
  0
VERTEX
  8
0
  5
252A
 10
18.3529
 20
161.622
 30
4.10308e-15
  70
    32
  0
VERTEX
  8
0
  5
252B
 10
18.3638
 20
161.620
 30
4.10567e-15
  70
    32
  0
VERTEX
  8
0
  5
252C
 10
18.3747
 20
161.618
 30
4.10826e-15
  70
    32
  0
VERTEX
  8
0
  5
252D
 10
18.3857
 20
161.617
 30
4.11085e-15
  70
    32
  0
VERTEX
  8
0
  5
252E
 10
18.3966
 20
161.615
 30
4.11344e-15
  70
    32
  0
VERTEX
  8
0
  5
252F
 10
18.4075
 20
161.614
 30
4.11603e-15
  70
    32
  0
VERTEX
  8
0
  5
2530
 10
18.4185
 20
161.612
 30
4.11862e-15
  70
    32
  0
VERTEX
  8
0
  5
2531
 10
18.4294
 20
161.610
 30
4.12121e-15
  70
    32
  0
VERTEX
  8
0
  5
2532
 10
18.4403
 20
161.609
 30
4.12380e-15
  70
    32
  0
VERTEX
  8
0
  5
2533
 10
18.4513
 20
161.607
 30
4.12638e-15
  70
    32
  0
VERTEX
  8
0
  5
2534
 10
18.4622
 20
161.605
 30
4.12897e-15
  70
    32
  0
VERTEX
  8
0
  5
2535
 10
18.4731
 20
161.604
 30
4.13156e-15
  70
    32
  0
VERTEX
  8
0
  5
2536
 10
18.4840
 20
161.602
 30
4.13414e-15
  70
    32
  0
VERTEX
  8
0
  5
2537
 10
18.4950
 20
161.600
 30
4.13673e-15
  70
    32
  0
VERTEX
  8
0
  5
2538
 10
18.5059
 20
161.598
 30
4.13931e-15
  70
    32
  0
VERTEX
  8
0
  5
2539
 10
18.5168
 20
161.597
 30
4.14189e-15
  70
    32
  0
VERTEX
  8
0
  5
253A
 10
18.5277
 20
161.595
 30
4.14447e-15
  70
    32
  0
VERTEX
  8
0
  5
253B
 10
18.5386
 20
161.593
 30
4.14705e-15
  70
    32
  0
VERTEX
  8
0
  5
253C
 10
18.5495
 20
161.591
 30
4.14963e-15
  70
    32
  0
VERTEX
  8
0
  5
253D
 10
18.5604
 20
161.589
 30
4.15221e-15
  70
    32
  0
VERTEX
  8
0
  5
253E
 10
18.5713
 20
161.588
 30
4.15479e-15
  70
    32
  0
VERTEX
  8
0
  5
253F
 10
18.5822
 20
161.586
 30
4.15736e-15
  70
    32
  0
VERTEX
  8
0
  5
2540
 10
18.5931
 20
161.584
 30
4.15994e-15
  70
    32
  0
VERTEX
  8
0
  5
2541
 10
18.6040
 20
161.582
 30
4.16251e-15
  70
    32
  0
VERTEX
  8
0
  5
2542
 10
18.6149
 20
161.580
 30
4.16508e-15
  70
    32
  0
VERTEX
  8
0
  5
2543
 10
18.6258
 20
161.578
 30
4.16765e-15
  70
    32
  0
VERTEX
  8
0
  5
2544
 10
18.6367
 20
161.576
 30
4.17022e-15
  70
    32
  0
VERTEX
  8
0
  5
2545
 10
18.6476
 20
161.574
 30
4.17278e-15
  70
    32
  0
VERTEX
  8
0
  5
2546
 10
18.6585
 20
161.572
 30
4.17535e-15
  70
    32
  0
VERTEX
  8
0
  5
2547
 10
18.6693
 20
161.571
 30
4.17791e-15
  70
    32
  0
VERTEX
  8
0
  5
2548
 10
18.6802
 20
161.569
 30
4.18047e-15
  70
    32
  0
VERTEX
  8
0
  5
2549
 10
18.6911
 20
161.567
 30
4.18303e-15
  70
    32
  0
VERTEX
  8
0
  5
254A
 10
18.7019
 20
161.565
 30
4.18558e-15
  70
    32
  0
VERTEX
  8
0
  5
254B
 10
18.7128
 20
161.563
 30
4.18813e-15
  70
    32
  0
VERTEX
  8
0
  5
254C
 10
18.7237
 20
161.561
 30
4.19069e-15
  70
    32
  0
VERTEX
  8
0
  5
254D
 10
18.7345
 20
161.559
 30
4.19324e-15
  70
    32
  0
VERTEX
  8
0
  5
254E
 10
18.7454
 20
161.557
 30
4.19578e-15
  70
    32
  0
VERTEX
  8
0
  5
254F
 10
18.7562
 20
161.554
 30
4.19833e-15
  70
    32
  0
VERTEX
  8
0
  5
2550
 10
18.7671
 20
161.552
 30
4.20087e-15
  70
    32
  0
VERTEX
  8
0
  5
2551
 10
18.7779
 20
161.550
 30
4.20341e-15
  70
    32
  0
VERTEX
  8
0
  5
2552
 10
18.7888
 20
161.548
 30
4.20594e-15
  70
    32
  0
VERTEX
  8
0
  5
2553
 10
18.7996
 20
161.546
 30
4.20848e-15
  70
    32
  0
VERTEX
  8
0
  5
2554
 10
18.8105
 20
161.544
 30
4.21101e-15
  70
    32
  0
VERTEX
  8
0
  5
2555
 10
18.8213
 20
161.542
 30
4.21354e-15
  70
    32
  0
VERTEX
  8
0
  5
2556
 10
18.8321
 20
161.540
 30
4.21606e-15
  70
    32
  0
VERTEX
  8
0
  5
2557
 10
18.8429
 20
161.538
 30
4.21859e-15
  70
    32
  0
VERTEX
  8
0
  5
2558
 10
18.8538
 20
161.535
 30
4.22111e-15
  70
    32
  0
VERTEX
  8
0
  5
2559
 10
18.8646
 20
161.533
 30
4.22362e-15
  70
    32
  0
VERTEX
  8
0
  5
255A
 10
18.8754
 20
161.531
 30
4.22614e-15
  70
    32
  0
VERTEX
  8
0
  5
255B
 10
18.8862
 20
161.529
 30
4.22865e-15
  70
    32
  0
VERTEX
  8
0
  5
255C
 10
18.8970
 20
161.527
 30
4.23115e-15
  70
    32
  0
VERTEX
  8
0
  5
255D
 10
18.9078
 20
161.524
 30
4.23366e-15
  70
    32
  0
VERTEX
  8
0
  5
255E
 10
18.9186
 20
161.522
 30
4.23616e-15
  70
    32
  0
VERTEX
  8
0
  5
255F
 10
18.9294
 20
161.520
 30
4.23866e-15
  70
    32
  0
VERTEX
  8
0
  5
2560
 10
18.9402
 20
161.518
 30
4.24115e-15
  70
    32
  0
VERTEX
  8
0
  5
2561
 10
18.9510
 20
161.515
 30
4.24364e-15
  70
    32
  0
VERTEX
  8
0
  5
2562
 10
18.9617
 20
161.513
 30
4.24612e-15
  70
    32
  0
VERTEX
  8
0
  5
2563
 10
18.9725
 20
161.511
 30
4.24861e-15
  70
    32
  0
VERTEX
  8
0
  5
2564
 10
18.9833
 20
161.508
 30
4.25109e-15
  70
    32
  0
VERTEX
  8
0
  5
2565
 10
18.9941
 20
161.506
 30
4.25356e-15
  70
    32
  0
VERTEX
  8
0
  5
2566
 10
19.0048
 20
161.504
 30
4.25603e-15
  70
    32
  0
VERTEX
  8
0
  5
2567
 10
19.0156
 20
161.501
 30
4.25850e-15
  70
    32
  0
VERTEX
  8
0
  5
2568
 10
19.0263
 20
161.499
 30
4.26096e-15
  70
    32
  0
VERTEX
  8
0
  5
2569
 10
19.0371
 20
161.496
 30
4.26342e-15
  70
    32
  0
VERTEX
  8
0
  5
256A
 10
19.0478
 20
161.494
 30
4.26587e-15
  70
    32
  0
VERTEX
  8
0
  5
256B
 10
19.0586
 20
161.492
 30
4.26833e-15
  70
    32
  0
VERTEX
  8
0
  5
256C
 10
19.0693
 20
161.489
 30
4.27077e-15
  70
    32
  0
VERTEX
  8
0
  5
256D
 10
19.0800
 20
161.487
 30
4.27321e-15
  70
    32
  0
VERTEX
  8
0
  5
256E
 10
19.0908
 20
161.484
 30
4.27565e-15
  70
    32
  0
VERTEX
  8
0
  5
256F
 10
19.1015
 20
161.482
 30
4.27808e-15
  70
    32
  0
VERTEX
  8
0
  5
2570
 10
19.1122
 20
161.479
 30
4.28051e-15
  70
    32
  0
VERTEX
  8
0
  5
2571
 10
19.1229
 20
161.477
 30
4.28294e-15
  70
    32
  0
VERTEX
  8
0
  5
2572
 10
19.1336
 20
161.474
 30
4.28535e-15
  70
    32
  0
VERTEX
  8
0
  5
2573
 10
19.1443
 20
161.472
 30
4.28777e-15
  70
    32
  0
VERTEX
  8
0
  5
2574
 10
19.1550
 20
161.469
 30
4.29018e-15
  70
    32
  0
VERTEX
  8
0
  5
2575
 10
19.1657
 20
161.467
 30
4.29258e-15
  70
    32
  0
VERTEX
  8
0
  5
2576
 10
19.1764
 20
161.464
 30
4.29498e-15
  70
    32
  0
VERTEX
  8
0
  5
2577
 10
19.1871
 20
161.462
 30
4.29738e-15
  70
    32
  0
VERTEX
  8
0
  5
2578
 10
19.1977
 20
161.459
 30
4.29977e-15
  70
    32
  0
VERTEX
  8
0
  5
2579
 10
19.2084
 20
161.457
 30
4.30215e-15
  70
    32
  0
VERTEX
  8
0
  5
257A
 10
19.2191
 20
161.454
 30
4.30453e-15
  70
    32
  0
VERTEX
  8
0
  5
257B
 10
19.2297
 20
161.451
 30
4.30690e-15
  70
    32
  0
VERTEX
  8
0
  5
257C
 10
19.2404
 20
161.449
 30
4.30927e-15
  70
    32
  0
VERTEX
  8
0
  5
257D
 10
19.2510
 20
161.446
 30
4.31164e-15
  70
    32
  0
VERTEX
  8
0
  5
257E
 10
19.2616
 20
161.443
 30
4.31399e-15
  70
    32
  0
VERTEX
  8
0
  5
257F
 10
19.2723
 20
161.441
 30
4.31635e-15
  70
    32
  0
VERTEX
  8
0
  5
2580
 10
19.2829
 20
161.438
 30
4.31869e-15
  70
    32
  0
VERTEX
  8
0
  5
2581
 10
19.2935
 20
161.435
 30
4.32103e-15
  70
    32
  0
VERTEX
  8
0
  5
2582
 10
19.3041
 20
161.433
 30
4.32337e-15
  70
    32
  0
VERTEX
  8
0
  5
2583
 10
19.3148
 20
161.430
 30
4.32570e-15
  70
    32
  0
VERTEX
  8
0
  5
2584
 10
19.3254
 20
161.427
 30
4.32802e-15
  70
    32
  0
VERTEX
  8
0
  5
2585
 10
19.3360
 20
161.424
 30
4.33034e-15
  70
    32
  0
VERTEX
  8
0
  5
2586
 10
19.3465
 20
161.422
 30
4.33265e-15
  70
    32
  0
VERTEX
  8
0
  5
2587
 10
19.3571
 20
161.419
 30
4.33496e-15
  70
    32
  0
VERTEX
  8
0
  5
2588
 10
19.3677
 20
161.416
 30
4.33726e-15
  70
    32
  0
VERTEX
  8
0
  5
2589
 10
19.3783
 20
161.413
 30
4.33955e-15
  70
    32
  0
VERTEX
  8
0
  5
258A
 10
19.3889
 20
161.411
 30
4.34184e-15
  70
    32
  0
VERTEX
  8
0
  5
258B
 10
19.3994
 20
161.408
 30
4.34412e-15
  70
    32
  0
VERTEX
  8
0
  5
258C
 10
19.4100
 20
161.405
 30
4.34639e-15
  70
    32
  0
VERTEX
  8
0
  5
258D
 10
19.4205
 20
161.402
 30
4.34866e-15
  70
    32
  0
VERTEX
  8
0
  5
258E
 10
19.4311
 20
161.399
 30
4.35092e-15
  70
    32
  0
VERTEX
  8
0
  5
258F
 10
19.4416
 20
161.396
 30
4.35318e-15
  70
    32
  0
VERTEX
  8
0
  5
2590
 10
19.4521
 20
161.394
 30
4.35543e-15
  70
    32
  0
VERTEX
  8
0
  5
2591
 10
19.4626
 20
161.391
 30
4.35767e-15
  70
    32
  0
VERTEX
  8
0
  5
2592
 10
19.4732
 20
161.388
 30
4.35990e-15
  70
    32
  0
VERTEX
  8
0
  5
2593
 10
19.4837
 20
161.385
 30
4.36213e-15
  70
    32
  0
VERTEX
  8
0
  5
2594
 10
19.4942
 20
161.382
 30
4.36435e-15
  70
    32
  0
VERTEX
  8
0
  5
2595
 10
19.5047
 20
161.379
 30
4.36657e-15
  70
    32
  0
VERTEX
  8
0
  5
2596
 10
19.5151
 20
161.376
 30
4.36877e-15
  70
    32
  0
VERTEX
  8
0
  5
2597
 10
19.5256
 20
161.373
 30
4.37097e-15
  70
    32
  0
VERTEX
  8
0
  5
2598
 10
19.5361
 20
161.370
 30
4.37317e-15
  70
    32
  0
VERTEX
  8
0
  5
2599
 10
19.5466
 20
161.367
 30
4.37535e-15
  70
    32
  0
VERTEX
  8
0
  5
259A
 10
19.5570
 20
161.364
 30
4.37753e-15
  70
    32
  0
VERTEX
  8
0
  5
259B
 10
19.5675
 20
161.361
 30
4.37970e-15
  70
    32
  0
VERTEX
  8
0
  5
259C
 10
19.5779
 20
161.358
 30
4.38186e-15
  70
    32
  0
VERTEX
  8
0
  5
259D
 10
19.5884
 20
161.355
 30
4.38401e-15
  70
    32
  0
VERTEX
  8
0
  5
259E
 10
19.5988
 20
161.352
 30
4.38600e-15
  70
    32
  0
VERTEX
  8
0
  5
259F
 10
19.6092
 20
161.349
 30
4.38783e-15
  70
    32
  0
VERTEX
  8
0
  5
25A0
 10
19.6196
 20
161.346
 30
4.38949e-15
  70
    32
  0
VERTEX
  8
0
  5
25A1
 10
19.6300
 20
161.343
 30
4.39098e-15
  70
    32
  0
VERTEX
  8
0
  5
25A2
 10
19.6404
 20
161.340
 30
4.39233e-15
  70
    32
  0
VERTEX
  8
0
  5
25A3
 10
19.6508
 20
161.337
 30
4.39354e-15
  70
    32
  0
VERTEX
  8
0
  5
25A4
 10
19.6612
 20
161.334
 30
4.39462e-15
  70
    32
  0
VERTEX
  8
0
  5
25A5
 10
19.6716
 20
161.331
 30
4.39556e-15
  70
    32
  0
VERTEX
  8
0
  5
25A6
 10
19.6820
 20
161.327
 30
4.39639e-15
  70
    32
  0
VERTEX
  8
0
  5
25A7
 10
19.6923
 20
161.324
 30
4.39711e-15
  70
    32
  0
VERTEX
  8
0
  5
25A8
 10
19.7027
 20
161.321
 30
4.39773e-15
  70
    32
  0
VERTEX
  8
0
  5
25A9
 10
19.7131
 20
161.318
 30
4.39825e-15
  70
    32
  0
VERTEX
  8
0
  5
25AA
 10
19.7234
 20
161.315
 30
4.39869e-15
  70
    32
  0
VERTEX
  8
0
  5
25AB
 10
19.7337
 20
161.312
 30
4.39904e-15
  70
    32
  0
VERTEX
  8
0
  5
25AC
 10
19.7441
 20
161.308
 30
4.39933e-15
  70
    32
  0
VERTEX
  8
0
  5
25AD
 10
19.7544
 20
161.305
 30
4.39955e-15
  70
    32
  0
VERTEX
  8
0
  5
25AE
 10
19.7647
 20
161.302
 30
4.39972e-15
  70
    32
  0
VERTEX
  8
0
  5
25AF
 10
19.7750
 20
161.299
 30
4.39984e-15
  70
    32
  0
VERTEX
  8
0
  5
25B0
 10
19.7853
 20
161.296
 30
4.39992e-15
  70
    32
  0
VERTEX
  8
0
  5
25B1
 10
19.7956
 20
161.292
 30
4.39996e-15
  70
    32
  0
VERTEX
  8
0
  5
25B2
 10
19.8059
 20
161.289
 30
4.39999e-15
  70
    32
  0
VERTEX
  8
0
  5
25B3
 10
19.8162
 20
161.286
 30
4.40000e-15
  70
    32
  0
VERTEX
  8
0
  5
25B4
 10
19.8264
 20
161.282
 30
4.40000e-15
  70
    32
  0
SEQEND
  8
0
  5
25B5
  0
POLYLINE
  8
0
  5
25B6
  66
     1
 10
0.000000
 20
0.000000
 30
0.000000
  70
     8
  0
VERTEX
  8
0
  5
25B7
 10
14.3291
 20
161.282
 30
3.20000e-15
  70
    32
  0
VERTEX
  8
0
  5
25B8
 10
14.3394
 20
161.286
 30
3.20000e-15
  70
    32
  0
VERTEX
  8
0
  5
25B9
 10
14.3497
 20
161.289
 30
3.20001e-15
  70
    32
  0
VERTEX
  8
0
  5
25BA
 10
14.3600
 20
161.292
 30
3.20004e-15
  70
    32
  0
VERTEX
  8
0
  5
25BB
 10
14.3702
 20
161.296
 30
3.20008e-15
  70
    32
  0
VERTEX
  8
0
  5
25BC
 10
14.3805
 20
161.299
 30
3.20016e-15
  70
    32
  0
VERTEX
  8
0
  5
25BD
 10
14.3909
 20
161.302
 30
3.20028e-15
  70
    32
  0
VERTEX
  8
0
  5
25BE
 10
14.4012
 20
161.305
 30
3.20045e-15
  70
    32
  0
VERTEX
  8
0
  5
25BF
 10
14.4115
 20
161.308
 30
3.20067e-15
  70
    32
  0
VERTEX
  8
0
  5
25C0
 10
14.4218
 20
161.312
 30
3.20096e-15
  70
    32
  0
VERTEX
  8
0
  5
25C1
 10
14.4322
 20
161.315
 30
3.20131e-15
  70
    32
  0
VERTEX
  8
0
  5
25C2
 10
14.4425
 20
161.318
 30
3.20175e-15
  70
    32
  0
VERTEX
  8
0
  5
25C3
 10
14.4529
 20
161.321
 30
3.20227e-15
  70
    32
  0
VERTEX
  8
0
  5
25C4
 10
14.4632
 20
161.324
 30
3.20289e-15
  70
    32
  0
VERTEX
  8
0
  5
25C5
 10
14.4736
 20
161.327
 30
3.20361e-15
  70
    32
  0
VERTEX
  8
0
  5
25C6
 10
14.4840
 20
161.331
 30
3.20444e-15
  70
    32
  0
VERTEX
  8
0
  5
25C7
 10
14.4943
 20
161.334
 30
3.20538e-15
  70
    32
  0
VERTEX
  8
0
  5
25C8
 10
14.5047
 20
161.337
 30
3.20646e-15
  70
    32
  0
VERTEX
  8
0
  5
25C9
 10
14.5151
 20
161.340
 30
3.20767e-15
  70
    32
  0
VERTEX
  8
0
  5
25CA
 10
14.5255
 20
161.343
 30
3.20902e-15
  70
    32
  0
VERTEX
  8
0
  5
25CB
 10
14.5359
 20
161.346
 30
3.21051e-15
  70
    32
  0
VERTEX
  8
0
  5
25CC
 10
14.5464
 20
161.349
 30
3.21217e-15
  70
    32
  0
VERTEX
  8
0
  5
25CD
 10
14.5568
 20
161.352
 30
3.21400e-15
  70
    32
  0
VERTEX
  8
0
  5
25CE
 10
14.5672
 20
161.355
 30
3.21599e-15
  70
    32
  0
VERTEX
  8
0
  5
25CF
 10
14.5776
 20
161.358
 30
3.21814e-15
  70
    32
  0
VERTEX
  8
0
  5
25D0
 10
14.5881
 20
161.361
 30
3.22030e-15
  70
    32
  0
VERTEX
  8
0
  5
25D1
 10
14.5985
 20
161.364
 30
3.22247e-15
  70
    32
  0
VERTEX
  8
0
  5
25D2
 10
14.6090
 20
161.367
 30
3.22465e-15
  70
    32
  0
VERTEX
  8
0
  5
25D3
 10
14.6195
 20
161.370
 30
3.22683e-15
  70
    32
  0
VERTEX
  8
0
  5
25D4
 10
14.6299
 20
161.373
 30
3.22903e-15
  70
    32
  0
VERTEX
  8
0
  5
25D5
 10
14.6404
 20
161.376
 30
3.23123e-15
  70
    32
  0
VERTEX
  8
0
  5
25D6
 10
14.6509
 20
161.379
 30
3.23343e-15
  70
    32
  0
VERTEX
  8
0
  5
25D7
 10
14.6614
 20
161.382
 30
3.23565e-15
  70
    32
  0
VERTEX
  8
0
  5
25D8
 10
14.6719
 20
161.385
 30
3.23787e-15
  70
    32
  0
VERTEX
  8
0
  5
25D9
 10
14.6824
 20
161.388
 30
3.24010e-15
  70
    32
  0
VERTEX
  8
0
  5
25DA
 10
14.6929
 20
161.391
 30
3.24233e-15
  70
    32
  0
VERTEX
  8
0
  5
25DB
 10
14.7034
 20
161.394
 30
3.24457e-15
  70
    32
  0
VERTEX
  8
0
  5
25DC
 10
14.7140
 20
161.396
 30
3.24682e-15
  70
    32
  0
VERTEX
  8
0
  5
25DD
 10
14.7245
 20
161.399
 30
3.24908e-15
  70
    32
  0
VERTEX
  8
0
  5
25DE
 10
14.7350
 20
161.402
 30
3.25134e-15
  70
    32
  0
VERTEX
  8
0
  5
25DF
 10
14.7456
 20
161.405
 30
3.25361e-15
  70
    32
  0
VERTEX
  8
0
  5
25E0
 10
14.7562
 20
161.408
 30
3.25588e-15
  70
    32
  0
VERTEX
  8
0
  5
25E1
 10
14.7667
 20
161.411
 30
3.25816e-15
  70
    32
  0
VERTEX
  8
0
  5
25E2
 10
14.7773
 20
161.413
 30
3.26045e-15
  70
    32
  0
VERTEX
  8
0
  5
25E3
 10
14.7879
 20
161.416
 30
3.26274e-15
  70
    32
  0
VERTEX
  8
0
  5
25E4
 10
14.7984
 20
161.419
 30
3.26504e-15
  70
    32
  0
VERTEX
  8
0
  5
25E5
 10
14.8090
 20
161.422
 30
3.26735e-15
  70
    32
  0
VERTEX
  8
0
  5
25E6
 10
14.8196
 20
161.424
 30
3.26966e-15
  70
    32
  0
VERTEX
  8
0
  5
25E7
 10
14.8302
 20
161.427
 30
3.27198e-15
  70
    32
  0
VERTEX
  8
0
  5
25E8
 10
14.8408
 20
161.430
 30
3.27430e-15
  70
    32
  0
VERTEX
  8
0
  5
25E9
 10
14.8514
 20
161.433
 30
3.27663e-15
  70
    32
  0
VERTEX
  8
0
  5
25EA
 10
14.8620
 20
161.435
 30
3.27897e-15
  70
    32
  0
VERTEX
  8
0
  5
25EB
 10
14.8727
 20
161.438
 30
3.28131e-15
  70
    32
  0
VERTEX
  8
0
  5
25EC
 10
14.8833
 20
161.441
 30
3.28365e-15
  70
    32
  0
VERTEX
  8
0
  5
25ED
 10
14.8939
 20
161.443
 30
3.28601e-15
  70
    32
  0
VERTEX
  8
0
  5
25EE
 10
14.9046
 20
161.446
 30
3.28836e-15
  70
    32
  0
VERTEX
  8
0
  5
25EF
 10
14.9152
 20
161.449
 30
3.29073e-15
  70
    32
  0
VERTEX
  8
0
  5
25F0
 10
14.9259
 20
161.451
 30
3.29310e-15
  70
    32
  0
VERTEX
  8
0
  5
25F1
 10
14.9365
 20
161.454
 30
3.29547e-15
  70
    32
  0
VERTEX
  8
0
  5
25F2
 10
14.9472
 20
161.457
 30
3.29785e-15
  70
    32
  0
VERTEX
  8
0
  5
25F3
 10
14.9578
 20
161.459
 30
3.30023e-15
  70
    32
  0
VERTEX
  8
0
  5
25F4
 10
14.9685
 20
161.462
 30
3.30262e-15
  70
    32
  0
VERTEX
  8
0
  5
25F5
 10
14.9792
 20
161.464
 30
3.30502e-15
  70
    32
  0
VERTEX
  8
0
  5
25F6
 10
14.9899
 20
161.467
 30
3.30742e-15
  70
    32
  0
VERTEX
  8
0
  5
25F7
 10
15.0006
 20
161.469
 30
3.30982e-15
  70
    32
  0
VERTEX
  8
0
  5
25F8
 10
15.0113
 20
161.472
 30
3.31223e-15
  70
    32
  0
VERTEX
  8
0
  5
25F9
 10
15.0220
 20
161.474
 30
3.31465e-15
  70
    32
  0
VERTEX
  8
0
  5
25FA
 10
15.0327
 20
161.477
 30
3.31706e-15
  70
    32
  0
VERTEX
  8
0
  5
25FB
 10
15.0434
 20
161.479
 30
3.31949e-15
  70
    32
  0
VERTEX
  8
0
  5
25FC
 10
15.0541
 20
161.482
 30
3.32192e-15
  70
    32
  0
VERTEX
  8
0
  5
25FD
 10
15.0648
 20
161.484
 30
3.32435e-15
  70
    32
  0
VERTEX
  8
0
  5
25FE
 10
15.0755
 20
161.487
 30
3.32679e-15
  70
    32
  0
VERTEX
  8
0
  5
25FF
 10
15.0863
 20
161.489
 30
3.32923e-15
  70
    32
  0
VERTEX
  8
0
  5
2600
 10
15.0970
 20
161.492
 30
3.33167e-15
  70
    32
  0
VERTEX
  8
0
  5
2601
 10
15.1077
 20
161.494
 30
3.33413e-15
  70
    32
  0
VERTEX
  8
0
  5
2602
 10
15.1185
 20
161.496
 30
3.33658e-15
  70
    32
  0
VERTEX
  8
0
  5
2603
 10
15.1292
 20
161.499
 30
3.33904e-15
  70
    32
  0
VERTEX
  8
0
  5
2604
 10
15.1400
 20
161.501
 30
3.34150e-15
  70
    32
  0
VERTEX
  8
0
  5
2605
 10
15.1507
 20
161.504
 30
3.34397e-15
  70
    32
  0
VERTEX
  8
0
  5
2606
 10
15.1615
 20
161.506
 30
3.34644e-15
  70
    32
  0
VERTEX
  8
0
  5
2607
 10
15.1723
 20
161.508
 30
3.34891e-15
  70
    32
  0
VERTEX
  8
0
  5
2608
 10
15.1830
 20
161.511
 30
3.35139e-15
  70
    32
  0
VERTEX
  8
0
  5
2609
 10
15.1938
 20
161.513
 30
3.35388e-15
  70
    32
  0
VERTEX
  8
0
  5
260A
 10
15.2046
 20
161.515
 30
3.35636e-15
  70
    32
  0
VERTEX
  8
0
  5
260B
 10
15.2154
 20
161.518
 30
3.35885e-15
  70
    32
  0
VERTEX
  8
0
  5
260C
 10
15.2262
 20
161.520
 30
3.36134e-15
  70
    32
  0
VERTEX
  8
0
  5
260D
 10
15.2370
 20
161.522
 30
3.36384e-15
  70
    32
  0
VERTEX
  8
0
  5
260E
 10
15.2478
 20
161.524
 30
3.36634e-15
  70
    32
  0
VERTEX
  8
0
  5
260F
 10
15.2586
 20
161.527
 30
3.36885e-15
  70
    32
  0
VERTEX
  8
0
  5
2610
 10
15.2694
 20
161.529
 30
3.37135e-15
  70
    32
  0
VERTEX
  8
0
  5
2611
 10
15.2802
 20
161.531
 30
3.37386e-15
  70
    32
  0
VERTEX
  8
0
  5
2612
 10
15.2910
 20
161.533
 30
3.37638e-15
  70
    32
  0
VERTEX
  8
0
  5
2613
 10
15.3018
 20
161.535
 30
3.37889e-15
  70
    32
  0
VERTEX
  8
0
  5
2614
 10
15.3126
 20
161.538
 30
3.38141e-15
  70
    32
  0
VERTEX
  8
0
  5
2615
 10
15.3234
 20
161.540
 30
3.38394e-15
  70
    32
  0
VERTEX
  8
0
  5
2616
 10
15.3343
 20
161.542
 30
3.38646e-15
  70
    32
  0
VERTEX
  8
0
  5
2617
 10
15.3451
 20
161.544
 30
3.38899e-15
  70
    32
  0
VERTEX
  8
0
  5
2618
 10
15.3559
 20
161.546
 30
3.39152e-15
  70
    32
  0
VERTEX
  8
0
  5
2619
 10
15.3668
 20
161.548
 30
3.39406e-15
  70
    32
  0
VERTEX
  8
0
  5
261A
 10
15.3776
 20
161.550
 30
3.39659e-15
  70
    32
  0
VERTEX
  8
0
  5
261B
 10
15.3885
 20
161.552
 30
3.39913e-15
  70
    32
  0
VERTEX
  8
0
  5
261C
 10
15.3993
 20
161.554
 30
3.40167e-15
  70
    32
  0
VERTEX
  8
0
  5
261D
 10
15.4102
 20
161.557
 30
3.40422e-15
  70
    32
  0
VERTEX
  8
0
  5
261E
 10
15.4210
 20
161.559
 30
3.40676e-15
  70
    32
  0
VERTEX
  8
0
  5
261F
 10
15.4319
 20
161.561
 30
3.40931e-15
  70
    32
  0
VERTEX
  8
0
  5
2620
 10
15.4428
 20
161.563
 30
3.41187e-15
  70
    32
  0
VERTEX
  8
0
  5
2621
 10
15.4536
 20
161.565
 30
3.41442e-15
  70
    32
  0
VERTEX
  8
0
  5
2622
 10
15.4645
 20
161.567
 30
3.41697e-15
  70
    32
  0
VERTEX
  8
0
  5
2623
 10
15.4754
 20
161.569
 30
3.41953e-15
  70
    32
  0
VERTEX
  8
0
  5
2624
 10
15.4862
 20
161.571
 30
3.42209e-15
  70
    32
  0
VERTEX
  8
0
  5
2625
 10
15.4971
 20
161.572
 30
3.42465e-15
  70
    32
  0
VERTEX
  8
0
  5
2626
 10
15.5080
 20
161.574
 30
3.42722e-15
  70
    32
  0
VERTEX
  8
0
  5
2627
 10
15.5189
 20
161.576
 30
3.42978e-15
  70
    32
  0
VERTEX
  8
0
  5
2628
 10
15.5298
 20
161.578
 30
3.43235e-15
  70
    32
  0
VERTEX
  8
0
  5
2629
 10
15.5407
 20
161.580
 30
3.43492e-15
  70
    32
  0
VERTEX
  8
0
  5
262A
 10
15.5515
 20
161.582
 30
3.43749e-15
  70
    32
  0
VERTEX
  8
0
  5
262B
 10
15.5624
 20
161.584
 30
3.44006e-15
  70
    32
  0
VERTEX
  8
0
  5
262C
 10
15.5733
 20
161.586
 30
3.44264e-15
  70
    32
  0
VERTEX
  8
0
  5
262D
 10
15.5842
 20
161.588
 30
3.44521e-15
  70
    32
  0
VERTEX
  8
0
  5
262E
 10
15.5951
 20
161.589
 30
3.44779e-15
  70
    32
  0
VERTEX
  8
0
  5
262F
 10
15.6060
 20
161.591
 30
3.45037e-15
  70
    32
  0
VERTEX
  8
0
  5
2630
 10
15.6170
 20
161.593
 30
3.45295e-15
  70
    32
  0
VERTEX
  8
0
  5
2631
 10
15.6279
 20
161.595
 30
3.45553e-15
  70
    32
  0
VERTEX
  8
0
  5
2632
 10
15.6388
 20
161.597
 30
3.45811e-15
  70
    32
  0
VERTEX
  8
0
  5
2633
 10
15.6497
 20
161.598
 30
3.46069e-15
  70
    32
  0
VERTEX
  8
0
  5
2634
 10
15.6606
 20
161.600
 30
3.46327e-15
  70
    32
  0
VERTEX
  8
0
  5
2635
 10
15.6715
 20
161.602
 30
3.46586e-15
  70
    32
  0
VERTEX
  8
0
  5
2636
 10
15.6825
 20
161.604
 30
3.46844e-15
  70
    32
  0
VERTEX
  8
0
  5
2637
 10
15.6934
 20
161.605
 30
3.47103e-15
  70
    32
  0
VERTEX
  8
0
  5
2638
 10
15.7043
 20
161.607
 30
3.47362e-15
  70
    32
  0
VERTEX
  8
0
  5
2639
 10
15.7152
 20
161.609
 30
3.47620e-15
  70
    32
  0
VERTEX
  8
0
  5
263A
 10
15.7262
 20
161.610
 30
3.47879e-15
  70
    32
  0
VERTEX
  8
0
  5
263B
 10
15.7371
 20
161.612
 30
3.48138e-15
  70
    32
  0
VERTEX
  8
0
  5
263C
 10
15.7480
 20
161.614
 30
3.48397e-15
  70
    32
  0
VERTEX
  8
0
  5
263D
 10
15.7590
 20
161.615
 30
3.48656e-15
  70
    32
  0
VERTEX
  8
0
  5
263E
 10
15.7699
 20
161.617
 30
3.48915e-15
  70
    32
  0
VERTEX
  8
0
  5
263F
 10
15.7808
 20
161.618
 30
3.49174e-15
  70
    32
  0
VERTEX
  8
0
  5
2640
 10
15.7918
 20
161.620
 30
3.49433e-15
  70
    32
  0
VERTEX
  8
0
  5
2641
 10
15.8027
 20
161.622
 30
3.49692e-15
  70
    32
  0
VERTEX
  8
0
  5
2642
 10
15.8137
 20
161.623
 30
3.49951e-15
  70
    32
  0
VERTEX
  8
0
  5
2643
 10
15.8246
 20
161.625
 30
3.50210e-15
  70
    32
  0
VERTEX
  8
0
  5
2644
 10
15.8355
 20
161.626
 30
3.50469e-15
  70
    32
  0
VERTEX
  8
0
  5
2645
 10
15.8465
 20
161.628
 30
3.50728e-15
  70
    32
  0
VERTEX
  8
0
  5
2646
 10
15.8574
 20
161.629
 30
3.50987e-15
  70
    32
  0
VERTEX
  8
0
  5
2647
 10
15.8684
 20
161.631
 30
3.51246e-15
  70
    32
  0
VERTEX
  8
0
  5
2648
 10
15.8793
 20
161.632
 30
3.51505e-15
  70
    32
  0
VERTEX
  8
0
  5
2649
 10
15.8903
 20
161.634
 30
3.51764e-15
  70
    32
  0
VERTEX
  8
0
  5
264A
 10
15.9012
 20
161.635
 30
3.52023e-15
  70
    32
  0
VERTEX
  8
0
  5
264B
 10
15.9122
 20
161.637
 30
3.52282e-15
  70
    32
  0
VERTEX
  8
0
  5
264C
 10
15.9231
 20
161.638
 30
3.52541e-15
  70
    32
  0
VERTEX
  8
0
  5
264D
 10
15.9341
 20
161.639
 30
3.52800e-15
  70
    32
  0
VERTEX
  8
0
  5
264E
 10
15.9451
 20
161.641
 30
3.53059e-15
  70
    32
  0
VERTEX
  8
0
  5
264F
 10
15.9560
 20
161.642
 30
3.53318e-15
  70
    32
  0
VERTEX
  8
0
  5
2650
 10
15.9670
 20
161.644
 30
3.53577e-15
  70
    32
  0
VERTEX
  8
0
  5
2651
 10
15.9779
 20
161.645
 30
3.53836e-15
  70
    32
  0
VERTEX
  8
0
  5
2652
 10
15.9889
 20
161.646
 30
3.54096e-15
  70
    32
  0
VERTEX
  8
0
  5
2653
 10
15.9999
 20
161.648
 30
3.54355e-15
  70
    32
  0
VERTEX
  8
0
  5
2654
 10
16.0108
 20
161.649
 30
3.54614e-15
  70
    32
  0
VERTEX
  8
0
  5
2655
 10
16.0218
 20
161.650
 30
3.54873e-15
  70
    32
  0
VERTEX
  8
0
  5
2656
 10
16.0327
 20
161.652
 30
3.55132e-15
  70
    32
  0
VERTEX
  8
0
  5
2657
 10
16.0437
 20
161.653
 30
3.55391e-15
  70
    32
  0
VERTEX
  8
0
  5
2658
 10
16.0547
 20
161.654
 30
3.55650e-15
  70
    32
  0
VERTEX
  8
0
  5
2659
 10
16.0656
 20
161.655
 30
3.55909e-15
  70
    32
  0
VERTEX
  8
0
  5
265A
 10
16.0766
 20
161.657
 30
3.56168e-15
  70
    32
  0
VERTEX
  8
0
  5
265B
 10
16.0875
 20
161.658
 30
3.56427e-15
  70
    32
  0
VERTEX
  8
0
  5
265C
 10
16.0985
 20
161.659
 30
3.56686e-15
  70
    32
  0
VERTEX
  8
0
  5
265D
 10
16.1095
 20
161.660
 30
3.56945e-15
  70
    32
  0
VERTEX
  8
0
  5
265E
 10
16.1204
 20
161.661
 30
3.57204e-15
  70
    32
  0
VERTEX
  8
0
  5
265F
 10
16.1314
 20
161.662
 30
3.57463e-15
  70
    32
  0
VERTEX
  8
0
  5
2660
 10
16.1424
 20
161.664
 30
3.57722e-15
  70
    32
  0
VERTEX
  8
0
  5
2661
 10
16.1533
 20
161.665
 30
3.57981e-15
  70
    32
  0
VERTEX
  8
0
  5
2662
 10
16.1643
 20
161.666
 30
3.58240e-15
  70
    32
  0
VERTEX
  8
0
  5
2663
 10
16.1752
 20
161.667
 30
3.58499e-15
  70
    32
  0
VERTEX
  8
0
  5
2664
 10
16.1862
 20
161.668
 30
3.58758e-15
  70
    32
  0
VERTEX
  8
0
  5
2665
 10
16.1972
 20
161.669
 30
3.59017e-15
  70
    32
  0
VERTEX
  8
0
  5
2666
 10
16.2081
 20
161.670
 30
3.59276e-15
  70
    32
  0
VERTEX
  8
0
  5
2667
 10
16.2191
 20
161.671
 30
3.59535e-15
  70
    32
  0
VERTEX
  8
0
  5
2668
 10
16.2300
 20
161.672
 30
3.59795e-15
  70
    32
  0
VERTEX
  8
0
  5
2669
 10
16.2410
 20
161.673
 30
3.60054e-15
  70
    32
  0
VERTEX
  8
0
  5
266A
 10
16.2519
 20
161.674
 30
3.60313e-15
  70
    32
  0
VERTEX
  8
0
  5
266B
 10
16.2629
 20
161.675
 30
3.60572e-15
  70
    32
  0
VERTEX
  8
0
  5
266C
 10
16.2739
 20
161.676
 30
3.60831e-15
  70
    32
  0
VERTEX
  8
0
  5
266D
 10
16.2848
 20
161.677
 30
3.61090e-15
  70
    32
  0
VERTEX
  8
0
  5
266E
 10
16.2958
 20
161.678
 30
3.61349e-15
  70
    32
  0
VERTEX
  8
0
  5
266F
 10
16.3067
 20
161.679
 30
3.61608e-15
  70
    32
  0
VERTEX
  8
0
  5
2670
 10
16.3177
 20
161.680
 30
3.61867e-15
  70
    32
  0
VERTEX
  8
0
  5
2671
 10
16.3286
 20
161.681
 30
3.62126e-15
  70
    32
  0
VERTEX
  8
0
  5
2672
 10
16.3396
 20
161.682
 30
3.62385e-15
  70
    32
  0
VERTEX
  8
0
  5
2673
 10
16.3505
 20
161.683
 30
3.62644e-15
  70
    32
  0
VERTEX
  8
0
  5
2674
 10
16.3614
 20
161.684
 30
3.62903e-15
  70
    32
  0
VERTEX
  8
0
  5
2675
 10
16.3724
 20
161.685
 30
3.63162e-15
  70
    32
  0
VERTEX
  8
0
  5
2676
 10
16.3833
 20
161.686
 30
3.63421e-15
  70
    32
  0
VERTEX
  8
0
  5
2677
 10
16.3943
 20
161.686
 30
3.63680e-15
  70
    32
  0
VERTEX
  8
0
  5
2678
 10
16.4052
 20
161.687
 30
3.63939e-15
  70
    32
  0
VERTEX
  8
0
  5
2679
 10
16.4161
 20
161.688
 30
3.64198e-15
  70
    32
  0
VERTEX
  8
0
  5
267A
 10
16.4271
 20
161.689
 30
3.64457e-15
  70
    32
  0
VERTEX
  8
0
  5
267B
 10
16.4380
 20
161.690
 30
3.64716e-15
  70
    32
  0
VERTEX
  8
0
  5
267C
 10
16.4489
 20
161.690
 30
3.64975e-15
  70
    32
  0
VERTEX
  8
0
  5
267D
 10
16.4599
 20
161.691
 30
3.65234e-15
  70
    32
  0
VERTEX
  8
0
  5
267E
 10
16.4708
 20
161.692
 30
3.65493e-15
  70
    32
  0
VERTEX
  8
0
  5
267F
 10
16.4817
 20
161.693
 30
3.65753e-15
  70
    32
  0
VERTEX
  8
0
  5
2680
 10
16.4927
 20
161.693
 30
3.66012e-15
  70
    32
  0
VERTEX
  8
0
  5
2681
 10
16.5036
 20
161.694
 30
3.66271e-15
  70
    32
  0
VERTEX
  8
0
  5
2682
 10
16.5145
 20
161.695
 30
3.66530e-15
  70
    32
  0
VERTEX
  8
0
  5
2683
 10
16.5254
 20
161.695
 30
3.66789e-15
  70
    32
  0
VERTEX
  8
0
  5
2684
 10
16.5363
 20
161.696
 30
3.67048e-15
  70
    32
  0
VERTEX
  8
0
  5
2685
 10
16.5472
 20
161.697
 30
3.67307e-15
  70
    32
  0
VERTEX
  8
0
  5
2686
 10
16.5581
 20
161.697
 30
3.67566e-15
  70
    32
  0
VERTEX
  8
0
  5
2687
 10
16.5691
 20
161.698
 30
3.67825e-15
  70
    32
  0
VERTEX
  8
0
  5
2688
 10
16.5800
 20
161.699
 30
3.68084e-15
  70
    32
  0
VERTEX
  8
0
  5
2689
 10
16.5909
 20
161.699
 30
3.68343e-15
  70
    32
  0
VERTEX
  8
0
  5
268A
 10
16.6018
 20
161.700
 30
3.68602e-15
  70
    32
  0
VERTEX
  8
0
  5
268B
 10
16.6127
 20
161.700
 30
3.68861e-15
  70
    32
  0
VERTEX
  8
0
  5
268C
 10
16.6235
 20
161.701
 30
3.69120e-15
  70
    32
  0
VERTEX
  8
0
  5
268D
 10
16.6344
 20
161.701
 30
3.69379e-15
  70
    32
  0
VERTEX
  8
0
  5
268E
 10
16.6453
 20
161.702
 30
3.69638e-15
  70
    32
  0
VERTEX
  8
0
  5
268F
 10
16.6562
 20
161.702
 30
3.69897e-15
  70
    32
  0
VERTEX
  8
0
  5
2690
 10
16.6671
 20
161.703
 30
3.70156e-15
  70
    32
  0
VERTEX
  8
0
  5
2691
 10
16.6780
 20
161.703
 30
3.70415e-15
  70
    32
  0
VERTEX
  8
0
  5
2692
 10
16.6888
 20
161.704
 30
3.70674e-15
  70
    32
  0
VERTEX
  8
0
  5
2693
 10
16.6997
 20
161.704
 30
3.70933e-15
  70
    32
  0
VERTEX
  8
0
  5
2694
 10
16.7106
 20
161.705
 30
3.71192e-15
  70
    32
  0
VERTEX
  8
0
  5
2695
 10
16.7215
 20
161.705
 30
3.71452e-15
  70
    32
  0
VERTEX
  8
0
  5
2696
 10
16.7323
 20
161.706
 30
3.71711e-15
  70
    32
  0
VERTEX
  8
0
  5
2697
 10
16.7432
 20
161.706
 30
3.71970e-15
  70
    32
  0
VERTEX
  8
0
  5
2698
 10
16.7540
 20
161.707
 30
3.72229e-15
  70
    32
  0
VERTEX
  8
0
  5
2699
 10
16.7649
 20
161.707
 30
3.72488e-15
  70
    32
  0
VERTEX
  8
0
  5
269A
 10
16.7757
 20
161.707
 30
3.72747e-15
  70
    32
  0
VERTEX
  8
0
  5
269B
 10
16.7866
 20
161.708
 30
3.73006e-15
  70
    32
  0
VERTEX
  8
0
  5
269C
 10
16.7974
 20
161.708
 30
3.73265e-15
  70
    32
  0
VERTEX
  8
0
  5
269D
 10
16.8083
 20
161.708
 30
3.73524e-15
  70
    32
  0
VERTEX
  8
0
  5
269E
 10
16.8191
 20
161.709
 30
3.73783e-15
  70
    32
  0
VERTEX
  8
0
  5
269F
 10
16.8299
 20
161.709
 30
3.74042e-15
  70
    32
  0
VERTEX
  8
0
  5
26A0
 10
16.8407
 20
161.709
 30
3.74301e-15
  70
    32
  0
VERTEX
  8
0
  5
26A1
 10
16.8516
 20
161.710
 30
3.74560e-15
  70
    32
  0
VERTEX
  8
0
  5
26A2
 10
16.8624
 20
161.710
 30
3.74819e-15
  70
    32
  0
VERTEX
  8
0
  5
26A3
 10
16.8732
 20
161.710
 30
3.75078e-15
  70
    32
  0
VERTEX
  8
0
  5
26A4
 10
16.8840
 20
161.710
 30
3.75337e-15
  70
    32
  0
VERTEX
  8
0
  5
26A5
 10
16.8948
 20
161.711
 30
3.75596e-15
  70
    32
  0
VERTEX
  8
0
  5
26A6
 10
16.9056
 20
161.711
 30
3.75855e-15
  70
    32
  0
VERTEX
  8
0
  5
26A7
 10
16.9164
 20
161.711
 30
3.76114e-15
  70
    32
  0
VERTEX
  8
0
  5
26A8
 10
16.9272
 20
161.711
 30
3.76373e-15
  70
    32
  0
VERTEX
  8
0
  5
26A9
 10
16.9380
 20
161.711
 30
3.76632e-15
  70
    32
  0
VERTEX
  8
0
  5
26AA
 10
16.9488
 20
161.712
 30
3.76891e-15
  70
    32
  0
VERTEX
  8
0
  5
26AB
 10
16.9595
 20
161.712
 30
3.77151e-15
  70
    32
  0
VERTEX
  8
0
  5
26AC
 10
16.9703
 20
161.712
 30
3.77410e-15
  70
    32
  0
VERTEX
  8
0
  5
26AD
 10
16.9811
 20
161.712
 30
3.77669e-15
  70
    32
  0
VERTEX
  8
0
  5
26AE
 10
16.9919
 20
161.712
 30
3.77928e-15
  70
    32
  0
VERTEX
  8
0
  5
26AF
 10
17.0026
 20
161.712
 30
3.78187e-15
  70
    32
  0
VERTEX
  8
0
  5
26B0
 10
17.0134
 20
161.712
 30
3.78446e-15
  70
    32
  0
VERTEX
  8
0
  5
26B1
 10
17.0241
 20
161.712
 30
3.78705e-15
  70
    32
  0
VERTEX
  8
0
  5
26B2
 10
17.0349
 20
161.712
 30
3.78964e-15
  70
    32
  0
VERTEX
  8
0
  5
26B3
 10
17.0456
 20
161.712
 30
3.79223e-15
  70
    32
  0
VERTEX
  8
0
  5
26B4
 10
17.0563
 20
161.712
 30
3.79482e-15
  70
    32
  0
VERTEX
  8
0
  5
26B5
 10
17.0671
 20
161.712
 30
3.79741e-15
  70
    32
  0
VERTEX
  8
0
  5
26B6
 10
17.0778
 20
161.712
 30
3.80000e-15
  70
    32
  0
SEQEND
  8
0
  5
26B7
  0
ARC
  5
1FE1
  8
0
 10
17.0777825510818708
 20
152.7124394272753989
 30
0.0
 40
8.9999999999999876
 50
107.782592944474203
 51
72.2174070555257543
  0
POLYLINE
  8
0
  5
26B8
  66
     1
 10
0.000000
 20
0.000000
 30
0.000000
  70
     8
  0
VERTEX
  8
0
  5
26B9
 10
17.0778
 20
268.712
 30
3.80000e-15
  70
    32
  0
VERTEX
  8
0
  5
26BA
 10
17.0671
 20
268.712
 30
3.79741e-15
  70
    32
  0
VERTEX
  8
0
  5
26BB
 10
17.0563
 20
268.712
 30
3.79482e-15
  70
    32
  0
VERTEX
  8
0
  5
26BC
 10
17.0456
 20
268.712
 30
3.79223e-15
  70
    32
  0
VERTEX
  8
0
  5
26BD
 10
17.0349
 20
268.713
 30
3.78964e-15
  70
    32
  0
VERTEX
  8
0
  5
26BE
 10
17.0241
 20
268.713
 30
3.78705e-15
  70
    32
  0
VERTEX
  8
0
  5
26BF
 10
17.0134
 20
268.713
 30
3.78446e-15
  70
    32
  0
VERTEX
  8
0
  5
26C0
 10
17.0026
 20
268.713
 30
3.78187e-15
  70
    32
  0
VERTEX
  8
0
  5
26C1
 10
16.9919
 20
268.713
 30
3.77928e-15
  70
    32
  0
VERTEX
  8
0
  5
26C2
 10
16.9811
 20
268.713
 30
3.77669e-15
  70
    32
  0
VERTEX
  8
0
  5
26C3
 10
16.9703
 20
268.713
 30
3.77410e-15
  70
    32
  0
VERTEX
  8
0
  5
26C4
 10
16.9595
 20
268.713
 30
3.77151e-15
  70
    32
  0
VERTEX
  8
0
  5
26C5
 10
16.9488
 20
268.713
 30
3.76891e-15
  70
    32
  0
VERTEX
  8
0
  5
26C6
 10
16.9380
 20
268.714
 30
3.76632e-15
  70
    32
  0
VERTEX
  8
0
  5
26C7
 10
16.9272
 20
268.714
 30
3.76373e-15
  70
    32
  0
VERTEX
  8
0
  5
26C8
 10
16.9164
 20
268.714
 30
3.76114e-15
  70
    32
  0
VERTEX
  8
0
  5
26C9
 10
16.9056
 20
268.714
 30
3.75855e-15
  70
    32
  0
VERTEX
  8
0
  5
26CA
 10
16.8948
 20
268.714
 30
3.75596e-15
  70
    32
  0
VERTEX
  8
0
  5
26CB
 10
16.8840
 20
268.715
 30
3.75337e-15
  70
    32
  0
VERTEX
  8
0
  5
26CC
 10
16.8732
 20
268.715
 30
3.75078e-15
  70
    32
  0
VERTEX
  8
0
  5
26CD
 10
16.8624
 20
268.715
 30
3.74819e-15
  70
    32
  0
VERTEX
  8
0
  5
26CE
 10
16.8516
 20
268.715
 30
3.74560e-15
  70
    32
  0
VERTEX
  8
0
  5
26CF
 10
16.8407
 20
268.716
 30
3.74301e-15
  70
    32
  0
VERTEX
  8
0
  5
26D0
 10
16.8299
 20
268.716
 30
3.74042e-15
  70
    32
  0
VERTEX
  8
0
  5
26D1
 10
16.8191
 20
268.716
 30
3.73783e-15
  70
    32
  0
VERTEX
  8
0
  5
26D2
 10
16.8083
 20
268.717
 30
3.73524e-15
  70
    32
  0
VERTEX
  8
0
  5
26D3
 10
16.7974
 20
268.717
 30
3.73265e-15
  70
    32
  0
VERTEX
  8
0
  5
26D4
 10
16.7866
 20
268.717
 30
3.73006e-15
  70
    32
  0
VERTEX
  8
0
  5
26D5
 10
16.7757
 20
268.718
 30
3.72747e-15
  70
    32
  0
VERTEX
  8
0
  5
26D6
 10
16.7649
 20
268.718
 30
3.72488e-15
  70
    32
  0
VERTEX
  8
0
  5
26D7
 10
16.7540
 20
268.718
 30
3.72229e-15
  70
    32
  0
VERTEX
  8
0
  5
26D8
 10
16.7432
 20
268.719
 30
3.71970e-15
  70
    32
  0
VERTEX
  8
0
  5
26D9
 10
16.7323
 20
268.719
 30
3.71711e-15
  70
    32
  0
VERTEX
  8
0
  5
26DA
 10
16.7215
 20
268.720
 30
3.71452e-15
  70
    32
  0
VERTEX
  8
0
  5
26DB
 10
16.7106
 20
268.720
 30
3.71192e-15
  70
    32
  0
VERTEX
  8
0
  5
26DC
 10
16.6997
 20
268.720
 30
3.70933e-15
  70
    32
  0
VERTEX
  8
0
  5
26DD
 10
16.6888
 20
268.721
 30
3.70674e-15
  70
    32
  0
VERTEX
  8
0
  5
26DE
 10
16.6780
 20
268.721
 30
3.70415e-15
  70
    32
  0
VERTEX
  8
0
  5
26DF
 10
16.6671
 20
268.722
 30
3.70156e-15
  70
    32
  0
VERTEX
  8
0
  5
26E0
 10
16.6562
 20
268.722
 30
3.69897e-15
  70
    32
  0
VERTEX
  8
0
  5
26E1
 10
16.6453
 20
268.723
 30
3.69638e-15
  70
    32
  0
VERTEX
  8
0
  5
26E2
 10
16.6344
 20
268.723
 30
3.69379e-15
  70
    32
  0
VERTEX
  8
0
  5
26E3
 10
16.6235
 20
268.724
 30
3.69120e-15
  70
    32
  0
VERTEX
  8
0
  5
26E4
 10
16.6127
 20
268.725
 30
3.68861e-15
  70
    32
  0
VERTEX
  8
0
  5
26E5
 10
16.6018
 20
268.725
 30
3.68602e-15
  70
    32
  0
VERTEX
  8
0
  5
26E6
 10
16.5909
 20
268.726
 30
3.68343e-15
  70
    32
  0
VERTEX
  8
0
  5
26E7
 10
16.5800
 20
268.726
 30
3.68084e-15
  70
    32
  0
VERTEX
  8
0
  5
26E8
 10
16.5691
 20
268.727
 30
3.67825e-15
  70
    32
  0
VERTEX
  8
0
  5
26E9
 10
16.5581
 20
268.728
 30
3.67566e-15
  70
    32
  0
VERTEX
  8
0
  5
26EA
 10
16.5472
 20
268.728
 30
3.67307e-15
  70
    32
  0
VERTEX
  8
0
  5
26EB
 10
16.5363
 20
268.729
 30
3.67048e-15
  70
    32
  0
VERTEX
  8
0
  5
26EC
 10
16.5254
 20
268.730
 30
3.66789e-15
  70
    32
  0
VERTEX
  8
0
  5
26ED
 10
16.5145
 20
268.730
 30
3.66530e-15
  70
    32
  0
VERTEX
  8
0
  5
26EE
 10
16.5036
 20
268.731
 30
3.66271e-15
  70
    32
  0
VERTEX
  8
0
  5
26EF
 10
16.4927
 20
268.732
 30
3.66012e-15
  70
    32
  0
VERTEX
  8
0
  5
26F0
 10
16.4817
 20
268.732
 30
3.65753e-15
  70
    32
  0
VERTEX
  8
0
  5
26F1
 10
16.4708
 20
268.733
 30
3.65493e-15
  70
    32
  0
VERTEX
  8
0
  5
26F2
 10
16.4599
 20
268.734
 30
3.65234e-15
  70
    32
  0
VERTEX
  8
0
  5
26F3
 10
16.4489
 20
268.735
 30
3.64975e-15
  70
    32
  0
VERTEX
  8
0
  5
26F4
 10
16.4380
 20
268.735
 30
3.64716e-15
  70
    32
  0
VERTEX
  8
0
  5
26F5
 10
16.4271
 20
268.736
 30
3.64457e-15
  70
    32
  0
VERTEX
  8
0
  5
26F6
 10
16.4161
 20
268.737
 30
3.64198e-15
  70
    32
  0
VERTEX
  8
0
  5
26F7
 10
16.4052
 20
268.738
 30
3.63939e-15
  70
    32
  0
VERTEX
  8
0
  5
26F8
 10
16.3943
 20
268.739
 30
3.63680e-15
  70
    32
  0
VERTEX
  8
0
  5
26F9
 10
16.3833
 20
268.739
 30
3.63421e-15
  70
    32
  0
VERTEX
  8
0
  5
26FA
 10
16.3724
 20
268.740
 30
3.63162e-15
  70
    32
  0
VERTEX
  8
0
  5
26FB
 10
16.3614
 20
268.741
 30
3.62903e-15
  70
    32
  0
VERTEX
  8
0
  5
26FC
 10
16.3505
 20
268.742
 30
3.62644e-15
  70
    32
  0
VERTEX
  8
0
  5
26FD
 10
16.3396
 20
268.743
 30
3.62385e-15
  70
    32
  0
VERTEX
  8
0
  5
26FE
 10
16.3286
 20
268.744
 30
3.62126e-15
  70
    32
  0
VERTEX
  8
0
  5
26FF
 10
16.3177
 20
268.745
 30
3.61867e-15
  70
    32
  0
VERTEX
  8
0
  5
2700
 10
16.3067
 20
268.746
 30
3.61608e-15
  70
    32
  0
VERTEX
  8
0
  5
2701
 10
16.2958
 20
268.747
 30
3.61349e-15
  70
    32
  0
VERTEX
  8
0
  5
2702
 10
16.2848
 20
268.748
 30
3.61090e-15
  70
    32
  0
VERTEX
  8
0
  5
2703
 10
16.2739
 20
268.749
 30
3.60831e-15
  70
    32
  0
VERTEX
  8
0
  5
2704
 10
16.2629
 20
268.749
 30
3.60572e-15
  70
    32
  0
VERTEX
  8
0
  5
2705
 10
16.2519
 20
268.750
 30
3.60313e-15
  70
    32
  0
VERTEX
  8
0
  5
2706
 10
16.2410
 20
268.752
 30
3.60054e-15
  70
    32
  0
VERTEX
  8
0
  5
2707
 10
16.2300
 20
268.753
 30
3.59795e-15
  70
    32
  0
VERTEX
  8
0
  5
2708
 10
16.2191
 20
268.754
 30
3.59535e-15
  70
    32
  0
VERTEX
  8
0
  5
2709
 10
16.2081
 20
268.755
 30
3.59276e-15
  70
    32
  0
VERTEX
  8
0
  5
270A
 10
16.1972
 20
268.756
 30
3.59017e-15
  70
    32
  0
VERTEX
  8
0
  5
270B
 10
16.1862
 20
268.757
 30
3.58758e-15
  70
    32
  0
VERTEX
  8
0
  5
270C
 10
16.1752
 20
268.758
 30
3.58499e-15
  70
    32
  0
VERTEX
  8
0
  5
270D
 10
16.1643
 20
268.759
 30
3.58240e-15
  70
    32
  0
VERTEX
  8
0
  5
270E
 10
16.1533
 20
268.760
 30
3.57981e-15
  70
    32
  0
VERTEX
  8
0
  5
270F
 10
16.1424
 20
268.761
 30
3.57722e-15
  70
    32
  0
VERTEX
  8
0
  5
2710
 10
16.1314
 20
268.762
 30
3.57463e-15
  70
    32
  0
VERTEX
  8
0
  5
2711
 10
16.1204
 20
268.764
 30
3.57204e-15
  70
    32
  0
VERTEX
  8
0
  5
2712
 10
16.1095
 20
268.765
 30
3.56945e-15
  70
    32
  0
VERTEX
  8
0
  5
2713
 10
16.0985
 20
268.766
 30
3.56686e-15
  70
    32
  0
VERTEX
  8
0
  5
2714
 10
16.0875
 20
268.767
 30
3.56427e-15
  70
    32
  0
VERTEX
  8
0
  5
2715
 10
16.0766
 20
268.768
 30
3.56168e-15
  70
    32
  0
VERTEX
  8
0
  5
2716
 10
16.0656
 20
268.770
 30
3.55909e-15
  70
    32
  0
VERTEX
  8
0
  5
2717
 10
16.0547
 20
268.771
 30
3.55650e-15
  70
    32
  0
VERTEX
  8
0
  5
2718
 10
16.0437
 20
268.772
 30
3.55391e-15
  70
    32
  0
VERTEX
  8
0
  5
2719
 10
16.0327
 20
268.773
 30
3.55132e-15
  70
    32
  0
VERTEX
  8
0
  5
271A
 10
16.0218
 20
268.775
 30
3.54873e-15
  70
    32
  0
VERTEX
  8
0
  5
271B
 10
16.0108
 20
268.776
 30
3.54614e-15
  70
    32
  0
VERTEX
  8
0
  5
271C
 10
15.9999
 20
268.777
 30
3.54355e-15
  70
    32
  0
VERTEX
  8
0
  5
271D
 10
15.9889
 20
268.779
 30
3.54096e-15
  70
    32
  0
VERTEX
  8
0
  5
271E
 10
15.9779
 20
268.780
 30
3.53836e-15
  70
    32
  0
VERTEX
  8
0
  5
271F
 10
15.9670
 20
268.781
 30
3.53577e-15
  70
    32
  0
VERTEX
  8
0
  5
2720
 10
15.9560
 20
268.783
 30
3.53318e-15
  70
    32
  0
VERTEX
  8
0
  5
2721
 10
15.9451
 20
268.784
 30
3.53059e-15
  70
    32
  0
VERTEX
  8
0
  5
2722
 10
15.9341
 20
268.785
 30
3.52800e-15
  70
    32
  0
VERTEX
  8
0
  5
2723
 10
15.9231
 20
268.787
 30
3.52541e-15
  70
    32
  0
VERTEX
  8
0
  5
2724
 10
15.9122
 20
268.788
 30
3.52282e-15
  70
    32
  0
VERTEX
  8
0
  5
2725
 10
15.9012
 20
268.790
 30
3.52023e-15
  70
    32
  0
VERTEX
  8
0
  5
2726
 10
15.8903
 20
268.791
 30
3.51764e-15
  70
    32
  0
VERTEX
  8
0
  5
2727
 10
15.8793
 20
268.793
 30
3.51505e-15
  70
    32
  0
VERTEX
  8
0
  5
2728
 10
15.8684
 20
268.794
 30
3.51246e-15
  70
    32
  0
VERTEX
  8
0
  5
2729
 10
15.8574
 20
268.796
 30
3.50987e-15
  70
    32
  0
VERTEX
  8
0
  5
272A
 10
15.8465
 20
268.797
 30
3.50728e-15
  70
    32
  0
VERTEX
  8
0
  5
272B
 10
15.8355
 20
268.799
 30
3.50469e-15
  70
    32
  0
VERTEX
  8
0
  5
272C
 10
15.8246
 20
268.800
 30
3.50210e-15
  70
    32
  0
VERTEX
  8
0
  5
272D
 10
15.8137
 20
268.802
 30
3.49951e-15
  70
    32
  0
VERTEX
  8
0
  5
272E
 10
15.8027
 20
268.803
 30
3.49692e-15
  70
    32
  0
VERTEX
  8
0
  5
272F
 10
15.7918
 20
268.805
 30
3.49433e-15
  70
    32
  0
VERTEX
  8
0
  5
2730
 10
15.7808
 20
268.806
 30
3.49174e-15
  70
    32
  0
VERTEX
  8
0
  5
2731
 10
15.7699
 20
268.808
 30
3.48915e-15
  70
    32
  0
VERTEX
  8
0
  5
2732
 10
15.7590
 20
268.810
 30
3.48656e-15
  70
    32
  0
VERTEX
  8
0
  5
2733
 10
15.7480
 20
268.811
 30
3.48397e-15
  70
    32
  0
VERTEX
  8
0
  5
2734
 10
15.7371
 20
268.813
 30
3.48138e-15
  70
    32
  0
VERTEX
  8
0
  5
2735
 10
15.7262
 20
268.815
 30
3.47879e-15
  70
    32
  0
VERTEX
  8
0
  5
2736
 10
15.7152
 20
268.816
 30
3.47620e-15
  70
    32
  0
VERTEX
  8
0
  5
2737
 10
15.7043
 20
268.818
 30
3.47362e-15
  70
    32
  0
VERTEX
  8
0
  5
2738
 10
15.6934
 20
268.820
 30
3.47103e-15
  70
    32
  0
VERTEX
  8
0
  5
2739
 10
15.6825
 20
268.821
 30
3.46844e-15
  70
    32
  0
VERTEX
  8
0
  5
273A
 10
15.6715
 20
268.823
 30
3.46586e-15
  70
    32
  0
VERTEX
  8
0
  5
273B
 10
15.6606
 20
268.825
 30
3.46327e-15
  70
    32
  0
VERTEX
  8
0
  5
273C
 10
15.6497
 20
268.826
 30
3.46069e-15
  70
    32
  0
VERTEX
  8
0
  5
273D
 10
15.6388
 20
268.828
 30
3.45811e-15
  70
    32
  0
VERTEX
  8
0
  5
273E
 10
15.6279
 20
268.830
 30
3.45553e-15
  70
    32
  0
VERTEX
  8
0
  5
273F
 10
15.6170
 20
268.832
 30
3.45295e-15
  70
    32
  0
VERTEX
  8
0
  5
2740
 10
15.6060
 20
268.834
 30
3.45037e-15
  70
    32
  0
VERTEX
  8
0
  5
2741
 10
15.5951
 20
268.835
 30
3.44779e-15
  70
    32
  0
VERTEX
  8
0
  5
2742
 10
15.5842
 20
268.837
 30
3.44521e-15
  70
    32
  0
VERTEX
  8
0
  5
2743
 10
15.5733
 20
268.839
 30
3.44264e-15
  70
    32
  0
VERTEX
  8
0
  5
2744
 10
15.5624
 20
268.841
 30
3.44006e-15
  70
    32
  0
VERTEX
  8
0
  5
2745
 10
15.5515
 20
268.843
 30
3.43749e-15
  70
    32
  0
VERTEX
  8
0
  5
2746
 10
15.5407
 20
268.845
 30
3.43492e-15
  70
    32
  0
VERTEX
  8
0
  5
2747
 10
15.5298
 20
268.847
 30
3.43235e-15
  70
    32
  0
VERTEX
  8
0
  5
2748
 10
15.5189
 20
268.849
 30
3.42978e-15
  70
    32
  0
VERTEX
  8
0
  5
2749
 10
15.5080
 20
268.850
 30
3.42722e-15
  70
    32
  0
VERTEX
  8
0
  5
274A
 10
15.4971
 20
268.852
 30
3.42465e-15
  70
    32
  0
VERTEX
  8
0
  5
274B
 10
15.4862
 20
268.854
 30
3.42209e-15
  70
    32
  0
VERTEX
  8
0
  5
274C
 10
15.4754
 20
268.856
 30
3.41953e-15
  70
    32
  0
VERTEX
  8
0
  5
274D
 10
15.4645
 20
268.858
 30
3.41697e-15
  70
    32
  0
VERTEX
  8
0
  5
274E
 10
15.4536
 20
268.860
 30
3.41442e-15
  70
    32
  0
VERTEX
  8
0
  5
274F
 10
15.4428
 20
268.862
 30
3.41187e-15
  70
    32
  0
VERTEX
  8
0
  5
2750
 10
15.4319
 20
268.864
 30
3.40931e-15
  70
    32
  0
VERTEX
  8
0
  5
2751
 10
15.4210
 20
268.866
 30
3.40676e-15
  70
    32
  0
VERTEX
  8
0
  5
2752
 10
15.4102
 20
268.868
 30
3.40422e-15
  70
    32
  0
VERTEX
  8
0
  5
2753
 10
15.3993
 20
268.870
 30
3.40167e-15
  70
    32
  0
VERTEX
  8
0
  5
2754
 10
15.3885
 20
268.872
 30
3.39913e-15
  70
    32
  0
VERTEX
  8
0
  5
2755
 10
15.3776
 20
268.875
 30
3.39659e-15
  70
    32
  0
VERTEX
  8
0
  5
2756
 10
15.3668
 20
268.877
 30
3.39406e-15
  70
    32
  0
VERTEX
  8
0
  5
2757
 10
15.3559
 20
268.879
 30
3.39152e-15
  70
    32
  0
VERTEX
  8
0
  5
2758
 10
15.3451
 20
268.881
 30
3.38899e-15
  70
    32
  0
VERTEX
  8
0
  5
2759
 10
15.3343
 20
268.883
 30
3.38646e-15
  70
    32
  0
VERTEX
  8
0
  5
275A
 10
15.3234
 20
268.885
 30
3.38394e-15
  70
    32
  0
VERTEX
  8
0
  5
275B
 10
15.3126
 20
268.887
 30
3.38141e-15
  70
    32
  0
VERTEX
  8
0
  5
275C
 10
15.3018
 20
268.889
 30
3.37889e-15
  70
    32
  0
VERTEX
  8
0
  5
275D
 10
15.2910
 20
268.892
 30
3.37638e-15
  70
    32
  0
VERTEX
  8
0
  5
275E
 10
15.2802
 20
268.894
 30
3.37386e-15
  70
    32
  0
VERTEX
  8
0
  5
275F
 10
15.2694
 20
268.896
 30
3.37135e-15
  70
    32
  0
VERTEX
  8
0
  5
2760
 10
15.2586
 20
268.898
 30
3.36885e-15
  70
    32
  0
VERTEX
  8
0
  5
2761
 10
15.2478
 20
268.901
 30
3.36634e-15
  70
    32
  0
VERTEX
  8
0
  5
2762
 10
15.2370
 20
268.903
 30
3.36384e-15
  70
    32
  0
VERTEX
  8
0
  5
2763
 10
15.2262
 20
268.905
 30
3.36134e-15
  70
    32
  0
VERTEX
  8
0
  5
2764
 10
15.2154
 20
268.907
 30
3.35885e-15
  70
    32
  0
VERTEX
  8
0
  5
2765
 10
15.2046
 20
268.910
 30
3.35636e-15
  70
    32
  0
VERTEX
  8
0
  5
2766
 10
15.1938
 20
268.912
 30
3.35388e-15
  70
    32
  0
VERTEX
  8
0
  5
2767
 10
15.1830
 20
268.914
 30
3.35139e-15
  70
    32
  0
VERTEX
  8
0
  5
2768
 10
15.1723
 20
268.917
 30
3.34891e-15
  70
    32
  0
VERTEX
  8
0
  5
2769
 10
15.1615
 20
268.919
 30
3.34644e-15
  70
    32
  0
VERTEX
  8
0
  5
276A
 10
15.1507
 20
268.921
 30
3.34397e-15
  70
    32
  0
VERTEX
  8
0
  5
276B
 10
15.1400
 20
268.924
 30
3.34150e-15
  70
    32
  0
VERTEX
  8
0
  5
276C
 10
15.1292
 20
268.926
 30
3.33904e-15
  70
    32
  0
VERTEX
  8
0
  5
276D
 10
15.1185
 20
268.928
 30
3.33658e-15
  70
    32
  0
VERTEX
  8
0
  5
276E
 10
15.1077
 20
268.931
 30
3.33413e-15
  70
    32
  0
VERTEX
  8
0
  5
276F
 10
15.0970
 20
268.933
 30
3.33167e-15
  70
    32
  0
VERTEX
  8
0
  5
2770
 10
15.0863
 20
268.936
 30
3.32923e-15
  70
    32
  0
VERTEX
  8
0
  5
2771
 10
15.0755
 20
268.938
 30
3.32679e-15
  70
    32
  0
VERTEX
  8
0
  5
2772
 10
15.0648
 20
268.941
 30
3.32435e-15
  70
    32
  0
VERTEX
  8
0
  5
2773
 10
15.0541
 20
268.943
 30
3.32192e-15
  70
    32
  0
VERTEX
  8
0
  5
2774
 10
15.0434
 20
268.945
 30
3.31949e-15
  70
    32
  0
VERTEX
  8
0
  5
2775
 10
15.0327
 20
268.948
 30
3.31706e-15
  70
    32
  0
VERTEX
  8
0
  5
2776
 10
15.0220
 20
268.950
 30
3.31465e-15
  70
    32
  0
VERTEX
  8
0
  5
2777
 10
15.0113
 20
268.953
 30
3.31223e-15
  70
    32
  0
VERTEX
  8
0
  5
2778
 10
15.0006
 20
268.956
 30
3.30982e-15
  70
    32
  0
VERTEX
  8
0
  5
2779
 10
14.9899
 20
268.958
 30
3.30742e-15
  70
    32
  0
VERTEX
  8
0
  5
277A
 10
14.9792
 20
268.961
 30
3.30502e-15
  70
    32
  0
VERTEX
  8
0
  5
277B
 10
14.9685
 20
268.963
 30
3.30262e-15
  70
    32
  0
VERTEX
  8
0
  5
277C
 10
14.9578
 20
268.966
 30
3.30023e-15
  70
    32
  0
VERTEX
  8
0
  5
277D
 10
14.9472
 20
268.968
 30
3.29785e-15
  70
    32
  0
VERTEX
  8
0
  5
277E
 10
14.9365
 20
268.971
 30
3.29547e-15
  70
    32
  0
VERTEX
  8
0
  5
277F
 10
14.9259
 20
268.974
 30
3.29310e-15
  70
    32
  0
VERTEX
  8
0
  5
2780
 10
14.9152
 20
268.976
 30
3.29073e-15
  70
    32
  0
VERTEX
  8
0
  5
2781
 10
14.9046
 20
268.979
 30
3.28836e-15
  70
    32
  0
VERTEX
  8
0
  5
2782
 10
14.8939
 20
268.981
 30
3.28601e-15
  70
    32
  0
VERTEX
  8
0
  5
2783
 10
14.8833
 20
268.984
 30
3.28365e-15
  70
    32
  0
VERTEX
  8
0
  5
2784
 10
14.8727
 20
268.987
 30
3.28131e-15
  70
    32
  0
VERTEX
  8
0
  5
2785
 10
14.8620
 20
268.990
 30
3.27897e-15
  70
    32
  0
VERTEX
  8
0
  5
2786
 10
14.8514
 20
268.992
 30
3.27663e-15
  70
    32
  0
VERTEX
  8
0
  5
2787
 10
14.8408
 20
268.995
 30
3.27430e-15
  70
    32
  0
VERTEX
  8
0
  5
2788
 10
14.8302
 20
268.998
 30
3.27198e-15
  70
    32
  0
VERTEX
  8
0
  5
2789
 10
14.8196
 20
269.000
 30
3.26966e-15
  70
    32
  0
VERTEX
  8
0
  5
278A
 10
14.8090
 20
269.003
 30
3.26735e-15
  70
    32
  0
VERTEX
  8
0
  5
278B
 10
14.7984
 20
269.006
 30
3.26504e-15
  70
    32
  0
VERTEX
  8
0
  5
278C
 10
14.7879
 20
269.009
 30
3.26274e-15
  70
    32
  0
VERTEX
  8
0
  5
278D
 10
14.7773
 20
269.011
 30
3.26045e-15
  70
    32
  0
VERTEX
  8
0
  5
278E
 10
14.7667
 20
269.014
 30
3.25816e-15
  70
    32
  0
VERTEX
  8
0
  5
278F
 10
14.7562
 20
269.017
 30
3.25588e-15
  70
    32
  0
VERTEX
  8
0
  5
2790
 10
14.7456
 20
269.020
 30
3.25361e-15
  70
    32
  0
VERTEX
  8
0
  5
2791
 10
14.7350
 20
269.023
 30
3.25134e-15
  70
    32
  0
VERTEX
  8
0
  5
2792
 10
14.7245
 20
269.026
 30
3.24908e-15
  70
    32
  0
VERTEX
  8
0
  5
2793
 10
14.7140
 20
269.028
 30
3.24682e-15
  70
    32
  0
VERTEX
  8
0
  5
2794
 10
14.7034
 20
269.031
 30
3.24457e-15
  70
    32
  0
VERTEX
  8
0
  5
2795
 10
14.6929
 20
269.034
 30
3.24233e-15
  70
    32
  0
VERTEX
  8
0
  5
2796
 10
14.6824
 20
269.037
 30
3.24010e-15
  70
    32
  0
VERTEX
  8
0
  5
2797
 10
14.6719
 20
269.040
 30
3.23787e-15
  70
    32
  0
VERTEX
  8
0
  5
2798
 10
14.6614
 20
269.043
 30
3.23565e-15
  70
    32
  0
VERTEX
  8
0
  5
2799
 10
14.6509
 20
269.046
 30
3.23343e-15
  70
    32
  0
VERTEX
  8
0
  5
279A
 10
14.6404
 20
269.049
 30
3.23123e-15
  70
    32
  0
VERTEX
  8
0
  5
279B
 10
14.6299
 20
269.052
 30
3.22903e-15
  70
    32
  0
VERTEX
  8
0
  5
279C
 10
14.6195
 20
269.055
 30
3.22683e-15
  70
    32
  0
VERTEX
  8
0
  5
279D
 10
14.6090
 20
269.058
 30
3.22465e-15
  70
    32
  0
VERTEX
  8
0
  5
279E
 10
14.5985
 20
269.061
 30
3.22247e-15
  70
    32
  0
VERTEX
  8
0
  5
279F
 10
14.5881
 20
269.064
 30
3.22030e-15
  70
    32
  0
VERTEX
  8
0
  5
27A0
 10
14.5776
 20
269.067
 30
3.21814e-15
  70
    32
  0
VERTEX
  8
0
  5
27A1
 10
14.5672
 20
269.070
 30
3.21599e-15
  70
    32
  0
VERTEX
  8
0
  5
27A2
 10
14.5568
 20
269.073
 30
3.21400e-15
  70
    32
  0
VERTEX
  8
0
  5
27A3
 10
14.5464
 20
269.076
 30
3.21217e-15
  70
    32
  0
VERTEX
  8
0
  5
27A4
 10
14.5359
 20
269.079
 30
3.21051e-15
  70
    32
  0
VERTEX
  8
0
  5
27A5
 10
14.5255
 20
269.082
 30
3.20902e-15
  70
    32
  0
VERTEX
  8
0
  5
27A6
 10
14.5151
 20
269.085
 30
3.20767e-15
  70
    32
  0
VERTEX
  8
0
  5
27A7
 10
14.5047
 20
269.088
 30
3.20646e-15
  70
    32
  0
VERTEX
  8
0
  5
27A8
 10
14.4943
 20
269.091
 30
3.20538e-15
  70
    32
  0
VERTEX
  8
0
  5
27A9
 10
14.4840
 20
269.094
 30
3.20444e-15
  70
    32
  0
VERTEX
  8
0
  5
27AA
 10
14.4736
 20
269.097
 30
3.20361e-15
  70
    32
  0
VERTEX
  8
0
  5
27AB
 10
14.4632
 20
269.101
 30
3.20289e-15
  70
    32
  0
VERTEX
  8
0
  5
27AC
 10
14.4529
 20
269.104
 30
3.20227e-15
  70
    32
  0
VERTEX
  8
0
  5
27AD
 10
14.4425
 20
269.107
 30
3.20175e-15
  70
    32
  0
VERTEX
  8
0
  5
27AE
 10
14.4322
 20
269.110
 30
3.20131e-15
  70
    32
  0
VERTEX
  8
0
  5
27AF
 10
14.4218
 20
269.113
 30
3.20096e-15
  70
    32
  0
VERTEX
  8
0
  5
27B0
 10
14.4115
 20
269.116
 30
3.20067e-15
  70
    32
  0
VERTEX
  8
0
  5
27B1
 10
14.4012
 20
269.120
 30
3.20045e-15
  70
    32
  0
VERTEX
  8
0
  5
27B2
 10
14.3909
 20
269.123
 30
3.20028e-15
  70
    32
  0
VERTEX
  8
0
  5
27B3
 10
14.3805
 20
269.126
 30
3.20016e-15
  70
    32
  0
VERTEX
  8
0
  5
27B4
 10
14.3702
 20
269.129
 30
3.20008e-15
  70
    32
  0
VERTEX
  8
0
  5
27B5
 10
14.3600
 20
269.133
 30
3.20004e-15
  70
    32
  0
VERTEX
  8
0
  5
27B6
 10
14.3497
 20
269.136
 30
3.20001e-15
  70
    32
  0
VERTEX
  8
0
  5
27B7
 10
14.3394
 20
269.139
 30
3.20000e-15
  70
    32
  0
VERTEX
  8
0
  5
27B8
 10
14.3291
 20
269.142
 30
3.20000e-15
  70
    32
  0
SEQEND
  8
0
  5
27B9
  0
POLYLINE
  8
0
  5
27BA
  66
     1
 10
0.000000
 20
0.000000
 30
0.000000
  70
     8
  0
VERTEX
  8
0
  5
27BB
 10
19.8264
 20
269.142
 30
4.40000e-15
  70
    32
  0
VERTEX
  8
0
  5
27BC
 10
19.8162
 20
269.139
 30
4.40000e-15
  70
    32
  0
VERTEX
  8
0
  5
27BD
 10
19.8059
 20
269.136
 30
4.39999e-15
  70
    32
  0
VERTEX
  8
0
  5
27BE
 10
19.7956
 20
269.133
 30
4.39996e-15
  70
    32
  0
VERTEX
  8
0
  5
27BF
 10
19.7853
 20
269.129
 30
4.39992e-15
  70
    32
  0
VERTEX
  8
0
  5
27C0
 10
19.7750
 20
269.126
 30
4.39984e-15
  70
    32
  0
VERTEX
  8
0
  5
27C1
 10
19.7647
 20
269.123
 30
4.39972e-15
  70
    32
  0
VERTEX
  8
0
  5
27C2
 10
19.7544
 20
269.120
 30
4.39955e-15
  70
    32
  0
VERTEX
  8
0
  5
27C3
 10
19.7441
 20
269.116
 30
4.39933e-15
  70
    32
  0
VERTEX
  8
0
  5
27C4
 10
19.7337
 20
269.113
 30
4.39904e-15
  70
    32
  0
VERTEX
  8
0
  5
27C5
 10
19.7234
 20
269.110
 30
4.39869e-15
  70
    32
  0
VERTEX
  8
0
  5
27C6
 10
19.7131
 20
269.107
 30
4.39825e-15
  70
    32
  0
VERTEX
  8
0
  5
27C7
 10
19.7027
 20
269.104
 30
4.39773e-15
  70
    32
  0
VERTEX
  8
0
  5
27C8
 10
19.6923
 20
269.101
 30
4.39711e-15
  70
    32
  0
VERTEX
  8
0
  5
27C9
 10
19.6820
 20
269.097
 30
4.39639e-15
  70
    32
  0
VERTEX
  8
0
  5
27CA
 10
19.6716
 20
269.094
 30
4.39556e-15
  70
    32
  0
VERTEX
  8
0
  5
27CB
 10
19.6612
 20
269.091
 30
4.39462e-15
  70
    32
  0
VERTEX
  8
0
  5
27CC
 10
19.6508
 20
269.088
 30
4.39354e-15
  70
    32
  0
VERTEX
  8
0
  5
27CD
 10
19.6404
 20
269.085
 30
4.39233e-15
  70
    32
  0
VERTEX
  8
0
  5
27CE
 10
19.6300
 20
269.082
 30
4.39098e-15
  70
    32
  0
VERTEX
  8
0
  5
27CF
 10
19.6196
 20
269.079
 30
4.38949e-15
  70
    32
  0
VERTEX
  8
0
  5
27D0
 10
19.6092
 20
269.076
 30
4.38783e-15
  70
    32
  0
VERTEX
  8
0
  5
27D1
 10
19.5988
 20
269.073
 30
4.38600e-15
  70
    32
  0
VERTEX
  8
0
  5
27D2
 10
19.5884
 20
269.070
 30
4.38401e-15
  70
    32
  0
VERTEX
  8
0
  5
27D3
 10
19.5779
 20
269.067
 30
4.38186e-15
  70
    32
  0
VERTEX
  8
0
  5
27D4
 10
19.5675
 20
269.064
 30
4.37970e-15
  70
    32
  0
VERTEX
  8
0
  5
27D5
 10
19.5570
 20
269.061
 30
4.37753e-15
  70
    32
  0
VERTEX
  8
0
  5
27D6
 10
19.5466
 20
269.058
 30
4.37535e-15
  70
    32
  0
VERTEX
  8
0
  5
27D7
 10
19.5361
 20
269.055
 30
4.37317e-15
  70
    32
  0
VERTEX
  8
0
  5
27D8
 10
19.5256
 20
269.052
 30
4.37097e-15
  70
    32
  0
VERTEX
  8
0
  5
27D9
 10
19.5151
 20
269.049
 30
4.36877e-15
  70
    32
  0
VERTEX
  8
0
  5
27DA
 10
19.5047
 20
269.046
 30
4.36657e-15
  70
    32
  0
VERTEX
  8
0
  5
27DB
 10
19.4942
 20
269.043
 30
4.36435e-15
  70
    32
  0
VERTEX
  8
0
  5
27DC
 10
19.4837
 20
269.040
 30
4.36213e-15
  70
    32
  0
VERTEX
  8
0
  5
27DD
 10
19.4732
 20
269.037
 30
4.35990e-15
  70
    32
  0
VERTEX
  8
0
  5
27DE
 10
19.4626
 20
269.034
 30
4.35767e-15
  70
    32
  0
VERTEX
  8
0
  5
27DF
 10
19.4521
 20
269.031
 30
4.35543e-15
  70
    32
  0
VERTEX
  8
0
  5
27E0
 10
19.4416
 20
269.028
 30
4.35318e-15
  70
    32
  0
VERTEX
  8
0
  5
27E1
 10
19.4311
 20
269.026
 30
4.35092e-15
  70
    32
  0
VERTEX
  8
0
  5
27E2
 10
19.4205
 20
269.023
 30
4.34866e-15
  70
    32
  0
VERTEX
  8
0
  5
27E3
 10
19.4100
 20
269.020
 30
4.34639e-15
  70
    32
  0
VERTEX
  8
0
  5
27E4
 10
19.3994
 20
269.017
 30
4.34412e-15
  70
    32
  0
VERTEX
  8
0
  5
27E5
 10
19.3889
 20
269.014
 30
4.34184e-15
  70
    32
  0
VERTEX
  8
0
  5
27E6
 10
19.3783
 20
269.011
 30
4.33955e-15
  70
    32
  0
VERTEX
  8
0
  5
27E7
 10
19.3677
 20
269.009
 30
4.33726e-15
  70
    32
  0
VERTEX
  8
0
  5
27E8
 10
19.3571
 20
269.006
 30
4.33496e-15
  70
    32
  0
VERTEX
  8
0
  5
27E9
 10
19.3465
 20
269.003
 30
4.33265e-15
  70
    32
  0
VERTEX
  8
0
  5
27EA
 10
19.3360
 20
269.000
 30
4.33034e-15
  70
    32
  0
VERTEX
  8
0
  5
27EB
 10
19.3254
 20
268.998
 30
4.32802e-15
  70
    32
  0
VERTEX
  8
0
  5
27EC
 10
19.3148
 20
268.995
 30
4.32570e-15
  70
    32
  0
VERTEX
  8
0
  5
27ED
 10
19.3041
 20
268.992
 30
4.32337e-15
  70
    32
  0
VERTEX
  8
0
  5
27EE
 10
19.2935
 20
268.990
 30
4.32103e-15
  70
    32
  0
VERTEX
  8
0
  5
27EF
 10
19.2829
 20
268.987
 30
4.31869e-15
  70
    32
  0
VERTEX
  8
0
  5
27F0
 10
19.2723
 20
268.984
 30
4.31635e-15
  70
    32
  0
VERTEX
  8
0
  5
27F1
 10
19.2616
 20
268.981
 30
4.31399e-15
  70
    32
  0
VERTEX
  8
0
  5
27F2
 10
19.2510
 20
268.979
 30
4.31164e-15
  70
    32
  0
VERTEX
  8
0
  5
27F3
 10
19.2404
 20
268.976
 30
4.30927e-15
  70
    32
  0
VERTEX
  8
0
  5
27F4
 10
19.2297
 20
268.974
 30
4.30690e-15
  70
    32
  0
VERTEX
  8
0
  5
27F5
 10
19.2191
 20
268.971
 30
4.30453e-15
  70
    32
  0
VERTEX
  8
0
  5
27F6
 10
19.2084
 20
268.968
 30
4.30215e-15
  70
    32
  0
VERTEX
  8
0
  5
27F7
 10
19.1977
 20
268.966
 30
4.29977e-15
  70
    32
  0
VERTEX
  8
0
  5
27F8
 10
19.1871
 20
268.963
 30
4.29738e-15
  70
    32
  0
VERTEX
  8
0
  5
27F9
 10
19.1764
 20
268.961
 30
4.29498e-15
  70
    32
  0
VERTEX
  8
0
  5
27FA
 10
19.1657
 20
268.958
 30
4.29258e-15
  70
    32
  0
VERTEX
  8
0
  5
27FB
 10
19.1550
 20
268.956
 30
4.29018e-15
  70
    32
  0
VERTEX
  8
0
  5
27FC
 10
19.1443
 20
268.953
 30
4.28777e-15
  70
    32
  0
VERTEX
  8
0
  5
27FD
 10
19.1336
 20
268.950
 30
4.28535e-15
  70
    32
  0
VERTEX
  8
0
  5
27FE
 10
19.1229
 20
268.948
 30
4.28294e-15
  70
    32
  0
VERTEX
  8
0
  5
27FF
 10
19.1122
 20
268.945
 30
4.28051e-15
  70
    32
  0
VERTEX
  8
0
  5
2800
 10
19.1015
 20
268.943
 30
4.27808e-15
  70
    32
  0
VERTEX
  8
0
  5
2801
 10
19.0908
 20
268.941
 30
4.27565e-15
  70
    32
  0
VERTEX
  8
0
  5
2802
 10
19.0800
 20
268.938
 30
4.27321e-15
  70
    32
  0
VERTEX
  8
0
  5
2803
 10
19.0693
 20
268.936
 30
4.27077e-15
  70
    32
  0
VERTEX
  8
0
  5
2804
 10
19.0586
 20
268.933
 30
4.26833e-15
  70
    32
  0
VERTEX
  8
0
  5
2805
 10
19.0478
 20
268.931
 30
4.26587e-15
  70
    32
  0
VERTEX
  8
0
  5
2806
 10
19.0371
 20
268.928
 30
4.26342e-15
  70
    32
  0
VERTEX
  8
0
  5
2807
 10
19.0263
 20
268.926
 30
4.26096e-15
  70
    32
  0
VERTEX
  8
0
  5
2808
 10
19.0156
 20
268.924
 30
4.25850e-15
  70
    32
  0
VERTEX
  8
0
  5
2809
 10
19.0048
 20
268.921
 30
4.25603e-15
  70
    32
  0
VERTEX
  8
0
  5
280A
 10
18.9941
 20
268.919
 30
4.25356e-15
  70
    32
  0
VERTEX
  8
0
  5
280B
 10
18.9833
 20
268.917
 30
4.25109e-15
  70
    32
  0
VERTEX
  8
0
  5
280C
 10
18.9725
 20
268.914
 30
4.24861e-15
  70
    32
  0
VERTEX
  8
0
  5
280D
 10
18.9617
 20
268.912
 30
4.24612e-15
  70
    32
  0
VERTEX
  8
0
  5
280E
 10
18.9510
 20
268.910
 30
4.24364e-15
  70
    32
  0
VERTEX
  8
0
  5
280F
 10
18.9402
 20
268.907
 30
4.24115e-15
  70
    32
  0
VERTEX
  8
0
  5
2810
 10
18.9294
 20
268.905
 30
4.23866e-15
  70
    32
  0
VERTEX
  8
0
  5
2811
 10
18.9186
 20
268.903
 30
4.23616e-15
  70
    32
  0
VERTEX
  8
0
  5
2812
 10
18.9078
 20
268.901
 30
4.23366e-15
  70
    32
  0
VERTEX
  8
0
  5
2813
 10
18.8970
 20
268.898
 30
4.23115e-15
  70
    32
  0
VERTEX
  8
0
  5
2814
 10
18.8862
 20
268.896
 30
4.22865e-15
  70
    32
  0
VERTEX
  8
0
  5
2815
 10
18.8754
 20
268.894
 30
4.22614e-15
  70
    32
  0
VERTEX
  8
0
  5
2816
 10
18.8646
 20
268.892
 30
4.22362e-15
  70
    32
  0
VERTEX
  8
0
  5
2817
 10
18.8538
 20
268.889
 30
4.22111e-15
  70
    32
  0
VERTEX
  8
0
  5
2818
 10
18.8429
 20
268.887
 30
4.21859e-15
  70
    32
  0
VERTEX
  8
0
  5
2819
 10
18.8321
 20
268.885
 30
4.21606e-15
  70
    32
  0
VERTEX
  8
0
  5
281A
 10
18.8213
 20
268.883
 30
4.21354e-15
  70
    32
  0
VERTEX
  8
0
  5
281B
 10
18.8105
 20
268.881
 30
4.21101e-15
  70
    32
  0
VERTEX
  8
0
  5
281C
 10
18.7996
 20
268.879
 30
4.20848e-15
  70
    32
  0
VERTEX
  8
0
  5
281D
 10
18.7888
 20
268.877
 30
4.20594e-15
  70
    32
  0
VERTEX
  8
0
  5
281E
 10
18.7779
 20
268.875
 30
4.20341e-15
  70
    32
  0
VERTEX
  8
0
  5
281F
 10
18.7671
 20
268.872
 30
4.20087e-15
  70
    32
  0
VERTEX
  8
0
  5
2820
 10
18.7562
 20
268.870
 30
4.19833e-15
  70
    32
  0
VERTEX
  8
0
  5
2821
 10
18.7454
 20
268.868
 30
4.19578e-15
  70
    32
  0
VERTEX
  8
0
  5
2822
 10
18.7345
 20
268.866
 30
4.19324e-15
  70
    32
  0
VERTEX
  8
0
  5
2823
 10
18.7237
 20
268.864
 30
4.19069e-15
  70
    32
  0
VERTEX
  8
0
  5
2824
 10
18.7128
 20
268.862
 30
4.18813e-15
  70
    32
  0
VERTEX
  8
0
  5
2825
 10
18.7019
 20
268.860
 30
4.18558e-15
  70
    32
  0
VERTEX
  8
0
  5
2826
 10
18.6911
 20
268.858
 30
4.18303e-15
  70
    32
  0
VERTEX
  8
0
  5
2827
 10
18.6802
 20
268.856
 30
4.18047e-15
  70
    32
  0
VERTEX
  8
0
  5
2828
 10
18.6693
 20
268.854
 30
4.17791e-15
  70
    32
  0
VERTEX
  8
0
  5
2829
 10
18.6585
 20
268.852
 30
4.17535e-15
  70
    32
  0
VERTEX
  8
0
  5
282A
 10
18.6476
 20
268.850
 30
4.17278e-15
  70
    32
  0
VERTEX
  8
0
  5
282B
 10
18.6367
 20
268.849
 30
4.17022e-15
  70
    32
  0
VERTEX
  8
0
  5
282C
 10
18.6258
 20
268.847
 30
4.16765e-15
  70
    32
  0
VERTEX
  8
0
  5
282D
 10
18.6149
 20
268.845
 30
4.16508e-15
  70
    32
  0
VERTEX
  8
0
  5
282E
 10
18.6040
 20
268.843
 30
4.16251e-15
  70
    32
  0
VERTEX
  8
0
  5
282F
 10
18.5931
 20
268.841
 30
4.15994e-15
  70
    32
  0
VERTEX
  8
0
  5
2830
 10
18.5822
 20
268.839
 30
4.15736e-15
  70
    32
  0
VERTEX
  8
0
  5
2831
 10
18.5713
 20
268.837
 30
4.15479e-15
  70
    32
  0
VERTEX
  8
0
  5
2832
 10
18.5604
 20
268.835
 30
4.15221e-15
  70
    32
  0
VERTEX
  8
0
  5
2833
 10
18.5495
 20
268.834
 30
4.14963e-15
  70
    32
  0
VERTEX
  8
0
  5
2834
 10
18.5386
 20
268.832
 30
4.14705e-15
  70
    32
  0
VERTEX
  8
0
  5
2835
 10
18.5277
 20
268.830
 30
4.14447e-15
  70
    32
  0
VERTEX
  8
0
  5
2836
 10
18.5168
 20
268.828
 30
4.14189e-15
  70
    32
  0
VERTEX
  8
0
  5
2837
 10
18.5059
 20
268.826
 30
4.13931e-15
  70
    32
  0
VERTEX
  8
0
  5
2838
 10
18.4950
 20
268.825
 30
4.13673e-15
  70
    32
  0
VERTEX
  8
0
  5
2839
 10
18.4840
 20
268.823
 30
4.13414e-15
  70
    32
  0
VERTEX
  8
0
  5
283A
 10
18.4731
 20
268.821
 30
4.13156e-15
  70
    32
  0
VERTEX
  8
0
  5
283B
 10
18.4622
 20
268.820
 30
4.12897e-15
  70
    32
  0
VERTEX
  8
0
  5
283C
 10
18.4513
 20
268.818
 30
4.12638e-15
  70
    32
  0
VERTEX
  8
0
  5
283D
 10
18.4403
 20
268.816
 30
4.12380e-15
  70
    32
  0
VERTEX
  8
0
  5
283E
 10
18.4294
 20
268.815
 30
4.12121e-15
  70
    32
  0
VERTEX
  8
0
  5
283F
 10
18.4185
 20
268.813
 30
4.11862e-15
  70
    32
  0
VERTEX
  8
0
  5
2840
 10
18.4075
 20
268.811
 30
4.11603e-15
  70
    32
  0
VERTEX
  8
0
  5
2841
 10
18.3966
 20
268.810
 30
4.11344e-15
  70
    32
  0
VERTEX
  8
0
  5
2842
 10
18.3857
 20
268.808
 30
4.11085e-15
  70
    32
  0
VERTEX
  8
0
  5
2843
 10
18.3747
 20
268.806
 30
4.10826e-15
  70
    32
  0
VERTEX
  8
0
  5
2844
 10
18.3638
 20
268.805
 30
4.10567e-15
  70
    32
  0
VERTEX
  8
0
  5
2845
 10
18.3529
 20
268.803
 30
4.10308e-15
  70
    32
  0
VERTEX
  8
0
  5
2846
 10
18.3419
 20
268.802
 30
4.10049e-15
  70
    32
  0
VERTEX
  8
0
  5
2847
 10
18.3310
 20
268.800
 30
4.09790e-15
  70
    32
  0
VERTEX
  8
0
  5
2848
 10
18.3200
 20
268.799
 30
4.09531e-15
  70
    32
  0
VERTEX
  8
0
  5
2849
 10
18.3091
 20
268.797
 30
4.09272e-15
  70
    32
  0
VERTEX
  8
0
  5
284A
 10
18.2981
 20
268.796
 30
4.09013e-15
  70
    32
  0
VERTEX
  8
0
  5
284B
 10
18.2872
 20
268.794
 30
4.08754e-15
  70
    32
  0
VERTEX
  8
0
  5
284C
 10
18.2762
 20
268.793
 30
4.08495e-15
  70
    32
  0
VERTEX
  8
0
  5
284D
 10
18.2653
 20
268.791
 30
4.08236e-15
  70
    32
  0
VERTEX
  8
0
  5
284E
 10
18.2543
 20
268.790
 30
4.07977e-15
  70
    32
  0
VERTEX
  8
0
  5
284F
 10
18.2434
 20
268.788
 30
4.07718e-15
  70
    32
  0
VERTEX
  8
0
  5
2850
 10
18.2324
 20
268.787
 30
4.07459e-15
  70
    32
  0
VERTEX
  8
0
  5
2851
 10
18.2215
 20
268.785
 30
4.07200e-15
  70
    32
  0
VERTEX
  8
0
  5
2852
 10
18.2105
 20
268.784
 30
4.06941e-15
  70
    32
  0
VERTEX
  8
0
  5
2853
 10
18.1995
 20
268.783
 30
4.06682e-15
  70
    32
  0
VERTEX
  8
0
  5
2854
 10
18.1886
 20
268.781
 30
4.06423e-15
  70
    32
  0
VERTEX
  8
0
  5
2855
 10
18.1776
 20
268.780
 30
4.06164e-15
  70
    32
  0
VERTEX
  8
0
  5
2856
 10
18.1667
 20
268.779
 30
4.05904e-15
  70
    32
  0
VERTEX
  8
0
  5
2857
 10
18.1557
 20
268.777
 30
4.05645e-15
  70
    32
  0
VERTEX
  8
0
  5
2858
 10
18.1448
 20
268.776
 30
4.05386e-15
  70
    32
  0
VERTEX
  8
0
  5
2859
 10
18.1338
 20
268.775
 30
4.05127e-15
  70
    32
  0
VERTEX
  8
0
  5
285A
 10
18.1228
 20
268.773
 30
4.04868e-15
  70
    32
  0
VERTEX
  8
0
  5
285B
 10
18.1119
 20
268.772
 30
4.04609e-15
  70
    32
  0
VERTEX
  8
0
  5
285C
 10
18.1009
 20
268.771
 30
4.04350e-15
  70
    32
  0
VERTEX
  8
0
  5
285D
 10
18.0899
 20
268.770
 30
4.04091e-15
  70
    32
  0
VERTEX
  8
0
  5
285E
 10
18.0790
 20
268.768
 30
4.03832e-15
  70
    32
  0
VERTEX
  8
0
  5
285F
 10
18.0680
 20
268.767
 30
4.03573e-15
  70
    32
  0
VERTEX
  8
0
  5
2860
 10
18.0571
 20
268.766
 30
4.03314e-15
  70
    32
  0
VERTEX
  8
0
  5
2861
 10
18.0461
 20
268.765
 30
4.03055e-15
  70
    32
  0
VERTEX
  8
0
  5
2862
 10
18.0351
 20
268.764
 30
4.02796e-15
  70
    32
  0
VERTEX
  8
0
  5
2863
 10
18.0242
 20
268.762
 30
4.02537e-15
  70
    32
  0
VERTEX
  8
0
  5
2864
 10
18.0132
 20
268.761
 30
4.02278e-15
  70
    32
  0
VERTEX
  8
0
  5
2865
 10
18.0023
 20
268.760
 30
4.02019e-15
  70
    32
  0
VERTEX
  8
0
  5
2866
 10
17.9913
 20
268.759
 30
4.01760e-15
  70
    32
  0
VERTEX
  8
0
  5
2867
 10
17.9803
 20
268.758
 30
4.01501e-15
  70
    32
  0
VERTEX
  8
0
  5
2868
 10
17.9694
 20
268.757
 30
4.01242e-15
  70
    32
  0
VERTEX
  8
0
  5
2869
 10
17.9584
 20
268.756
 30
4.00983e-15
  70
    32
  0
VERTEX
  8
0
  5
286A
 10
17.9475
 20
268.755
 30
4.00724e-15
  70
    32
  0
VERTEX
  8
0
  5
286B
 10
17.9365
 20
268.754
 30
4.00465e-15
  70
    32
  0
VERTEX
  8
0
  5
286C
 10
17.9255
 20
268.753
 30
4.00205e-15
  70
    32
  0
VERTEX
  8
0
  5
286D
 10
17.9146
 20
268.752
 30
3.99946e-15
  70
    32
  0
VERTEX
  8
0
  5
286E
 10
17.9036
 20
268.750
 30
3.99687e-15
  70
    32
  0
VERTEX
  8
0
  5
286F
 10
17.8927
 20
268.749
 30
3.99428e-15
  70
    32
  0
VERTEX
  8
0
  5
2870
 10
17.8817
 20
268.749
 30
3.99169e-15
  70
    32
  0
VERTEX
  8
0
  5
2871
 10
17.8708
 20
268.748
 30
3.98910e-15
  70
    32
  0
VERTEX
  8
0
  5
2872
 10
17.8598
 20
268.747
 30
3.98651e-15
  70
    32
  0
VERTEX
  8
0
  5
2873
 10
17.8489
 20
268.746
 30
3.98392e-15
  70
    32
  0
VERTEX
  8
0
  5
2874
 10
17.8379
 20
268.745
 30
3.98133e-15
  70
    32
  0
VERTEX
  8
0
  5
2875
 10
17.8270
 20
268.744
 30
3.97874e-15
  70
    32
  0
VERTEX
  8
0
  5
2876
 10
17.8160
 20
268.743
 30
3.97615e-15
  70
    32
  0
VERTEX
  8
0
  5
2877
 10
17.8051
 20
268.742
 30
3.97356e-15
  70
    32
  0
VERTEX
  8
0
  5
2878
 10
17.7941
 20
268.741
 30
3.97097e-15
  70
    32
  0
VERTEX
  8
0
  5
2879
 10
17.7832
 20
268.740
 30
3.96838e-15
  70
    32
  0
VERTEX
  8
0
  5
287A
 10
17.7722
 20
268.739
 30
3.96579e-15
  70
    32
  0
VERTEX
  8
0
  5
287B
 10
17.7613
 20
268.739
 30
3.96320e-15
  70
    32
  0
VERTEX
  8
0
  5
287C
 10
17.7504
 20
268.738
 30
3.96061e-15
  70
    32
  0
VERTEX
  8
0
  5
287D
 10
17.7394
 20
268.737
 30
3.95802e-15
  70
    32
  0
VERTEX
  8
0
  5
287E
 10
17.7285
 20
268.736
 30
3.95543e-15
  70
    32
  0
VERTEX
  8
0
  5
287F
 10
17.7176
 20
268.735
 30
3.95284e-15
  70
    32
  0
VERTEX
  8
0
  5
2880
 10
17.7066
 20
268.735
 30
3.95025e-15
  70
    32
  0
VERTEX
  8
0
  5
2881
 10
17.6957
 20
268.734
 30
3.94766e-15
  70
    32
  0
VERTEX
  8
0
  5
2882
 10
17.6848
 20
268.733
 30
3.94507e-15
  70
    32
  0
VERTEX
  8
0
  5
2883
 10
17.6738
 20
268.732
 30
3.94247e-15
  70
    32
  0
VERTEX
  8
0
  5
2884
 10
17.6629
 20
268.732
 30
3.93988e-15
  70
    32
  0
VERTEX
  8
0
  5
2885
 10
17.6520
 20
268.731
 30
3.93729e-15
  70
    32
  0
VERTEX
  8
0
  5
2886
 10
17.6411
 20
268.730
 30
3.93470e-15
  70
    32
  0
VERTEX
  8
0
  5
2887
 10
17.6302
 20
268.730
 30
3.93211e-15
  70
    32
  0
VERTEX
  8
0
  5
2888
 10
17.6192
 20
268.729
 30
3.92952e-15
  70
    32
  0
VERTEX
  8
0
  5
2889
 10
17.6083
 20
268.728
 30
3.92693e-15
  70
    32
  0
VERTEX
  8
0
  5
288A
 10
17.5974
 20
268.728
 30
3.92434e-15
  70
    32
  0
VERTEX
  8
0
  5
288B
 10
17.5865
 20
268.727
 30
3.92175e-15
  70
    32
  0
VERTEX
  8
0
  5
288C
 10
17.5756
 20
268.726
 30
3.91916e-15
  70
    32
  0
VERTEX
  8
0
  5
288D
 10
17.5647
 20
268.726
 30
3.91657e-15
  70
    32
  0
VERTEX
  8
0
  5
288E
 10
17.5538
 20
268.725
 30
3.91398e-15
  70
    32
  0
VERTEX
  8
0
  5
288F
 10
17.5429
 20
268.725
 30
3.91139e-15
  70
    32
  0
VERTEX
  8
0
  5
2890
 10
17.5320
 20
268.724
 30
3.90880e-15
  70
    32
  0
VERTEX
  8
0
  5
2891
 10
17.5211
 20
268.723
 30
3.90621e-15
  70
    32
  0
VERTEX
  8
0
  5
2892
 10
17.5102
 20
268.723
 30
3.90362e-15
  70
    32
  0
VERTEX
  8
0
  5
2893
 10
17.4994
 20
268.722
 30
3.90103e-15
  70
    32
  0
VERTEX
  8
0
  5
2894
 10
17.4885
 20
268.722
 30
3.89844e-15
  70
    32
  0
VERTEX
  8
0
  5
2895
 10
17.4776
 20
268.721
 30
3.89585e-15
  70
    32
  0
VERTEX
  8
0
  5
2896
 10
17.4667
 20
268.721
 30
3.89326e-15
  70
    32
  0
VERTEX
  8
0
  5
2897
 10
17.4558
 20
268.720
 30
3.89067e-15
  70
    32
  0
VERTEX
  8
0
  5
2898
 10
17.4450
 20
268.720
 30
3.88808e-15
  70
    32
  0
VERTEX
  8
0
  5
2899
 10
17.4341
 20
268.720
 30
3.88548e-15
  70
    32
  0
VERTEX
  8
0
  5
289A
 10
17.4232
 20
268.719
 30
3.88289e-15
  70
    32
  0
VERTEX
  8
0
  5
289B
 10
17.4124
 20
268.719
 30
3.88030e-15
  70
    32
  0
VERTEX
  8
0
  5
289C
 10
17.4015
 20
268.718
 30
3.87771e-15
  70
    32
  0
VERTEX
  8
0
  5
289D
 10
17.3907
 20
268.718
 30
3.87512e-15
  70
    32
  0
VERTEX
  8
0
  5
289E
 10
17.3798
 20
268.718
 30
3.87253e-15
  70
    32
  0
VERTEX
  8
0
  5
289F
 10
17.3690
 20
268.717
 30
3.86994e-15
  70
    32
  0
VERTEX
  8
0
  5
28A0
 10
17.3581
 20
268.717
 30
3.86735e-15
  70
    32
  0
VERTEX
  8
0
  5
28A1
 10
17.3473
 20
268.717
 30
3.86476e-15
  70
    32
  0
VERTEX
  8
0
  5
28A2
 10
17.3365
 20
268.716
 30
3.86217e-15
  70
    32
  0
VERTEX
  8
0
  5
28A3
 10
17.3256
 20
268.716
 30
3.85958e-15
  70
    32
  0
VERTEX
  8
0
  5
28A4
 10
17.3148
 20
268.716
 30
3.85699e-15
  70
    32
  0
VERTEX
  8
0
  5
28A5
 10
17.3040
 20
268.715
 30
3.85440e-15
  70
    32
  0
VERTEX
  8
0
  5
28A6
 10
17.2932
 20
268.715
 30
3.85181e-15
  70
    32
  0
VERTEX
  8
0
  5
28A7
 10
17.2824
 20
268.715
 30
3.84922e-15
  70
    32
  0
VERTEX
  8
0
  5
28A8
 10
17.2716
 20
268.715
 30
3.84663e-15
  70
    32
  0
VERTEX
  8
0
  5
28A9
 10
17.2608
 20
268.714
 30
3.84404e-15
  70
    32
  0
VERTEX
  8
0
  5
28AA
 10
17.2500
 20
268.714
 30
3.84145e-15
  70
    32
  0
VERTEX
  8
0
  5
28AB
 10
17.2392
 20
268.714
 30
3.83886e-15
  70
    32
  0
VERTEX
  8
0
  5
28AC
 10
17.2284
 20
268.714
 30
3.83627e-15
  70
    32
  0
VERTEX
  8
0
  5
28AD
 10
17.2176
 20
268.714
 30
3.83368e-15
  70
    32
  0
VERTEX
  8
0
  5
28AE
 10
17.2068
 20
268.713
 30
3.83109e-15
  70
    32
  0
VERTEX
  8
0
  5
28AF
 10
17.1960
 20
268.713
 30
3.82849e-15
  70
    32
  0
VERTEX
  8
0
  5
28B0
 10
17.1852
 20
268.713
 30
3.82590e-15
  70
    32
  0
VERTEX
  8
0
  5
28B1
 10
17.1745
 20
268.713
 30
3.82331e-15
  70
    32
  0
VERTEX
  8
0
  5
28B2
 10
17.1637
 20
268.713
 30
3.82072e-15
  70
    32
  0
VERTEX
  8
0
  5
28B3
 10
17.1530
 20
268.713
 30
3.81813e-15
  70
    32
  0
VERTEX
  8
0
  5
28B4
 10
17.1422
 20
268.713
 30
3.81554e-15
  70
    32
  0
VERTEX
  8
0
  5
28B5
 10
17.1315
 20
268.713
 30
3.81295e-15
  70
    32
  0
VERTEX
  8
0
  5
28B6
 10
17.1207
 20
268.713
 30
3.81036e-15
  70
    32
  0
VERTEX
  8
0
  5
28B7
 10
17.1100
 20
268.712
 30
3.80777e-15
  70
    32
  0
VERTEX
  8
0
  5
28B8
 10
17.0992
 20
268.712
 30
3.80518e-15
  70
    32
  0
VERTEX
  8
0
  5
28B9
 10
17.0885
 20
268.712
 30
3.80259e-15
  70
    32
  0
VERTEX
  8
0
  5
28BA
 10
17.0778
 20
268.712
 30
3.80000e-15
  70
    32
  0
SEQEND
  8
0
  5
28BB
  0
ARC
  5
1FE4
  8
0
 10
17.0777825510818708
 20
277.7124394272756263
 30
0.0
 40
8.9999999999999876
 50
287.7825929444742883
 51
252.2174070555257117
  0
ARC
  5
1FE5
  8
0
 10
17.0777825510821017
 20
215.2124394272757115
 30
0.0
 40
53.9999999999998224
 50
2.9176735344623479
 51
87.0823264655377187
  0
ARC
  5
1FE6
  8
0
 10
17.077782551081981
 20
215.2124394272753989
 30
0.0
 40
54.0000000000001208
 50
92.9176735344626223
 51
177.0823264655373919
  0
ARC
  5
1FE7
  8
0
 10
17.0777825510817607
 20
215.2124394272753989
 30
0.0
 40
53.9999999999999432
 50
182.9176735344622955
 51
267.0823264655376192
  0
ARC
  5
1FE8
  8
0
 10
17.077782551081981
 20
215.2124394272755126
 30
0.0
 40
53.9999999999999503
 50
272.9176735344623808
 51
357.0823264655376192
  0
CIRCLE
  5
1FE9
  8
0
 10
17.0777825510818708
 20
215.2124394272755126
 30
0.0
 40
51.0000000000000284
  0
CIRCLE
  5
1FEA
  8
0
 10
17.0777825510818708
 20
215.2124394272755126
 30
0.0
 40
82.5000000000000284
  0
CIRCLE
  5
1FEB
  8
0
 10
17.0777825510818708
 20
215.2124394272755126
 30
0.0
 40
27.2500000000000284
  0
CIRCLE
  5
1FEC
  8
0
 10
17.0777825510818388
 20
215.2124394272755126
 30
0.0
 40
24.4100662154420682
  0
CIRCLE
  5
1FED
  8
0
 10
17.0777825510818602
 20
215.2124394272755126
 30
0.0
 40
25.0003458496272515
  0
CIRCLE
  5
1FEE
  8
0
  6
VERDECKT
 62
     1
 10
17.0777825510818708
 20
215.2124394272755126
 30
0.0
 40
30.1500000000000092
  0
CIRCLE
  5
1FEF
  8
0
  6
VERDECKT
 62
     1
 10
17.0777825510818388
 20
215.2124394272755126
 30
0.0
 40
25.8872335056913698
  0
CIRCLE
  5
1FF0
  8
0
  6
VERDECKT
 62
     1
 10
17.0777825510818602
 20
215.2124394272755126
 30
0.0
 40
26.5003458496272017
  0
CIRCLE
  5
1FF1
  8
0
  6
VERDECKT
 62
     1
 10
17.0777825510818708
 20
215.2124394272755126
 30
0.0
 40
28.8948358403397414
  0
ENDBLK
  5
1FF3
  8
0
  0
BLOCK
  8
0
  2
A$C0697DFF6
 70
     0
 10
0.0
 20
0.0
 30
0.0
  3
A$C0697DFF6
  1

  0
LINE
  5
1FF7
  8
0
 10
47.227782551081873
 20
-132.5350682550881913
 30
0.0000000000000294
 11
-13.0722174489180798
 21
-132.5350682550881913
 31
0.0000000000000294
210
0.0
220
1.0
230
-0.0000000000000002
  0
POLYLINE
  8
0
  5
28BC
  66
     1
 10
0.000000
 20
0.000000
 30
0.000000
  70
     8
  0
VERTEX
  8
0
  5
28BD
 10
71.0078
 20
-90.5351
 30
2.01000e-14
  70
    32
  0
VERTEX
  8
0
  5
28BE
 10
71.0045
 20
-90.5313
 30
2.01000e-14
  70
    32
  0
VERTEX
  8
0
  5
28BF
 10
71.0012
 20
-90.5275
 30
2.01000e-14
  70
    32
  0
VERTEX
  8
0
  5
28C0
 10
70.9980
 20
-90.5237
 30
2.01000e-14
  70
    32
  0
VERTEX
  8
0
  5
28C1
 10
70.9947
 20
-90.5199
 30
2.01000e-14
  70
    32
  0
VERTEX
  8
0
  5
28C2
 10
70.9915
 20
-90.5162
 30
2.01000e-14
  70
    32
  0
VERTEX
  8
0
  5
28C3
 10
70.9882
 20
-90.5124
 30
2.01000e-14
  70
    32
  0
VERTEX
  8
0
  5
28C4
 10
70.9850
 20
-90.5087
 30
2.01000e-14
  70
    32
  0
VERTEX
  8
0
  5
28C5
 10
70.9818
 20
-90.5050
 30
2.01000e-14
  70
    32
  0
VERTEX
  8
0
  5
28C6
 10
70.9786
 20
-90.5013
 30
2.01000e-14
  70
    32
  0
VERTEX
  8
0
  5
28C7
 10
70.9754
 20
-90.4976
 30
2.01000e-14
  70
    32
  0
VERTEX
  8
0
  5
28C8
 10
70.9722
 20
-90.4939
 30
2.01000e-14
  70
    32
  0
VERTEX
  8
0
  5
28C9
 10
70.9691
 20
-90.4903
 30
2.01000e-14
  70
    32
  0
VERTEX
  8
0
  5
28CA
 10
70.9659
 20
-90.4866
 30
2.01000e-14
  70
    32
  0
VERTEX
  8
0
  5
28CB
 10
70.9628
 20
-90.4830
 30
2.01000e-14
  70
    32
  0
VERTEX
  8
0
  5
28CC
 10
70.9597
 20
-90.4793
 30
2.01000e-14
  70
    32
  0
VERTEX
  8
0
  5
28CD
 10
70.9565
 20
-90.4757
 30
2.01000e-14
  70
    32
  0
VERTEX
  8
0
  5
28CE
 10
70.9534
 20
-90.4721
 30
2.01000e-14
  70
    32
  0
VERTEX
  8
0
  5
28CF
 10
70.9503
 20
-90.4685
 30
2.01000e-14
  70
    32
  0
VERTEX
  8
0
  5
28D0
 10
70.9473
 20
-90.4650
 30
2.01000e-14
  70
    32
  0
VERTEX
  8
0
  5
28D1
 10
70.9442
 20
-90.4614
 30
2.01000e-14
  70
    32
  0
VERTEX
  8
0
  5
28D2
 10
70.9411
 20
-90.4579
 30
2.01000e-14
  70
    32
  0
VERTEX
  8
0
  5
28D3
 10
70.9381
 20
-90.4543
 30
2.01000e-14
  70
    32
  0
VERTEX
  8
0
  5
28D4
 10
70.9350
 20
-90.4508
 30
2.01000e-14
  70
    32
  0
VERTEX
  8
0
  5
28D5
 10
70.9320
 20
-90.4473
 30
2.01000e-14
  70
    32
  0
VERTEX
  8
0
  5
28D6
 10
70.9290
 20
-90.4438
 30
2.00999e-14
  70
    32
  0
VERTEX
  8
0
  5
28D7
 10
70.9260
 20
-90.4403
 30
2.00998e-14
  70
    32
  0
VERTEX
  8
0
  5
28D8
 10
70.9230
 20
-90.4369
 30
2.00997e-14
  70
    32
  0
VERTEX
  8
0
  5
28D9
 10
70.9200
 20
-90.4334
 30
2.00995e-14
  70
    32
  0
VERTEX
  8
0
  5
28DA
 10
70.9171
 20
-90.4300
 30
2.00993e-14
  70
    32
  0
VERTEX
  8
0
  5
28DB
 10
70.9141
 20
-90.4265
 30
2.00991e-14
  70
    32
  0
VERTEX
  8
0
  5
28DC
 10
70.9112
 20
-90.4231
 30
2.00988e-14
  70
    32
  0
VERTEX
  8
0
  5
28DD
 10
70.9082
 20
-90.4197
 30
2.00984e-14
  70
    32
  0
VERTEX
  8
0
  5
28DE
 10
70.9053
 20
-90.4163
 30
2.00980e-14
  70
    32
  0
VERTEX
  8
0
  5
28DF
 10
70.9024
 20
-90.4130
 30
2.00976e-14
  70
    32
  0
VERTEX
  8
0
  5
28E0
 10
70.8995
 20
-90.4096
 30
2.00972e-14
  70
    32
  0
VERTEX
  8
0
  5
28E1
 10
70.8966
 20
-90.4063
 30
2.00967e-14
  70
    32
  0
VERTEX
  8
0
  5
28E2
 10
70.8938
 20
-90.4029
 30
2.00962e-14
  70
    32
  0
VERTEX
  8
0
  5
28E3
 10
70.8909
 20
-90.3996
 30
2.00956e-14
  70
    32
  0
VERTEX
  8
0
  5
28E4
 10
70.8881
 20
-90.3963
 30
2.00950e-14
  70
    32
  0
VERTEX
  8
0
  5
28E5
 10
70.8852
 20
-90.3930
 30
2.00944e-14
  70
    32
  0
VERTEX
  8
0
  5
28E6
 10
70.8824
 20
-90.3898
 30
2.00938e-14
  70
    32
  0
VERTEX
  8
0
  5
28E7
 10
70.8796
 20
-90.3865
 30
2.00931e-14
  70
    32
  0
VERTEX
  8
0
  5
28E8
 10
70.8768
 20
-90.3833
 30
2.00924e-14
  70
    32
  0
VERTEX
  8
0
  5
28E9
 10
70.8740
 20
-90.3800
 30
2.00916e-14
  70
    32
  0
VERTEX
  8
0
  5
28EA
 10
70.8712
 20
-90.3768
 30
2.00908e-14
  70
    32
  0
VERTEX
  8
0
  5
28EB
 10
70.8685
 20
-90.3736
 30
2.00900e-14
  70
    32
  0
VERTEX
  8
0
  5
28EC
 10
70.8657
 20
-90.3704
 30
2.00892e-14
  70
    32
  0
VERTEX
  8
0
  5
28ED
 10
70.8630
 20
-90.3672
 30
2.00884e-14
  70
    32
  0
VERTEX
  8
0
  5
28EE
 10
70.8603
 20
-90.3641
 30
2.00875e-14
  70
    32
  0
VERTEX
  8
0
  5
28EF
 10
70.8575
 20
-90.3609
 30
2.00866e-14
  70
    32
  0
VERTEX
  8
0
  5
28F0
 10
70.8548
 20
-90.3578
 30
2.00856e-14
  70
    32
  0
VERTEX
  8
0
  5
28F1
 10
70.8522
 20
-90.3546
 30
2.00847e-14
  70
    32
  0
VERTEX
  8
0
  5
28F2
 10
70.8495
 20
-90.3515
 30
2.00837e-14
  70
    32
  0
VERTEX
  8
0
  5
28F3
 10
70.8468
 20
-90.3484
 30
2.00827e-14
  70
    32
  0
VERTEX
  8
0
  5
28F4
 10
70.8442
 20
-90.3454
 30
2.00817e-14
  70
    32
  0
VERTEX
  8
0
  5
28F5
 10
70.8415
 20
-90.3423
 30
2.00807e-14
  70
    32
  0
VERTEX
  8
0
  5
28F6
 10
70.8389
 20
-90.3392
 30
2.00796e-14
  70
    32
  0
VERTEX
  8
0
  5
28F7
 10
70.8363
 20
-90.3362
 30
2.00785e-14
  70
    32
  0
VERTEX
  8
0
  5
28F8
 10
70.8337
 20
-90.3332
 30
2.00774e-14
  70
    32
  0
VERTEX
  8
0
  5
28F9
 10
70.8311
 20
-90.3302
 30
2.00763e-14
  70
    32
  0
VERTEX
  8
0
  5
28FA
 10
70.8285
 20
-90.3272
 30
2.00752e-14
  70
    32
  0
VERTEX
  8
0
  5
28FB
 10
70.8259
 20
-90.3242
 30
2.00741e-14
  70
    32
  0
VERTEX
  8
0
  5
28FC
 10
70.8234
 20
-90.3212
 30
2.00729e-14
  70
    32
  0
VERTEX
  8
0
  5
28FD
 10
70.8209
 20
-90.3183
 30
2.00717e-14
  70
    32
  0
VERTEX
  8
0
  5
28FE
 10
70.8183
 20
-90.3153
 30
2.00705e-14
  70
    32
  0
VERTEX
  8
0
  5
28FF
 10
70.8158
 20
-90.3124
 30
2.00693e-14
  70
    32
  0
VERTEX
  8
0
  5
2900
 10
70.8133
 20
-90.3095
 30
2.00681e-14
  70
    32
  0
VERTEX
  8
0
  5
2901
 10
70.8108
 20
-90.3066
 30
2.00669e-14
  70
    32
  0
VERTEX
  8
0
  5
2902
 10
70.8083
 20
-90.3037
 30
2.00657e-14
  70
    32
  0
VERTEX
  8
0
  5
2903
 10
70.8059
 20
-90.3009
 30
2.00644e-14
  70
    32
  0
VERTEX
  8
0
  5
2904
 10
70.8034
 20
-90.2980
 30
2.00632e-14
  70
    32
  0
VERTEX
  8
0
  5
2905
 10
70.8010
 20
-90.2952
 30
2.00619e-14
  70
    32
  0
VERTEX
  8
0
  5
2906
 10
70.7986
 20
-90.2924
 30
2.00607e-14
  70
    32
  0
VERTEX
  8
0
  5
2907
 10
70.7961
 20
-90.2896
 30
2.00594e-14
  70
    32
  0
VERTEX
  8
0
  5
2908
 10
70.7937
 20
-90.2868
 30
2.00581e-14
  70
    32
  0
VERTEX
  8
0
  5
2909
 10
70.7913
 20
-90.2840
 30
2.00568e-14
  70
    32
  0
VERTEX
  8
0
  5
290A
 10
70.7890
 20
-90.2812
 30
2.00555e-14
  70
    32
  0
VERTEX
  8
0
  5
290B
 10
70.7866
 20
-90.2785
 30
2.00542e-14
  70
    32
  0
VERTEX
  8
0
  5
290C
 10
70.7843
 20
-90.2757
 30
2.00530e-14
  70
    32
  0
VERTEX
  8
0
  5
290D
 10
70.7819
 20
-90.2730
 30
2.00517e-14
  70
    32
  0
VERTEX
  8
0
  5
290E
 10
70.7796
 20
-90.2703
 30
2.00504e-14
  70
    32
  0
VERTEX
  8
0
  5
290F
 10
70.7773
 20
-90.2676
 30
2.00491e-14
  70
    32
  0
VERTEX
  8
0
  5
2910
 10
70.7750
 20
-90.2649
 30
2.00478e-14
  70
    32
  0
VERTEX
  8
0
  5
2911
 10
70.7727
 20
-90.2623
 30
2.00465e-14
  70
    32
  0
VERTEX
  8
0
  5
2912
 10
70.7704
 20
-90.2596
 30
2.00452e-14
  70
    32
  0
VERTEX
  8
0
  5
2913
 10
70.7681
 20
-90.2570
 30
2.00439e-14
  70
    32
  0
VERTEX
  8
0
  5
2914
 10
70.7659
 20
-90.2544
 30
2.00426e-14
  70
    32
  0
VERTEX
  8
0
  5
2915
 10
70.7637
 20
-90.2518
 30
2.00413e-14
  70
    32
  0
VERTEX
  8
0
  5
2916
 10
70.7614
 20
-90.2492
 30
2.00401e-14
  70
    32
  0
VERTEX
  8
0
  5
2917
 10
70.7592
 20
-90.2466
 30
2.00388e-14
  70
    32
  0
VERTEX
  8
0
  5
2918
 10
70.7570
 20
-90.2441
 30
2.00375e-14
  70
    32
  0
VERTEX
  8
0
  5
2919
 10
70.7548
 20
-90.2415
 30
2.00363e-14
  70
    32
  0
VERTEX
  8
0
  5
291A
 10
70.7527
 20
-90.2390
 30
2.00350e-14
  70
    32
  0
VERTEX
  8
0
  5
291B
 10
70.7505
 20
-90.2365
 30
2.00338e-14
  70
    32
  0
VERTEX
  8
0
  5
291C
 10
70.7484
 20
-90.2340
 30
2.00326e-14
  70
    32
  0
VERTEX
  8
0
  5
291D
 10
70.7462
 20
-90.2315
 30
2.00314e-14
  70
    32
  0
VERTEX
  8
0
  5
291E
 10
70.7441
 20
-90.2290
 30
2.00301e-14
  70
    32
  0
VERTEX
  8
0
  5
291F
 10
70.7420
 20
-90.2266
 30
2.00290e-14
  70
    32
  0
VERTEX
  8
0
  5
2920
 10
70.7399
 20
-90.2241
 30
2.00278e-14
  70
    32
  0
VERTEX
  8
0
  5
2921
 10
70.7378
 20
-90.2217
 30
2.00266e-14
  70
    32
  0
VERTEX
  8
0
  5
2922
 10
70.7358
 20
-90.2193
 30
2.00255e-14
  70
    32
  0
VERTEX
  8
0
  5
2923
 10
70.7337
 20
-90.2169
 30
2.00243e-14
  70
    32
  0
VERTEX
  8
0
  5
2924
 10
70.7317
 20
-90.2145
 30
2.00232e-14
  70
    32
  0
VERTEX
  8
0
  5
2925
 10
70.7296
 20
-90.2122
 30
2.00221e-14
  70
    32
  0
VERTEX
  8
0
  5
2926
 10
70.7276
 20
-90.2098
 30
2.00210e-14
  70
    32
  0
VERTEX
  8
0
  5
2927
 10
70.7256
 20
-90.2075
 30
2.00199e-14
  70
    32
  0
VERTEX
  8
0
  5
2928
 10
70.7236
 20
-90.2052
 30
2.00189e-14
  70
    32
  0
VERTEX
  8
0
  5
2929
 10
70.7216
 20
-90.2029
 30
2.00179e-14
  70
    32
  0
VERTEX
  8
0
  5
292A
 10
70.7197
 20
-90.2006
 30
2.00168e-14
  70
    32
  0
VERTEX
  8
0
  5
292B
 10
70.7177
 20
-90.1983
 30
2.00159e-14
  70
    32
  0
VERTEX
  8
0
  5
292C
 10
70.7158
 20
-90.1961
 30
2.00149e-14
  70
    32
  0
VERTEX
  8
0
  5
292D
 10
70.7139
 20
-90.1938
 30
2.00139e-14
  70
    32
  0
VERTEX
  8
0
  5
292E
 10
70.7120
 20
-90.1916
 30
2.00130e-14
  70
    32
  0
VERTEX
  8
0
  5
292F
 10
70.7101
 20
-90.1894
 30
2.00121e-14
  70
    32
  0
VERTEX
  8
0
  5
2930
 10
70.7082
 20
-90.1872
 30
2.00113e-14
  70
    32
  0
VERTEX
  8
0
  5
2931
 10
70.7063
 20
-90.1850
 30
2.00104e-14
  70
    32
  0
VERTEX
  8
0
  5
2932
 10
70.7045
 20
-90.1828
 30
2.00096e-14
  70
    32
  0
VERTEX
  8
0
  5
2933
 10
70.7026
 20
-90.1807
 30
2.00088e-14
  70
    32
  0
VERTEX
  8
0
  5
2934
 10
70.7008
 20
-90.1786
 30
2.00081e-14
  70
    32
  0
VERTEX
  8
0
  5
2935
 10
70.6990
 20
-90.1764
 30
2.00073e-14
  70
    32
  0
VERTEX
  8
0
  5
2936
 10
70.6972
 20
-90.1743
 30
2.00066e-14
  70
    32
  0
VERTEX
  8
0
  5
2937
 10
70.6954
 20
-90.1723
 30
2.00060e-14
  70
    32
  0
VERTEX
  8
0
  5
2938
 10
70.6936
 20
-90.1702
 30
2.00053e-14
  70
    32
  0
VERTEX
  8
0
  5
2939
 10
70.6918
 20
-90.1681
 30
2.00047e-14
  70
    32
  0
VERTEX
  8
0
  5
293A
 10
70.6901
 20
-90.1661
 30
2.00041e-14
  70
    32
  0
VERTEX
  8
0
  5
293B
 10
70.6883
 20
-90.1641
 30
2.00036e-14
  70
    32
  0
VERTEX
  8
0
  5
293C
 10
70.6866
 20
-90.1621
 30
2.00031e-14
  70
    32
  0
VERTEX
  8
0
  5
293D
 10
70.6849
 20
-90.1601
 30
2.00026e-14
  70
    32
  0
VERTEX
  8
0
  5
293E
 10
70.6832
 20
-90.1581
 30
2.00022e-14
  70
    32
  0
VERTEX
  8
0
  5
293F
 10
70.6815
 20
-90.1561
 30
2.00018e-14
  70
    32
  0
VERTEX
  8
0
  5
2940
 10
70.6799
 20
-90.1542
 30
2.00014e-14
  70
    32
  0
VERTEX
  8
0
  5
2941
 10
70.6782
 20
-90.1523
 30
2.00011e-14
  70
    32
  0
VERTEX
  8
0
  5
2942
 10
70.6766
 20
-90.1503
 30
2.00008e-14
  70
    32
  0
VERTEX
  8
0
  5
2943
 10
70.6749
 20
-90.1484
 30
2.00006e-14
  70
    32
  0
VERTEX
  8
0
  5
2944
 10
70.6733
 20
-90.1466
 30
2.00004e-14
  70
    32
  0
VERTEX
  8
0
  5
2945
 10
70.6717
 20
-90.1447
 30
2.00002e-14
  70
    32
  0
VERTEX
  8
0
  5
2946
 10
70.6701
 20
-90.1428
 30
2.00001e-14
  70
    32
  0
VERTEX
  8
0
  5
2947
 10
70.6686
 20
-90.1410
 30
2.00000e-14
  70
    32
  0
VERTEX
  8
0
  5
2948
 10
70.6670
 20
-90.1392
 30
2.00000e-14
  70
    32
  0
VERTEX
  8
0
  5
2949
 10
70.6655
 20
-90.1374
 30
2.00000e-14
  70
    32
  0
VERTEX
  8
0
  5
294A
 10
70.6639
 20
-90.1356
 30
2.00000e-14
  70
    32
  0
VERTEX
  8
0
  5
294B
 10
70.6624
 20
-90.1338
 30
2.00000e-14
  70
    32
  0
VERTEX
  8
0
  5
294C
 10
70.6609
 20
-90.1321
 30
2.00000e-14
  70
    32
  0
VERTEX
  8
0
  5
294D
 10
70.6594
 20
-90.1303
 30
2.00000e-14
  70
    32
  0
VERTEX
  8
0
  5
294E
 10
70.6579
 20
-90.1286
 30
2.00000e-14
  70
    32
  0
VERTEX
  8
0
  5
294F
 10
70.6565
 20
-90.1269
 30
2.00000e-14
  70
    32
  0
VERTEX
  8
0
  5
2950
 10
70.6550
 20
-90.1252
 30
2.00000e-14
  70
    32
  0
VERTEX
  8
0
  5
2951
 10
70.6536
 20
-90.1236
 30
2.00000e-14
  70
    32
  0
VERTEX
  8
0
  5
2952
 10
70.6522
 20
-90.1219
 30
2.00000e-14
  70
    32
  0
VERTEX
  8
0
  5
2953
 10
70.6508
 20
-90.1203
 30
2.00000e-14
  70
    32
  0
VERTEX
  8
0
  5
2954
 10
70.6494
 20
-90.1186
 30
2.00000e-14
  70
    32
  0
VERTEX
  8
0
  5
2955
 10
70.6480
 20
-90.1170
 30
2.00000e-14
  70
    32
  0
VERTEX
  8
0
  5
2956
 10
70.6466
 20
-90.1154
 30
2.00000e-14
  70
    32
  0
VERTEX
  8
0
  5
2957
 10
70.6453
 20
-90.1138
 30
2.00000e-14
  70
    32
  0
VERTEX
  8
0
  5
2958
 10
70.6439
 20
-90.1123
 30
2.00000e-14
  70
    32
  0
VERTEX
  8
0
  5
2959
 10
70.6426
 20
-90.1107
 30
2.00000e-14
  70
    32
  0
VERTEX
  8
0
  5
295A
 10
70.6413
 20
-90.1092
 30
2.00000e-14
  70
    32
  0
VERTEX
  8
0
  5
295B
 10
70.6400
 20
-90.1077
 30
2.00000e-14
  70
    32
  0
VERTEX
  8
0
  5
295C
 10
70.6387
 20
-90.1062
 30
2.00000e-14
  70
    32
  0
VERTEX
  8
0
  5
295D
 10
70.6374
 20
-90.1047
 30
2.00000e-14
  70
    32
  0
VERTEX
  8
0
  5
295E
 10
70.6362
 20
-90.1032
 30
2.00000e-14
  70
    32
  0
VERTEX
  8
0
  5
295F
 10
70.6349
 20
-90.1018
 30
2.00000e-14
  70
    32
  0
VERTEX
  8
0
  5
2960
 10
70.6337
 20
-90.1003
 30
2.00000e-14
  70
    32
  0
VERTEX
  8
0
  5
2961
 10
70.6325
 20
-90.0989
 30
2.00000e-14
  70
    32
  0
VERTEX
  8
0
  5
2962
 10
70.6313
 20
-90.0975
 30
2.00000e-14
  70
    32
  0
VERTEX
  8
0
  5
2963
 10
70.6301
 20
-90.0961
 30
2.00000e-14
  70
    32
  0
VERTEX
  8
0
  5
2964
 10
70.6289
 20
-90.0948
 30
2.00000e-14
  70
    32
  0
VERTEX
  8
0
  5
2965
 10
70.6277
 20
-90.0934
 30
2.00000e-14
  70
    32
  0
VERTEX
  8
0
  5
2966
 10
70.6266
 20
-90.0921
 30
2.00000e-14
  70
    32
  0
VERTEX
  8
0
  5
2967
 10
70.6255
 20
-90.0907
 30
2.00000e-14
  70
    32
  0
VERTEX
  8
0
  5
2968
 10
70.6243
 20
-90.0894
 30
2.00000e-14
  70
    32
  0
VERTEX
  8
0
  5
2969
 10
70.6232
 20
-90.0881
 30
2.00000e-14
  70
    32
  0
VERTEX
  8
0
  5
296A
 10
70.6221
 20
-90.0868
 30
2.00000e-14
  70
    32
  0
VERTEX
  8
0
  5
296B
 10
70.6210
 20
-90.0856
 30
2.00000e-14
  70
    32
  0
VERTEX
  8
0
  5
296C
 10
70.6200
 20
-90.0843
 30
2.00000e-14
  70
    32
  0
VERTEX
  8
0
  5
296D
 10
70.6189
 20
-90.0831
 30
2.00000e-14
  70
    32
  0
VERTEX
  8
0
  5
296E
 10
70.6179
 20
-90.0819
 30
2.00000e-14
  70
    32
  0
VERTEX
  8
0
  5
296F
 10
70.6169
 20
-90.0807
 30
2.00000e-14
  70
    32
  0
VERTEX
  8
0
  5
2970
 10
70.6158
 20
-90.0795
 30
2.00000e-14
  70
    32
  0
VERTEX
  8
0
  5
2971
 10
70.6148
 20
-90.0783
 30
2.00000e-14
  70
    32
  0
VERTEX
  8
0
  5
2972
 10
70.6138
 20
-90.0772
 30
2.00000e-14
  70
    32
  0
VERTEX
  8
0
  5
2973
 10
70.6129
 20
-90.0761
 30
2.00000e-14
  70
    32
  0
VERTEX
  8
0
  5
2974
 10
70.6119
 20
-90.0749
 30
2.00000e-14
  70
    32
  0
VERTEX
  8
0
  5
2975
 10
70.6110
 20
-90.0738
 30
2.00000e-14
  70
    32
  0
VERTEX
  8
0
  5
2976
 10
70.6100
 20
-90.0727
 30
2.00000e-14
  70
    32
  0
VERTEX
  8
0
  5
2977
 10
70.6091
 20
-90.0717
 30
2.00000e-14
  70
    32
  0
VERTEX
  8
0
  5
2978
 10
70.6082
 20
-90.0706
 30
2.00000e-14
  70
    32
  0
VERTEX
  8
0
  5
2979
 10
70.6073
 20
-90.0696
 30
2.00000e-14
  70
    32
  0
VERTEX
  8
0
  5
297A
 10
70.6064
 20
-90.0685
 30
2.00000e-14
  70
    32
  0
VERTEX
  8
0
  5
297B
 10
70.6056
 20
-90.0675
 30
2.00000e-14
  70
    32
  0
VERTEX
  8
0
  5
297C
 10
70.6047
 20
-90.0665
 30
2.00000e-14
  70
    32
  0
VERTEX
  8
0
  5
297D
 10
70.6039
 20
-90.0656
 30
2.00000e-14
  70
    32
  0
VERTEX
  8
0
  5
297E
 10
70.6031
 20
-90.0646
 30
2.00000e-14
  70
    32
  0
VERTEX
  8
0
  5
297F
 10
70.6022
 20
-90.0636
 30
2.00000e-14
  70
    32
  0
VERTEX
  8
0
  5
2980
 10
70.6014
 20
-90.0627
 30
2.00000e-14
  70
    32
  0
VERTEX
  8
0
  5
2981
 10
70.6007
 20
-90.0618
 30
2.00000e-14
  70
    32
  0
VERTEX
  8
0
  5
2982
 10
70.5999
 20
-90.0609
 30
2.00000e-14
  70
    32
  0
VERTEX
  8
0
  5
2983
 10
70.5991
 20
-90.0600
 30
2.00000e-14
  70
    32
  0
VERTEX
  8
0
  5
2984
 10
70.5984
 20
-90.0591
 30
2.00000e-14
  70
    32
  0
VERTEX
  8
0
  5
2985
 10
70.5976
 20
-90.0583
 30
2.00000e-14
  70
    32
  0
VERTEX
  8
0
  5
2986
 10
70.5969
 20
-90.0574
 30
2.00000e-14
  70
    32
  0
VERTEX
  8
0
  5
2987
 10
70.5962
 20
-90.0566
 30
2.00000e-14
  70
    32
  0
VERTEX
  8
0
  5
2988
 10
70.5955
 20
-90.0558
 30
2.00000e-14
  70
    32
  0
VERTEX
  8
0
  5
2989
 10
70.5948
 20
-90.0550
 30
2.00000e-14
  70
    32
  0
VERTEX
  8
0
  5
298A
 10
70.5942
 20
-90.0542
 30
2.00000e-14
  70
    32
  0
VERTEX
  8
0
  5
298B
 10
70.5935
 20
-90.0535
 30
2.00000e-14
  70
    32
  0
VERTEX
  8
0
  5
298C
 10
70.5929
 20
-90.0527
 30
2.00000e-14
  70
    32
  0
VERTEX
  8
0
  5
298D
 10
70.5923
 20
-90.0520
 30
2.00000e-14
  70
    32
  0
VERTEX
  8
0
  5
298E
 10
70.5917
 20
-90.0513
 30
2.00000e-14
  70
    32
  0
VERTEX
  8
0
  5
298F
 10
70.5911
 20
-90.0506
 30
2.00000e-14
  70
    32
  0
VERTEX
  8
0
  5
2990
 10
70.5905
 20
-90.0499
 30
2.00000e-14
  70
    32
  0
VERTEX
  8
0
  5
2991
 10
70.5899
 20
-90.0492
 30
2.00000e-14
  70
    32
  0
VERTEX
  8
0
  5
2992
 10
70.5893
 20
-90.0486
 30
2.00000e-14
  70
    32
  0
VERTEX
  8
0
  5
2993
 10
70.5888
 20
-90.0479
 30
2.00000e-14
  70
    32
  0
VERTEX
  8
0
  5
2994
 10
70.5883
 20
-90.0473
 30
2.00000e-14
  70
    32
  0
VERTEX
  8
0
  5
2995
 10
70.5877
 20
-90.0467
 30
2.00000e-14
  70
    32
  0
VERTEX
  8
0
  5
2996
 10
70.5872
 20
-90.0461
 30
2.00000e-14
  70
    32
  0
VERTEX
  8
0
  5
2997
 10
70.5867
 20
-90.0455
 30
2.00000e-14
  70
    32
  0
VERTEX
  8
0
  5
2998
 10
70.5863
 20
-90.0450
 30
2.00000e-14
  70
    32
  0
VERTEX
  8
0
  5
2999
 10
70.5858
 20
-90.0444
 30
2.00000e-14
  70
    32
  0
VERTEX
  8
0
  5
299A
 10
70.5853
 20
-90.0439
 30
2.00000e-14
  70
    32
  0
VERTEX
  8
0
  5
299B
 10
70.5849
 20
-90.0434
 30
2.00000e-14
  70
    32
  0
VERTEX
  8
0
  5
299C
 10
70.5845
 20
-90.0429
 30
2.00000e-14
  70
    32
  0
VERTEX
  8
0
  5
299D
 10
70.5841
 20
-90.0424
 30
2.00000e-14
  70
    32
  0
VERTEX
  8
0
  5
299E
 10
70.5837
 20
-90.0419
 30
2.00000e-14
  70
    32
  0
VERTEX
  8
0
  5
299F
 10
70.5833
 20
-90.0415
 30
2.00000e-14
  70
    32
  0
VERTEX
  8
0
  5
29A0
 10
70.5829
 20
-90.0411
 30
2.00000e-14
  70
    32
  0
VERTEX
  8
0
  5
29A1
 10
70.5825
 20
-90.0406
 30
2.00000e-14
  70
    32
  0
VERTEX
  8
0
  5
29A2
 10
70.5822
 20
-90.0402
 30
2.00000e-14
  70
    32
  0
VERTEX
  8
0
  5
29A3
 10
70.5819
 20
-90.0398
 30
2.00000e-14
  70
    32
  0
VERTEX
  8
0
  5
29A4
 10
70.5815
 20
-90.0395
 30
2.00000e-14
  70
    32
  0
VERTEX
  8
0
  5
29A5
 10
70.5812
 20
-90.0391
 30
2.00000e-14
  70
    32
  0
VERTEX
  8
0
  5
29A6
 10
70.5809
 20
-90.0388
 30
2.00000e-14
  70
    32
  0
VERTEX
  8
0
  5
29A7
 10
70.5807
 20
-90.0384
 30
2.00000e-14
  70
    32
  0
VERTEX
  8
0
  5
29A8
 10
70.5804
 20
-90.0381
 30
2.00000e-14
  70
    32
  0
VERTEX
  8
0
  5
29A9
 10
70.5801
 20
-90.0378
 30
2.00000e-14
  70
    32
  0
VERTEX
  8
0
  5
29AA
 10
70.5799
 20
-90.0375
 30
2.00000e-14
  70
    32
  0
VERTEX
  8
0
  5
29AB
 10
70.5797
 20
-90.0373
 30
2.00000e-14
  70
    32
  0
VERTEX
  8
0
  5
29AC
 10
70.5795
 20
-90.0370
 30
2.00000e-14
  70
    32
  0
VERTEX
  8
0
  5
29AD
 10
70.5793
 20
-90.0368
 30
2.00000e-14
  70
    32
  0
VERTEX
  8
0
  5
29AE
 10
70.5791
 20
-90.0366
 30
2.00000e-14
  70
    32
  0
VERTEX
  8
0
  5
29AF
 10
70.5789
 20
-90.0364
 30
2.00000e-14
  70
    32
  0
VERTEX
  8
0
  5
29B0
 10
70.5787
 20
-90.0362
 30
2.00000e-14
  70
    32
  0
VERTEX
  8
0
  5
29B1
 10
70.5786
 20
-90.0360
 30
2.00000e-14
  70
    32
  0
VERTEX
  8
0
  5
29B2
 10
70.5784
 20
-90.0358
 30
2.00000e-14
  70
    32
  0
VERTEX
  8
0
  5
29B3
 10
70.5783
 20
-90.0357
 30
2.00000e-14
  70
    32
  0
VERTEX
  8
0
  5
29B4
 10
70.5782
 20
-90.0356
 30
2.00000e-14
  70
    32
  0
VERTEX
  8
0
  5
29B5
 10
70.5781
 20
-90.0354
 30
2.00000e-14
  70
    32
  0
VERTEX
  8
0
  5
29B6
 10
70.5780
 20
-90.0353
 30
2.00000e-14
  70
    32
  0
VERTEX
  8
0
  5
29B7
 10
70.5779
 20
-90.0353
 30
2.00000e-14
  70
    32
  0
VERTEX
  8
0
  5
29B8
 10
70.5779
 20
-90.0352
 30
2.00000e-14
  70
    32
  0
VERTEX
  8
0
  5
29B9
 10
70.5778
 20
-90.0351
 30
2.00000e-14
  70
    32
  0
VERTEX
  8
0
  5
29BA
 10
70.5778
 20
-90.0351
 30
2.00000e-14
  70
    32
  0
VERTEX
  8
0
  5
29BB
 10
70.5778
 20
-90.0351
 30
2.00000e-14
  70
    32
  0
VERTEX
  8
0
  5
29BC
 10
70.5778
 20
-90.0351
 30
2.00000e-14
  70
    32
  0
SEQEND
  8
0
  5
29BD
  0
POLYLINE
  8
0
  5
29BE
  66
     1
 10
0.000000
 20
0.000000
 30
0.000000
  70
     8
  0
VERTEX
  8
0
  5
29BF
 10
-36.4222
 20
-90.0351
 30
2.00000e-14
  70
    32
  0
VERTEX
  8
0
  5
29C0
 10
-36.4222
 20
-90.0351
 30
2.00000e-14
  70
    32
  0
VERTEX
  8
0
  5
29C1
 10
-36.4222
 20
-90.0351
 30
2.00000e-14
  70
    32
  0
VERTEX
  8
0
  5
29C2
 10
-36.4223
 20
-90.0351
 30
2.00000e-14
  70
    32
  0
VERTEX
  8
0
  5
29C3
 10
-36.4223
 20
-90.0352
 30
2.00000e-14
  70
    32
  0
VERTEX
  8
0
  5
29C4
 10
-36.4224
 20
-90.0353
 30
2.00000e-14
  70
    32
  0
VERTEX
  8
0
  5
29C5
 10
-36.4225
 20
-90.0353
 30
2.00000e-14
  70
    32
  0
VERTEX
  8
0
  5
29C6
 10
-36.4225
 20
-90.0354
 30
2.00000e-14
  70
    32
  0
VERTEX
  8
0
  5
29C7
 10
-36.4226
 20
-90.0356
 30
2.00000e-14
  70
    32
  0
VERTEX
  8
0
  5
29C8
 10
-36.4227
 20
-90.0357
 30
2.00000e-14
  70
    32
  0
VERTEX
  8
0
  5
29C9
 10
-36.4229
 20
-90.0358
 30
2.00000e-14
  70
    32
  0
VERTEX
  8
0
  5
29CA
 10
-36.4230
 20
-90.0360
 30
2.00000e-14
  70
    32
  0
VERTEX
  8
0
  5
29CB
 10
-36.4232
 20
-90.0362
 30
2.00000e-14
  70
    32
  0
VERTEX
  8
0
  5
29CC
 10
-36.4233
 20
-90.0364
 30
2.00000e-14
  70
    32
  0
VERTEX
  8
0
  5
29CD
 10
-36.4235
 20
-90.0366
 30
2.00000e-14
  70
    32
  0
VERTEX
  8
0
  5
29CE
 10
-36.4237
 20
-90.0368
 30
2.00000e-14
  70
    32
  0
VERTEX
  8
0
  5
29CF
 10
-36.4239
 20
-90.0370
 30
2.00000e-14
  70
    32
  0
VERTEX
  8
0
  5
29D0
 10
-36.4241
 20
-90.0373
 30
2.00000e-14
  70
    32
  0
VERTEX
  8
0
  5
29D1
 10
-36.4243
 20
-90.0375
 30
2.00000e-14
  70
    32
  0
VERTEX
  8
0
  5
29D2
 10
-36.4246
 20
-90.0378
 30
2.00000e-14
  70
    32
  0
VERTEX
  8
0
  5
29D3
 10
-36.4248
 20
-90.0381
 30
2.00000e-14
  70
    32
  0
VERTEX
  8
0
  5
29D4
 10
-36.4251
 20
-90.0384
 30
2.00000e-14
  70
    32
  0
VERTEX
  8
0
  5
29D5
 10
-36.4254
 20
-90.0388
 30
2.00000e-14
  70
    32
  0
VERTEX
  8
0
  5
29D6
 10
-36.4257
 20
-90.0391
 30
2.00000e-14
  70
    32
  0
VERTEX
  8
0
  5
29D7
 10
-36.4260
 20
-90.0395
 30
2.00000e-14
  70
    32
  0
VERTEX
  8
0
  5
29D8
 10
-36.4263
 20
-90.0398
 30
2.00000e-14
  70
    32
  0
VERTEX
  8
0
  5
29D9
 10
-36.4266
 20
-90.0402
 30
2.00000e-14
  70
    32
  0
VERTEX
  8
0
  5
29DA
 10
-36.4270
 20
-90.0406
 30
2.00000e-14
  70
    32
  0
VERTEX
  8
0
  5
29DB
 10
-36.4273
 20
-90.0411
 30
2.00000e-14
  70
    32
  0
VERTEX
  8
0
  5
29DC
 10
-36.4277
 20
-90.0415
 30
2.00000e-14
  70
    32
  0
VERTEX
  8
0
  5
29DD
 10
-36.4281
 20
-90.0419
 30
2.00000e-14
  70
    32
  0
VERTEX
  8
0
  5
29DE
 10
-36.4285
 20
-90.0424
 30
2.00000e-14
  70
    32
  0
VERTEX
  8
0
  5
29DF
 10
-36.4289
 20
-90.0429
 30
2.00000e-14
  70
    32
  0
VERTEX
  8
0
  5
29E0
 10
-36.4293
 20
-90.0434
 30
2.00000e-14
  70
    32
  0
VERTEX
  8
0
  5
29E1
 10
-36.4298
 20
-90.0439
 30
2.00000e-14
  70
    32
  0
VERTEX
  8
0
  5
29E2
 10
-36.4302
 20
-90.0444
 30
2.00000e-14
  70
    32
  0
VERTEX
  8
0
  5
29E3
 10
-36.4307
 20
-90.0450
 30
2.00000e-14
  70
    32
  0
VERTEX
  8
0
  5
29E4
 10
-36.4312
 20
-90.0455
 30
2.00000e-14
  70
    32
  0
VERTEX
  8
0
  5
29E5
 10
-36.4317
 20
-90.0461
 30
2.00000e-14
  70
    32
  0
VERTEX
  8
0
  5
29E6
 10
-36.4322
 20
-90.0467
 30
2.00000e-14
  70
    32
  0
VERTEX
  8
0
  5
29E7
 10
-36.4327
 20
-90.0473
 30
2.00000e-14
  70
    32
  0
VERTEX
  8
0
  5
29E8
 10
-36.4332
 20
-90.0479
 30
2.00000e-14
  70
    32
  0
VERTEX
  8
0
  5
29E9
 10
-36.4338
 20
-90.0486
 30
2.00000e-14
  70
    32
  0
VERTEX
  8
0
  5
29EA
 10
-36.4343
 20
-90.0492
 30
2.00000e-14
  70
    32
  0
VERTEX
  8
0
  5
29EB
 10
-36.4349
 20
-90.0499
 30
2.00000e-14
  70
    32
  0
VERTEX
  8
0
  5
29EC
 10
-36.4355
 20
-90.0506
 30
2.00000e-14
  70
    32
  0
VERTEX
  8
0
  5
29ED
 10
-36.4361
 20
-90.0513
 30
2.00000e-14
  70
    32
  0
VERTEX
  8
0
  5
29EE
 10
-36.4367
 20
-90.0520
 30
2.00000e-14
  70
    32
  0
VERTEX
  8
0
  5
29EF
 10
-36.4373
 20
-90.0527
 30
2.00000e-14
  70
    32
  0
VERTEX
  8
0
  5
29F0
 10
-36.4380
 20
-90.0535
 30
2.00000e-14
  70
    32
  0
VERTEX
  8
0
  5
29F1
 10
-36.4386
 20
-90.0542
 30
2.00000e-14
  70
    32
  0
VERTEX
  8
0
  5
29F2
 10
-36.4393
 20
-90.0550
 30
2.00000e-14
  70
    32
  0
VERTEX
  8
0
  5
29F3
 10
-36.4400
 20
-90.0558
 30
2.00000e-14
  70
    32
  0
VERTEX
  8
0
  5
29F4
 10
-36.4407
 20
-90.0566
 30
2.00000e-14
  70
    32
  0
VERTEX
  8
0
  5
29F5
 10
-36.4414
 20
-90.0574
 30
2.00000e-14
  70
    32
  0
VERTEX
  8
0
  5
29F6
 10
-36.4421
 20
-90.0583
 30
2.00000e-14
  70
    32
  0
VERTEX
  8
0
  5
29F7
 10
-36.4428
 20
-90.0591
 30
2.00000e-14
  70
    32
  0
VERTEX
  8
0
  5
29F8
 10
-36.4436
 20
-90.0600
 30
2.00000e-14
  70
    32
  0
VERTEX
  8
0
  5
29F9
 10
-36.4443
 20
-90.0609
 30
2.00000e-14
  70
    32
  0
VERTEX
  8
0
  5
29FA
 10
-36.4451
 20
-90.0618
 30
2.00000e-14
  70
    32
  0
VERTEX
  8
0
  5
29FB
 10
-36.4459
 20
-90.0627
 30
2.00000e-14
  70
    32
  0
VERTEX
  8
0
  5
29FC
 10
-36.4467
 20
-90.0636
 30
2.00000e-14
  70
    32
  0
VERTEX
  8
0
  5
29FD
 10
-36.4475
 20
-90.0646
 30
2.00000e-14
  70
    32
  0
VERTEX
  8
0
  5
29FE
 10
-36.4483
 20
-90.0656
 30
2.00000e-14
  70
    32
  0
VERTEX
  8
0
  5
29FF
 10
-36.4492
 20
-90.0665
 30
2.00000e-14
  70
    32
  0
VERTEX
  8
0
  5
2A00
 10
-36.4500
 20
-90.0675
 30
2.00000e-14
  70
    32
  0
VERTEX
  8
0
  5
2A01
 10
-36.4509
 20
-90.0685
 30
2.00000e-14
  70
    32
  0
VERTEX
  8
0
  5
2A02
 10
-36.4517
 20
-90.0696
 30
2.00000e-14
  70
    32
  0
VERTEX
  8
0
  5
2A03
 10
-36.4526
 20
-90.0706
 30
2.00000e-14
  70
    32
  0
VERTEX
  8
0
  5
2A04
 10
-36.4535
 20
-90.0717
 30
2.00000e-14
  70
    32
  0
VERTEX
  8
0
  5
2A05
 10
-36.4545
 20
-90.0727
 30
2.00000e-14
  70
    32
  0
VERTEX
  8
0
  5
2A06
 10
-36.4554
 20
-90.0738
 30
2.00000e-14
  70
    32
  0
VERTEX
  8
0
  5
2A07
 10
-36.4563
 20
-90.0749
 30
2.00000e-14
  70
    32
  0
VERTEX
  8
0
  5
2A08
 10
-36.4573
 20
-90.0761
 30
2.00000e-14
  70
    32
  0
VERTEX
  8
0
  5
2A09
 10
-36.4583
 20
-90.0772
 30
2.00000e-14
  70
    32
  0
VERTEX
  8
0
  5
2A0A
 10
-36.4593
 20
-90.0783
 30
2.00000e-14
  70
    32
  0
VERTEX
  8
0
  5
2A0B
 10
-36.4603
 20
-90.0795
 30
2.00000e-14
  70
    32
  0
VERTEX
  8
0
  5
2A0C
 10
-36.4613
 20
-90.0807
 30
2.00000e-14
  70
    32
  0
VERTEX
  8
0
  5
2A0D
 10
-36.4623
 20
-90.0819
 30
2.00000e-14
  70
    32
  0
VERTEX
  8
0
  5
2A0E
 10
-36.4634
 20
-90.0831
 30
2.00000e-14
  70
    32
  0
VERTEX
  8
0
  5
2A0F
 10
-36.4644
 20
-90.0843
 30
2.00000e-14
  70
    32
  0
VERTEX
  8
0
  5
2A10
 10
-36.4655
 20
-90.0856
 30
2.00000e-14
  70
    32
  0
VERTEX
  8
0
  5
2A11
 10
-36.4666
 20
-90.0868
 30
2.00000e-14
  70
    32
  0
VERTEX
  8
0
  5
2A12
 10
-36.4677
 20
-90.0881
 30
2.00000e-14
  70
    32
  0
VERTEX
  8
0
  5
2A13
 10
-36.4688
 20
-90.0894
 30
2.00000e-14
  70
    32
  0
VERTEX
  8
0
  5
2A14
 10
-36.4699
 20
-90.0907
 30
2.00000e-14
  70
    32
  0
VERTEX
  8
0
  5
2A15
 10
-36.4710
 20
-90.0921
 30
2.00000e-14
  70
    32
  0
VERTEX
  8
0
  5
2A16
 10
-36.4722
 20
-90.0934
 30
2.00000e-14
  70
    32
  0
VERTEX
  8
0
  5
2A17
 10
-36.4733
 20
-90.0948
 30
2.00000e-14
  70
    32
  0
VERTEX
  8
0
  5
2A18
 10
-36.4745
 20
-90.0961
 30
2.00000e-14
  70
    32
  0
VERTEX
  8
0
  5
2A19
 10
-36.4757
 20
-90.0975
 30
2.00000e-14
  70
    32
  0
VERTEX
  8
0
  5
2A1A
 10
-36.4769
 20
-90.0989
 30
2.00000e-14
  70
    32
  0
VERTEX
  8
0
  5
2A1B
 10
-36.4781
 20
-90.1003
 30
2.00000e-14
  70
    32
  0
VERTEX
  8
0
  5
2A1C
 10
-36.4794
 20
-90.1018
 30
2.00000e-14
  70
    32
  0
VERTEX
  8
0
  5
2A1D
 10
-36.4806
 20
-90.1032
 30
2.00000e-14
  70
    32
  0
VERTEX
  8
0
  5
2A1E
 10
-36.4819
 20
-90.1047
 30
2.00000e-14
  70
    32
  0
VERTEX
  8
0
  5
2A1F
 10
-36.4831
 20
-90.1062
 30
2.00000e-14
  70
    32
  0
VERTEX
  8
0
  5
2A20
 10
-36.4844
 20
-90.1077
 30
2.00000e-14
  70
    32
  0
VERTEX
  8
0
  5
2A21
 10
-36.4857
 20
-90.1092
 30
2.00000e-14
  70
    32
  0
VERTEX
  8
0
  5
2A22
 10
-36.4870
 20
-90.1107
 30
2.00000e-14
  70
    32
  0
VERTEX
  8
0
  5
2A23
 10
-36.4884
 20
-90.1123
 30
2.00000e-14
  70
    32
  0
VERTEX
  8
0
  5
2A24
 10
-36.4897
 20
-90.1138
 30
2.00000e-14
  70
    32
  0
VERTEX
  8
0
  5
2A25
 10
-36.4910
 20
-90.1154
 30
2.00000e-14
  70
    32
  0
VERTEX
  8
0
  5
2A26
 10
-36.4924
 20
-90.1170
 30
2.00000e-14
  70
    32
  0
VERTEX
  8
0
  5
2A27
 10
-36.4938
 20
-90.1186
 30
2.00000e-14
  70
    32
  0
VERTEX
  8
0
  5
2A28
 10
-36.4952
 20
-90.1203
 30
2.00000e-14
  70
    32
  0
VERTEX
  8
0
  5
2A29
 10
-36.4966
 20
-90.1219
 30
2.00000e-14
  70
    32
  0
VERTEX
  8
0
  5
2A2A
 10
-36.4980
 20
-90.1236
 30
2.00000e-14
  70
    32
  0
VERTEX
  8
0
  5
2A2B
 10
-36.4995
 20
-90.1252
 30
2.00000e-14
  70
    32
  0
VERTEX
  8
0
  5
2A2C
 10
-36.5009
 20
-90.1269
 30
2.00000e-14
  70
    32
  0
VERTEX
  8
0
  5
2A2D
 10
-36.5024
 20
-90.1286
 30
2.00000e-14
  70
    32
  0
VERTEX
  8
0
  5
2A2E
 10
-36.5038
 20
-90.1303
 30
2.00000e-14
  70
    32
  0
VERTEX
  8
0
  5
2A2F
 10
-36.5053
 20
-90.1321
 30
2.00000e-14
  70
    32
  0
VERTEX
  8
0
  5
2A30
 10
-36.5068
 20
-90.1338
 30
2.00000e-14
  70
    32
  0
VERTEX
  8
0
  5
2A31
 10
-36.5084
 20
-90.1356
 30
2.00000e-14
  70
    32
  0
VERTEX
  8
0
  5
2A32
 10
-36.5099
 20
-90.1374
 30
2.00000e-14
  70
    32
  0
VERTEX
  8
0
  5
2A33
 10
-36.5114
 20
-90.1392
 30
2.00000e-14
  70
    32
  0
VERTEX
  8
0
  5
2A34
 10
-36.5130
 20
-90.1410
 30
2.00000e-14
  70
    32
  0
VERTEX
  8
0
  5
2A35
 10
-36.5146
 20
-90.1428
 30
2.00001e-14
  70
    32
  0
VERTEX
  8
0
  5
2A36
 10
-36.5162
 20
-90.1447
 30
2.00002e-14
  70
    32
  0
VERTEX
  8
0
  5
2A37
 10
-36.5178
 20
-90.1466
 30
2.00004e-14
  70
    32
  0
VERTEX
  8
0
  5
2A38
 10
-36.5194
 20
-90.1484
 30
2.00006e-14
  70
    32
  0
VERTEX
  8
0
  5
2A39
 10
-36.5210
 20
-90.1503
 30
2.00008e-14
  70
    32
  0
VERTEX
  8
0
  5
2A3A
 10
-36.5226
 20
-90.1523
 30
2.00011e-14
  70
    32
  0
VERTEX
  8
0
  5
2A3B
 10
-36.5243
 20
-90.1542
 30
2.00014e-14
  70
    32
  0
VERTEX
  8
0
  5
2A3C
 10
-36.5260
 20
-90.1561
 30
2.00018e-14
  70
    32
  0
VERTEX
  8
0
  5
2A3D
 10
-36.5276
 20
-90.1581
 30
2.00022e-14
  70
    32
  0
VERTEX
  8
0
  5
2A3E
 10
-36.5293
 20
-90.1601
 30
2.00026e-14
  70
    32
  0
VERTEX
  8
0
  5
2A3F
 10
-36.5311
 20
-90.1621
 30
2.00031e-14
  70
    32
  0
VERTEX
  8
0
  5
2A40
 10
-36.5328
 20
-90.1641
 30
2.00036e-14
  70
    32
  0
VERTEX
  8
0
  5
2A41
 10
-36.5345
 20
-90.1661
 30
2.00041e-14
  70
    32
  0
VERTEX
  8
0
  5
2A42
 10
-36.5363
 20
-90.1681
 30
2.00047e-14
  70
    32
  0
VERTEX
  8
0
  5
2A43
 10
-36.5380
 20
-90.1702
 30
2.00053e-14
  70
    32
  0
VERTEX
  8
0
  5
2A44
 10
-36.5398
 20
-90.1723
 30
2.00060e-14
  70
    32
  0
VERTEX
  8
0
  5
2A45
 10
-36.5416
 20
-90.1743
 30
2.00066e-14
  70
    32
  0
VERTEX
  8
0
  5
2A46
 10
-36.5434
 20
-90.1764
 30
2.00073e-14
  70
    32
  0
VERTEX
  8
0
  5
2A47
 10
-36.5452
 20
-90.1786
 30
2.00081e-14
  70
    32
  0
VERTEX
  8
0
  5
2A48
 10
-36.5470
 20
-90.1807
 30
2.00088e-14
  70
    32
  0
VERTEX
  8
0
  5
2A49
 10
-36.5489
 20
-90.1828
 30
2.00096e-14
  70
    32
  0
VERTEX
  8
0
  5
2A4A
 10
-36.5507
 20
-90.1850
 30
2.00104e-14
  70
    32
  0
VERTEX
  8
0
  5
2A4B
 10
-36.5526
 20
-90.1872
 30
2.00113e-14
  70
    32
  0
VERTEX
  8
0
  5
2A4C
 10
-36.5545
 20
-90.1894
 30
2.00121e-14
  70
    32
  0
VERTEX
  8
0
  5
2A4D
 10
-36.5564
 20
-90.1916
 30
2.00130e-14
  70
    32
  0
VERTEX
  8
0
  5
2A4E
 10
-36.5583
 20
-90.1938
 30
2.00139e-14
  70
    32
  0
VERTEX
  8
0
  5
2A4F
 10
-36.5602
 20
-90.1961
 30
2.00149e-14
  70
    32
  0
VERTEX
  8
0
  5
2A50
 10
-36.5622
 20
-90.1983
 30
2.00159e-14
  70
    32
  0
VERTEX
  8
0
  5
2A51
 10
-36.5641
 20
-90.2006
 30
2.00168e-14
  70
    32
  0
VERTEX
  8
0
  5
2A52
 10
-36.5661
 20
-90.2029
 30
2.00179e-14
  70
    32
  0
VERTEX
  8
0
  5
2A53
 10
-36.5681
 20
-90.2052
 30
2.00189e-14
  70
    32
  0
VERTEX
  8
0
  5
2A54
 10
-36.5700
 20
-90.2075
 30
2.00199e-14
  70
    32
  0
VERTEX
  8
0
  5
2A55
 10
-36.5720
 20
-90.2098
 30
2.00210e-14
  70
    32
  0
VERTEX
  8
0
  5
2A56
 10
-36.5741
 20
-90.2122
 30
2.00221e-14
  70
    32
  0
VERTEX
  8
0
  5
2A57
 10
-36.5761
 20
-90.2145
 30
2.00232e-14
  70
    32
  0
VERTEX
  8
0
  5
2A58
 10
-36.5781
 20
-90.2169
 30
2.00243e-14
  70
    32
  0
VERTEX
  8
0
  5
2A59
 10
-36.5802
 20
-90.2193
 30
2.00255e-14
  70
    32
  0
VERTEX
  8
0
  5
2A5A
 10
-36.5823
 20
-90.2217
 30
2.00266e-14
  70
    32
  0
VERTEX
  8
0
  5
2A5B
 10
-36.5843
 20
-90.2241
 30
2.00278e-14
  70
    32
  0
VERTEX
  8
0
  5
2A5C
 10
-36.5864
 20
-90.2266
 30
2.00290e-14
  70
    32
  0
VERTEX
  8
0
  5
2A5D
 10
-36.5885
 20
-90.2290
 30
2.00301e-14
  70
    32
  0
VERTEX
  8
0
  5
2A5E
 10
-36.5907
 20
-90.2315
 30
2.00314e-14
  70
    32
  0
VERTEX
  8
0
  5
2A5F
 10
-36.5928
 20
-90.2340
 30
2.00326e-14
  70
    32
  0
VERTEX
  8
0
  5
2A60
 10
-36.5949
 20
-90.2365
 30
2.00338e-14
  70
    32
  0
VERTEX
  8
0
  5
2A61
 10
-36.5971
 20
-90.2390
 30
2.00350e-14
  70
    32
  0
VERTEX
  8
0
  5
2A62
 10
-36.5993
 20
-90.2415
 30
2.00363e-14
  70
    32
  0
VERTEX
  8
0
  5
2A63
 10
-36.6015
 20
-90.2441
 30
2.00375e-14
  70
    32
  0
VERTEX
  8
0
  5
2A64
 10
-36.6037
 20
-90.2466
 30
2.00388e-14
  70
    32
  0
VERTEX
  8
0
  5
2A65
 10
-36.6059
 20
-90.2492
 30
2.00401e-14
  70
    32
  0
VERTEX
  8
0
  5
2A66
 10
-36.6081
 20
-90.2518
 30
2.00413e-14
  70
    32
  0
VERTEX
  8
0
  5
2A67
 10
-36.6103
 20
-90.2544
 30
2.00426e-14
  70
    32
  0
VERTEX
  8
0
  5
2A68
 10
-36.6126
 20
-90.2570
 30
2.00439e-14
  70
    32
  0
VERTEX
  8
0
  5
2A69
 10
-36.6148
 20
-90.2596
 30
2.00452e-14
  70
    32
  0
VERTEX
  8
0
  5
2A6A
 10
-36.6171
 20
-90.2623
 30
2.00465e-14
  70
    32
  0
VERTEX
  8
0
  5
2A6B
 10
-36.6194
 20
-90.2649
 30
2.00478e-14
  70
    32
  0
VERTEX
  8
0
  5
2A6C
 10
-36.6217
 20
-90.2676
 30
2.00491e-14
  70
    32
  0
VERTEX
  8
0
  5
2A6D
 10
-36.6240
 20
-90.2703
 30
2.00504e-14
  70
    32
  0
VERTEX
  8
0
  5
2A6E
 10
-36.6263
 20
-90.2730
 30
2.00517e-14
  70
    32
  0
VERTEX
  8
0
  5
2A6F
 10
-36.6287
 20
-90.2757
 30
2.00530e-14
  70
    32
  0
VERTEX
  8
0
  5
2A70
 10
-36.6310
 20
-90.2785
 30
2.00542e-14
  70
    32
  0
VERTEX
  8
0
  5
2A71
 10
-36.6334
 20
-90.2812
 30
2.00555e-14
  70
    32
  0
VERTEX
  8
0
  5
2A72
 10
-36.6358
 20
-90.2840
 30
2.00568e-14
  70
    32
  0
VERTEX
  8
0
  5
2A73
 10
-36.6382
 20
-90.2868
 30
2.00581e-14
  70
    32
  0
VERTEX
  8
0
  5
2A74
 10
-36.6406
 20
-90.2896
 30
2.00594e-14
  70
    32
  0
VERTEX
  8
0
  5
2A75
 10
-36.6430
 20
-90.2924
 30
2.00607e-14
  70
    32
  0
VERTEX
  8
0
  5
2A76
 10
-36.6454
 20
-90.2952
 30
2.00619e-14
  70
    32
  0
VERTEX
  8
0
  5
2A77
 10
-36.6479
 20
-90.2980
 30
2.00632e-14
  70
    32
  0
VERTEX
  8
0
  5
2A78
 10
-36.6503
 20
-90.3009
 30
2.00644e-14
  70
    32
  0
VERTEX
  8
0
  5
2A79
 10
-36.6528
 20
-90.3037
 30
2.00657e-14
  70
    32
  0
VERTEX
  8
0
  5
2A7A
 10
-36.6553
 20
-90.3066
 30
2.00669e-14
  70
    32
  0
VERTEX
  8
0
  5
2A7B
 10
-36.6577
 20
-90.3095
 30
2.00681e-14
  70
    32
  0
VERTEX
  8
0
  5
2A7C
 10
-36.6602
 20
-90.3124
 30
2.00693e-14
  70
    32
  0
VERTEX
  8
0
  5
2A7D
 10
-36.6628
 20
-90.3153
 30
2.00705e-14
  70
    32
  0
VERTEX
  8
0
  5
2A7E
 10
-36.6653
 20
-90.3183
 30
2.00717e-14
  70
    32
  0
VERTEX
  8
0
  5
2A7F
 10
-36.6678
 20
-90.3212
 30
2.00729e-14
  70
    32
  0
VERTEX
  8
0
  5
2A80
 10
-36.6704
 20
-90.3242
 30
2.00741e-14
  70
    32
  0
VERTEX
  8
0
  5
2A81
 10
-36.6729
 20
-90.3272
 30
2.00752e-14
  70
    32
  0
VERTEX
  8
0
  5
2A82
 10
-36.6755
 20
-90.3302
 30
2.00763e-14
  70
    32
  0
VERTEX
  8
0
  5
2A83
 10
-36.6781
 20
-90.3332
 30
2.00774e-14
  70
    32
  0
VERTEX
  8
0
  5
2A84
 10
-36.6807
 20
-90.3362
 30
2.00785e-14
  70
    32
  0
VERTEX
  8
0
  5
2A85
 10
-36.6833
 20
-90.3392
 30
2.00796e-14
  70
    32
  0
VERTEX
  8
0
  5
2A86
 10
-36.6860
 20
-90.3423
 30
2.00807e-14
  70
    32
  0
VERTEX
  8
0
  5
2A87
 10
-36.6886
 20
-90.3454
 30
2.00817e-14
  70
    32
  0
VERTEX
  8
0
  5
2A88
 10
-36.6913
 20
-90.3484
 30
2.00827e-14
  70
    32
  0
VERTEX
  8
0
  5
2A89
 10
-36.6939
 20
-90.3515
 30
2.00837e-14
  70
    32
  0
VERTEX
  8
0
  5
2A8A
 10
-36.6966
 20
-90.3546
 30
2.00847e-14
  70
    32
  0
VERTEX
  8
0
  5
2A8B
 10
-36.6993
 20
-90.3578
 30
2.00856e-14
  70
    32
  0
VERTEX
  8
0
  5
2A8C
 10
-36.7020
 20
-90.3609
 30
2.00866e-14
  70
    32
  0
VERTEX
  8
0
  5
2A8D
 10
-36.7047
 20
-90.3641
 30
2.00875e-14
  70
    32
  0
VERTEX
  8
0
  5
2A8E
 10
-36.7074
 20
-90.3672
 30
2.00884e-14
  70
    32
  0
VERTEX
  8
0
  5
2A8F
 10
-36.7102
 20
-90.3704
 30
2.00892e-14
  70
    32
  0
VERTEX
  8
0
  5
2A90
 10
-36.7129
 20
-90.3736
 30
2.00900e-14
  70
    32
  0
VERTEX
  8
0
  5
2A91
 10
-36.7157
 20
-90.3768
 30
2.00908e-14
  70
    32
  0
VERTEX
  8
0
  5
2A92
 10
-36.7184
 20
-90.3800
 30
2.00916e-14
  70
    32
  0
VERTEX
  8
0
  5
2A93
 10
-36.7212
 20
-90.3833
 30
2.00924e-14
  70
    32
  0
VERTEX
  8
0
  5
2A94
 10
-36.7240
 20
-90.3865
 30
2.00931e-14
  70
    32
  0
VERTEX
  8
0
  5
2A95
 10
-36.7268
 20
-90.3898
 30
2.00938e-14
  70
    32
  0
VERTEX
  8
0
  5
2A96
 10
-36.7297
 20
-90.3930
 30
2.00944e-14
  70
    32
  0
VERTEX
  8
0
  5
2A97
 10
-36.7325
 20
-90.3963
 30
2.00950e-14
  70
    32
  0
VERTEX
  8
0
  5
2A98
 10
-36.7353
 20
-90.3996
 30
2.00956e-14
  70
    32
  0
VERTEX
  8
0
  5
2A99
 10
-36.7382
 20
-90.4029
 30
2.00962e-14
  70
    32
  0
VERTEX
  8
0
  5
2A9A
 10
-36.7411
 20
-90.4063
 30
2.00967e-14
  70
    32
  0
VERTEX
  8
0
  5
2A9B
 10
-36.7440
 20
-90.4096
 30
2.00972e-14
  70
    32
  0
VERTEX
  8
0
  5
2A9C
 10
-36.7469
 20
-90.4130
 30
2.00976e-14
  70
    32
  0
VERTEX
  8
0
  5
2A9D
 10
-36.7498
 20
-90.4163
 30
2.00980e-14
  70
    32
  0
VERTEX
  8
0
  5
2A9E
 10
-36.7527
 20
-90.4197
 30
2.00984e-14
  70
    32
  0
VERTEX
  8
0
  5
2A9F
 10
-36.7556
 20
-90.4231
 30
2.00988e-14
  70
    32
  0
VERTEX
  8
0
  5
2AA0
 10
-36.7585
 20
-90.4265
 30
2.00991e-14
  70
    32
  0
VERTEX
  8
0
  5
2AA1
 10
-36.7615
 20
-90.4300
 30
2.00993e-14
  70
    32
  0
VERTEX
  8
0
  5
2AA2
 10
-36.7645
 20
-90.4334
 30
2.00995e-14
  70
    32
  0
VERTEX
  8
0
  5
2AA3
 10
-36.7674
 20
-90.4369
 30
2.00997e-14
  70
    32
  0
VERTEX
  8
0
  5
2AA4
 10
-36.7704
 20
-90.4403
 30
2.00998e-14
  70
    32
  0
VERTEX
  8
0
  5
2AA5
 10
-36.7734
 20
-90.4438
 30
2.00999e-14
  70
    32
  0
VERTEX
  8
0
  5
2AA6
 10
-36.7764
 20
-90.4473
 30
2.01000e-14
  70
    32
  0
VERTEX
  8
0
  5
2AA7
 10
-36.7795
 20
-90.4508
 30
2.01000e-14
  70
    32
  0
VERTEX
  8
0
  5
2AA8
 10
-36.7825
 20
-90.4543
 30
2.01000e-14
  70
    32
  0
VERTEX
  8
0
  5
2AA9
 10
-36.7856
 20
-90.4579
 30
2.01000e-14
  70
    32
  0
VERTEX
  8
0
  5
2AAA
 10
-36.7886
 20
-90.4614
 30
2.01000e-14
  70
    32
  0
VERTEX
  8
0
  5
2AAB
 10
-36.7917
 20
-90.4650
 30
2.01000e-14
  70
    32
  0
VERTEX
  8
0
  5
2AAC
 10
-36.7948
 20
-90.4685
 30
2.01000e-14
  70
    32
  0
VERTEX
  8
0
  5
2AAD
 10
-36.7979
 20
-90.4721
 30
2.01000e-14
  70
    32
  0
VERTEX
  8
0
  5
2AAE
 10
-36.8010
 20
-90.4757
 30
2.01000e-14
  70
    32
  0
VERTEX
  8
0
  5
2AAF
 10
-36.8041
 20
-90.4793
 30
2.01000e-14
  70
    32
  0
VERTEX
  8
0
  5
2AB0
 10
-36.8072
 20
-90.4830
 30
2.01000e-14
  70
    32
  0
VERTEX
  8
0
  5
2AB1
 10
-36.8104
 20
-90.4866
 30
2.01000e-14
  70
    32
  0
VERTEX
  8
0
  5
2AB2
 10
-36.8135
 20
-90.4903
 30
2.01000e-14
  70
    32
  0
VERTEX
  8
0
  5
2AB3
 10
-36.8167
 20
-90.4939
 30
2.01000e-14
  70
    32
  0
VERTEX
  8
0
  5
2AB4
 10
-36.8199
 20
-90.4976
 30
2.01000e-14
  70
    32
  0
VERTEX
  8
0
  5
2AB5
 10
-36.8230
 20
-90.5013
 30
2.01000e-14
  70
    32
  0
VERTEX
  8
0
  5
2AB6
 10
-36.8262
 20
-90.5050
 30
2.01000e-14
  70
    32
  0
VERTEX
  8
0
  5
2AB7
 10
-36.8294
 20
-90.5087
 30
2.01000e-14
  70
    32
  0
VERTEX
  8
0
  5
2AB8
 10
-36.8327
 20
-90.5124
 30
2.01000e-14
  70
    32
  0
VERTEX
  8
0
  5
2AB9
 10
-36.8359
 20
-90.5162
 30
2.01000e-14
  70
    32
  0
VERTEX
  8
0
  5
2ABA
 10
-36.8391
 20
-90.5199
 30
2.01000e-14
  70
    32
  0
VERTEX
  8
0
  5
2ABB
 10
-36.8424
 20
-90.5237
 30
2.01000e-14
  70
    32
  0
VERTEX
  8
0
  5
2ABC
 10
-36.8457
 20
-90.5275
 30
2.01000e-14
  70
    32
  0
VERTEX
  8
0
  5
2ABD
 10
-36.8489
 20
-90.5313
 30
2.01000e-14
  70
    32
  0
VERTEX
  8
0
  5
2ABE
 10
-36.8522
 20
-90.5351
 30
2.01000e-14
  70
    32
  0
SEQEND
  8
0
  5
2ABF
  0
POLYLINE
  8
0
  5
2AC0
  66
     1
 10
0.000000
 20
0.000000
 30
0.000000
  70
     8
  0
VERTEX
  8
0
  5
2AC1
 10
17.0778
 20
-90.0351
 30
2.00000e-14
  70
    32
  0
VERTEX
  8
0
  5
2AC2
 10
17.0885
 20
-90.0351
 30
2.00000e-14
  70
    32
  0
VERTEX
  8
0
  5
2AC3
 10
17.0992
 20
-90.0351
 30
2.00000e-14
  70
    32
  0
VERTEX
  8
0
  5
2AC4
 10
17.1100
 20
-90.0351
 30
2.00000e-14
  70
    32
  0
VERTEX
  8
0
  5
2AC5
 10
17.1207
 20
-90.0352
 30
2.00000e-14
  70
    32
  0
VERTEX
  8
0
  5
2AC6
 10
17.1315
 20
-90.0353
 30
2.00000e-14
  70
    32
  0
VERTEX
  8
0
  5
2AC7
 10
17.1422
 20
-90.0353
 30
2.00000e-14
  70
    32
  0
VERTEX
  8
0
  5
2AC8
 10
17.1530
 20
-90.0354
 30
2.00000e-14
  70
    32
  0
VERTEX
  8
0
  5
2AC9
 10
17.1637
 20
-90.0356
 30
2.00000e-14
  70
    32
  0
VERTEX
  8
0
  5
2ACA
 10
17.1745
 20
-90.0357
 30
2.00000e-14
  70
    32
  0
VERTEX
  8
0
  5
2ACB
 10
17.1852
 20
-90.0358
 30
2.00000e-14
  70
    32
  0
VERTEX
  8
0
  5
2ACC
 10
17.1960
 20
-90.0360
 30
2.00000e-14
  70
    32
  0
VERTEX
  8
0
  5
2ACD
 10
17.2068
 20
-90.0362
 30
2.00000e-14
  70
    32
  0
VERTEX
  8
0
  5
2ACE
 10
17.2176
 20
-90.0364
 30
2.00000e-14
  70
    32
  0
VERTEX
  8
0
  5
2ACF
 10
17.2284
 20
-90.0366
 30
2.00000e-14
  70
    32
  0
VERTEX
  8
0
  5
2AD0
 10
17.2392
 20
-90.0368
 30
2.00000e-14
  70
    32
  0
VERTEX
  8
0
  5
2AD1
 10
17.2500
 20
-90.0370
 30
2.00000e-14
  70
    32
  0
VERTEX
  8
0
  5
2AD2
 10
17.2608
 20
-90.0373
 30
2.00000e-14
  70
    32
  0
VERTEX
  8
0
  5
2AD3
 10
17.2716
 20
-90.0375
 30
2.00000e-14
  70
    32
  0
VERTEX
  8
0
  5
2AD4
 10
17.2824
 20
-90.0378
 30
2.00000e-14
  70
    32
  0
VERTEX
  8
0
  5
2AD5
 10
17.2932
 20
-90.0381
 30
2.00000e-14
  70
    32
  0
VERTEX
  8
0
  5
2AD6
 10
17.3040
 20
-90.0384
 30
2.00000e-14
  70
    32
  0
VERTEX
  8
0
  5
2AD7
 10
17.3148
 20
-90.0388
 30
2.00000e-14
  70
    32
  0
VERTEX
  8
0
  5
2AD8
 10
17.3256
 20
-90.0391
 30
2.00000e-14
  70
    32
  0
VERTEX
  8
0
  5
2AD9
 10
17.3365
 20
-90.0395
 30
2.00000e-14
  70
    32
  0
VERTEX
  8
0
  5
2ADA
 10
17.3473
 20
-90.0398
 30
2.00000e-14
  70
    32
  0
VERTEX
  8
0
  5
2ADB
 10
17.3581
 20
-90.0402
 30
2.00000e-14
  70
    32
  0
VERTEX
  8
0
  5
2ADC
 10
17.3690
 20
-90.0406
 30
2.00000e-14
  70
    32
  0
VERTEX
  8
0
  5
2ADD
 10
17.3798
 20
-90.0411
 30
2.00000e-14
  70
    32
  0
VERTEX
  8
0
  5
2ADE
 10
17.3907
 20
-90.0415
 30
2.00000e-14
  70
    32
  0
VERTEX
  8
0
  5
2ADF
 10
17.4015
 20
-90.0419
 30
2.00000e-14
  70
    32
  0
VERTEX
  8
0
  5
2AE0
 10
17.4124
 20
-90.0424
 30
2.00000e-14
  70
    32
  0
VERTEX
  8
0
  5
2AE1
 10
17.4232
 20
-90.0429
 30
2.00000e-14
  70
    32
  0
VERTEX
  8
0
  5
2AE2
 10
17.4341
 20
-90.0434
 30
2.00000e-14
  70
    32
  0
VERTEX
  8
0
  5
2AE3
 10
17.4450
 20
-90.0439
 30
2.00000e-14
  70
    32
  0
VERTEX
  8
0
  5
2AE4
 10
17.4558
 20
-90.0444
 30
2.00000e-14
  70
    32
  0
VERTEX
  8
0
  5
2AE5
 10
17.4667
 20
-90.0450
 30
2.00000e-14
  70
    32
  0
VERTEX
  8
0
  5
2AE6
 10
17.4776
 20
-90.0455
 30
2.00000e-14
  70
    32
  0
VERTEX
  8
0
  5
2AE7
 10
17.4885
 20
-90.0461
 30
2.00000e-14
  70
    32
  0
VERTEX
  8
0
  5
2AE8
 10
17.4994
 20
-90.0467
 30
2.00000e-14
  70
    32
  0
VERTEX
  8
0
  5
2AE9
 10
17.5102
 20
-90.0473
 30
2.00000e-14
  70
    32
  0
VERTEX
  8
0
  5
2AEA
 10
17.5211
 20
-90.0479
 30
2.00000e-14
  70
    32
  0
VERTEX
  8
0
  5
2AEB
 10
17.5320
 20
-90.0486
 30
2.00000e-14
  70
    32
  0
VERTEX
  8
0
  5
2AEC
 10
17.5429
 20
-90.0492
 30
2.00000e-14
  70
    32
  0
VERTEX
  8
0
  5
2AED
 10
17.5538
 20
-90.0499
 30
2.00000e-14
  70
    32
  0
VERTEX
  8
0
  5
2AEE
 10
17.5647
 20
-90.0506
 30
2.00000e-14
  70
    32
  0
VERTEX
  8
0
  5
2AEF
 10
17.5756
 20
-90.0513
 30
2.00000e-14
  70
    32
  0
VERTEX
  8
0
  5
2AF0
 10
17.5865
 20
-90.0520
 30
2.00000e-14
  70
    32
  0
VERTEX
  8
0
  5
2AF1
 10
17.5974
 20
-90.0527
 30
2.00000e-14
  70
    32
  0
VERTEX
  8
0
  5
2AF2
 10
17.6083
 20
-90.0535
 30
2.00000e-14
  70
    32
  0
VERTEX
  8
0
  5
2AF3
 10
17.6192
 20
-90.0542
 30
2.00000e-14
  70
    32
  0
VERTEX
  8
0
  5
2AF4
 10
17.6302
 20
-90.0550
 30
2.00000e-14
  70
    32
  0
VERTEX
  8
0
  5
2AF5
 10
17.6411
 20
-90.0558
 30
2.00000e-14
  70
    32
  0
VERTEX
  8
0
  5
2AF6
 10
17.6520
 20
-90.0566
 30
2.00000e-14
  70
    32
  0
VERTEX
  8
0
  5
2AF7
 10
17.6629
 20
-90.0574
 30
2.00000e-14
  70
    32
  0
VERTEX
  8
0
  5
2AF8
 10
17.6738
 20
-90.0583
 30
2.00000e-14
  70
    32
  0
VERTEX
  8
0
  5
2AF9
 10
17.6848
 20
-90.0591
 30
2.00000e-14
  70
    32
  0
VERTEX
  8
0
  5
2AFA
 10
17.6957
 20
-90.0600
 30
2.00000e-14
  70
    32
  0
VERTEX
  8
0
  5
2AFB
 10
17.7066
 20
-90.0609
 30
2.00000e-14
  70
    32
  0
VERTEX
  8
0
  5
2AFC
 10
17.7176
 20
-90.0618
 30
2.00000e-14
  70
    32
  0
VERTEX
  8
0
  5
2AFD
 10
17.7285
 20
-90.0627
 30
2.00000e-14
  70
    32
  0
VERTEX
  8
0
  5
2AFE
 10
17.7394
 20
-90.0636
 30
2.00000e-14
  70
    32
  0
VERTEX
  8
0
  5
2AFF
 10
17.7504
 20
-90.0646
 30
2.00000e-14
  70
    32
  0
VERTEX
  8
0
  5
2B00
 10
17.7613
 20
-90.0656
 30
2.00000e-14
  70
    32
  0
VERTEX
  8
0
  5
2B01
 10
17.7722
 20
-90.0665
 30
2.00000e-14
  70
    32
  0
VERTEX
  8
0
  5
2B02
 10
17.7832
 20
-90.0675
 30
2.00000e-14
  70
    32
  0
VERTEX
  8
0
  5
2B03
 10
17.7941
 20
-90.0685
 30
2.00000e-14
  70
    32
  0
VERTEX
  8
0
  5
2B04
 10
17.8051
 20
-90.0696
 30
2.00000e-14
  70
    32
  0
VERTEX
  8
0
  5
2B05
 10
17.8160
 20
-90.0706
 30
2.00000e-14
  70
    32
  0
VERTEX
  8
0
  5
2B06
 10
17.8270
 20
-90.0717
 30
2.00000e-14
  70
    32
  0
VERTEX
  8
0
  5
2B07
 10
17.8379
 20
-90.0727
 30
2.00000e-14
  70
    32
  0
VERTEX
  8
0
  5
2B08
 10
17.8489
 20
-90.0738
 30
2.00000e-14
  70
    32
  0
VERTEX
  8
0
  5
2B09
 10
17.8598
 20
-90.0749
 30
2.00000e-14
  70
    32
  0
VERTEX
  8
0
  5
2B0A
 10
17.8708
 20
-90.0761
 30
2.00000e-14
  70
    32
  0
VERTEX
  8
0
  5
2B0B
 10
17.8817
 20
-90.0772
 30
2.00000e-14
  70
    32
  0
VERTEX
  8
0
  5
2B0C
 10
17.8927
 20
-90.0783
 30
2.00000e-14
  70
    32
  0
VERTEX
  8
0
  5
2B0D
 10
17.9036
 20
-90.0795
 30
2.00000e-14
  70
    32
  0
VERTEX
  8
0
  5
2B0E
 10
17.9146
 20
-90.0807
 30
2.00000e-14
  70
    32
  0
VERTEX
  8
0
  5
2B0F
 10
17.9255
 20
-90.0819
 30
2.00000e-14
  70
    32
  0
VERTEX
  8
0
  5
2B10
 10
17.9365
 20
-90.0831
 30
2.00000e-14
  70
    32
  0
VERTEX
  8
0
  5
2B11
 10
17.9475
 20
-90.0843
 30
2.00000e-14
  70
    32
  0
VERTEX
  8
0
  5
2B12
 10
17.9584
 20
-90.0856
 30
2.00000e-14
  70
    32
  0
VERTEX
  8
0
  5
2B13
 10
17.9694
 20
-90.0868
 30
2.00000e-14
  70
    32
  0
VERTEX
  8
0
  5
2B14
 10
17.9803
 20
-90.0881
 30
2.00000e-14
  70
    32
  0
VERTEX
  8
0
  5
2B15
 10
17.9913
 20
-90.0894
 30
2.00000e-14
  70
    32
  0
VERTEX
  8
0
  5
2B16
 10
18.0023
 20
-90.0907
 30
2.00000e-14
  70
    32
  0
VERTEX
  8
0
  5
2B17
 10
18.0132
 20
-90.0921
 30
2.00000e-14
  70
    32
  0
VERTEX
  8
0
  5
2B18
 10
18.0242
 20
-90.0934
 30
2.00000e-14
  70
    32
  0
VERTEX
  8
0
  5
2B19
 10
18.0351
 20
-90.0948
 30
2.00000e-14
  70
    32
  0
VERTEX
  8
0
  5
2B1A
 10
18.0461
 20
-90.0961
 30
2.00000e-14
  70
    32
  0
VERTEX
  8
0
  5
2B1B
 10
18.0571
 20
-90.0975
 30
2.00000e-14
  70
    32
  0
VERTEX
  8
0
  5
2B1C
 10
18.0680
 20
-90.0989
 30
2.00000e-14
  70
    32
  0
VERTEX
  8
0
  5
2B1D
 10
18.0790
 20
-90.1003
 30
2.00000e-14
  70
    32
  0
VERTEX
  8
0
  5
2B1E
 10
18.0899
 20
-90.1018
 30
2.00000e-14
  70
    32
  0
VERTEX
  8
0
  5
2B1F
 10
18.1009
 20
-90.1032
 30
2.00000e-14
  70
    32
  0
VERTEX
  8
0
  5
2B20
 10
18.1119
 20
-90.1047
 30
2.00000e-14
  70
    32
  0
VERTEX
  8
0
  5
2B21
 10
18.1228
 20
-90.1062
 30
2.00000e-14
  70
    32
  0
VERTEX
  8
0
  5
2B22
 10
18.1338
 20
-90.1077
 30
2.00000e-14
  70
    32
  0
VERTEX
  8
0
  5
2B23
 10
18.1448
 20
-90.1092
 30
2.00000e-14
  70
    32
  0
VERTEX
  8
0
  5
2B24
 10
18.1557
 20
-90.1107
 30
2.00000e-14
  70
    32
  0
VERTEX
  8
0
  5
2B25
 10
18.1667
 20
-90.1123
 30
2.00000e-14
  70
    32
  0
VERTEX
  8
0
  5
2B26
 10
18.1776
 20
-90.1138
 30
2.00000e-14
  70
    32
  0
VERTEX
  8
0
  5
2B27
 10
18.1886
 20
-90.1154
 30
2.00000e-14
  70
    32
  0
VERTEX
  8
0
  5
2B28
 10
18.1995
 20
-90.1170
 30
2.00000e-14
  70
    32
  0
VERTEX
  8
0
  5
2B29
 10
18.2105
 20
-90.1186
 30
2.00000e-14
  70
    32
  0
VERTEX
  8
0
  5
2B2A
 10
18.2215
 20
-90.1203
 30
2.00000e-14
  70
    32
  0
VERTEX
  8
0
  5
2B2B
 10
18.2324
 20
-90.1219
 30
2.00000e-14
  70
    32
  0
VERTEX
  8
0
  5
2B2C
 10
18.2434
 20
-90.1236
 30
2.00000e-14
  70
    32
  0
VERTEX
  8
0
  5
2B2D
 10
18.2543
 20
-90.1252
 30
2.00000e-14
  70
    32
  0
VERTEX
  8
0
  5
2B2E
 10
18.2653
 20
-90.1269
 30
2.00000e-14
  70
    32
  0
VERTEX
  8
0
  5
2B2F
 10
18.2762
 20
-90.1286
 30
2.00000e-14
  70
    32
  0
VERTEX
  8
0
  5
2B30
 10
18.2872
 20
-90.1303
 30
2.00000e-14
  70
    32
  0
VERTEX
  8
0
  5
2B31
 10
18.2981
 20
-90.1321
 30
2.00000e-14
  70
    32
  0
VERTEX
  8
0
  5
2B32
 10
18.3091
 20
-90.1338
 30
2.00000e-14
  70
    32
  0
VERTEX
  8
0
  5
2B33
 10
18.3200
 20
-90.1356
 30
2.00000e-14
  70
    32
  0
VERTEX
  8
0
  5
2B34
 10
18.3310
 20
-90.1374
 30
2.00000e-14
  70
    32
  0
VERTEX
  8
0
  5
2B35
 10
18.3419
 20
-90.1392
 30
2.00000e-14
  70
    32
  0
VERTEX
  8
0
  5
2B36
 10
18.3529
 20
-90.1410
 30
2.00000e-14
  70
    32
  0
VERTEX
  8
0
  5
2B37
 10
18.3638
 20
-90.1428
 30
2.00001e-14
  70
    32
  0
VERTEX
  8
0
  5
2B38
 10
18.3747
 20
-90.1447
 30
2.00002e-14
  70
    32
  0
VERTEX
  8
0
  5
2B39
 10
18.3857
 20
-90.1466
 30
2.00004e-14
  70
    32
  0
VERTEX
  8
0
  5
2B3A
 10
18.3966
 20
-90.1484
 30
2.00006e-14
  70
    32
  0
VERTEX
  8
0
  5
2B3B
 10
18.4075
 20
-90.1503
 30
2.00008e-14
  70
    32
  0
VERTEX
  8
0
  5
2B3C
 10
18.4185
 20
-90.1523
 30
2.00011e-14
  70
    32
  0
VERTEX
  8
0
  5
2B3D
 10
18.4294
 20
-90.1542
 30
2.00014e-14
  70
    32
  0
VERTEX
  8
0
  5
2B3E
 10
18.4403
 20
-90.1561
 30
2.00018e-14
  70
    32
  0
VERTEX
  8
0
  5
2B3F
 10
18.4513
 20
-90.1581
 30
2.00022e-14
  70
    32
  0
VERTEX
  8
0
  5
2B40
 10
18.4622
 20
-90.1601
 30
2.00026e-14
  70
    32
  0
VERTEX
  8
0
  5
2B41
 10
18.4731
 20
-90.1621
 30
2.00031e-14
  70
    32
  0
VERTEX
  8
0
  5
2B42
 10
18.4840
 20
-90.1641
 30
2.00036e-14
  70
    32
  0
VERTEX
  8
0
  5
2B43
 10
18.4950
 20
-90.1661
 30
2.00041e-14
  70
    32
  0
VERTEX
  8
0
  5
2B44
 10
18.5059
 20
-90.1681
 30
2.00047e-14
  70
    32
  0
VERTEX
  8
0
  5
2B45
 10
18.5168
 20
-90.1702
 30
2.00053e-14
  70
    32
  0
VERTEX
  8
0
  5
2B46
 10
18.5277
 20
-90.1723
 30
2.00060e-14
  70
    32
  0
VERTEX
  8
0
  5
2B47
 10
18.5386
 20
-90.1743
 30
2.00066e-14
  70
    32
  0
VERTEX
  8
0
  5
2B48
 10
18.5495
 20
-90.1764
 30
2.00073e-14
  70
    32
  0
VERTEX
  8
0
  5
2B49
 10
18.5604
 20
-90.1786
 30
2.00081e-14
  70
    32
  0
VERTEX
  8
0
  5
2B4A
 10
18.5713
 20
-90.1807
 30
2.00088e-14
  70
    32
  0
VERTEX
  8
0
  5
2B4B
 10
18.5822
 20
-90.1828
 30
2.00096e-14
  70
    32
  0
VERTEX
  8
0
  5
2B4C
 10
18.5931
 20
-90.1850
 30
2.00104e-14
  70
    32
  0
VERTEX
  8
0
  5
2B4D
 10
18.6040
 20
-90.1872
 30
2.00113e-14
  70
    32
  0
VERTEX
  8
0
  5
2B4E
 10
18.6149
 20
-90.1894
 30
2.00121e-14
  70
    32
  0
VERTEX
  8
0
  5
2B4F
 10
18.6258
 20
-90.1916
 30
2.00130e-14
  70
    32
  0
VERTEX
  8
0
  5
2B50
 10
18.6367
 20
-90.1938
 30
2.00139e-14
  70
    32
  0
VERTEX
  8
0
  5
2B51
 10
18.6476
 20
-90.1961
 30
2.00149e-14
  70
    32
  0
VERTEX
  8
0
  5
2B52
 10
18.6585
 20
-90.1983
 30
2.00159e-14
  70
    32
  0
VERTEX
  8
0
  5
2B53
 10
18.6693
 20
-90.2006
 30
2.00168e-14
  70
    32
  0
VERTEX
  8
0
  5
2B54
 10
18.6802
 20
-90.2029
 30
2.00179e-14
  70
    32
  0
VERTEX
  8
0
  5
2B55
 10
18.6911
 20
-90.2052
 30
2.00189e-14
  70
    32
  0
VERTEX
  8
0
  5
2B56
 10
18.7019
 20
-90.2075
 30
2.00199e-14
  70
    32
  0
VERTEX
  8
0
  5
2B57
 10
18.7128
 20
-90.2098
 30
2.00210e-14
  70
    32
  0
VERTEX
  8
0
  5
2B58
 10
18.7237
 20
-90.2122
 30
2.00221e-14
  70
    32
  0
VERTEX
  8
0
  5
2B59
 10
18.7345
 20
-90.2145
 30
2.00232e-14
  70
    32
  0
VERTEX
  8
0
  5
2B5A
 10
18.7454
 20
-90.2169
 30
2.00243e-14
  70
    32
  0
VERTEX
  8
0
  5
2B5B
 10
18.7562
 20
-90.2193
 30
2.00255e-14
  70
    32
  0
VERTEX
  8
0
  5
2B5C
 10
18.7671
 20
-90.2217
 30
2.00266e-14
  70
    32
  0
VERTEX
  8
0
  5
2B5D
 10
18.7779
 20
-90.2241
 30
2.00278e-14
  70
    32
  0
VERTEX
  8
0
  5
2B5E
 10
18.7888
 20
-90.2266
 30
2.00290e-14
  70
    32
  0
VERTEX
  8
0
  5
2B5F
 10
18.7996
 20
-90.2290
 30
2.00301e-14
  70
    32
  0
VERTEX
  8
0
  5
2B60
 10
18.8105
 20
-90.2315
 30
2.00314e-14
  70
    32
  0
VERTEX
  8
0
  5
2B61
 10
18.8213
 20
-90.2340
 30
2.00326e-14
  70
    32
  0
VERTEX
  8
0
  5
2B62
 10
18.8321
 20
-90.2365
 30
2.00338e-14
  70
    32
  0
VERTEX
  8
0
  5
2B63
 10
18.8429
 20
-90.2390
 30
2.00350e-14
  70
    32
  0
VERTEX
  8
0
  5
2B64
 10
18.8538
 20
-90.2415
 30
2.00363e-14
  70
    32
  0
VERTEX
  8
0
  5
2B65
 10
18.8646
 20
-90.2441
 30
2.00375e-14
  70
    32
  0
VERTEX
  8
0
  5
2B66
 10
18.8754
 20
-90.2466
 30
2.00388e-14
  70
    32
  0
VERTEX
  8
0
  5
2B67
 10
18.8862
 20
-90.2492
 30
2.00401e-14
  70
    32
  0
VERTEX
  8
0
  5
2B68
 10
18.8970
 20
-90.2518
 30
2.00413e-14
  70
    32
  0
VERTEX
  8
0
  5
2B69
 10
18.9078
 20
-90.2544
 30
2.00426e-14
  70
    32
  0
VERTEX
  8
0
  5
2B6A
 10
18.9186
 20
-90.2570
 30
2.00439e-14
  70
    32
  0
VERTEX
  8
0
  5
2B6B
 10
18.9294
 20
-90.2596
 30
2.00452e-14
  70
    32
  0
VERTEX
  8
0
  5
2B6C
 10
18.9402
 20
-90.2623
 30
2.00465e-14
  70
    32
  0
VERTEX
  8
0
  5
2B6D
 10
18.9510
 20
-90.2649
 30
2.00478e-14
  70
    32
  0
VERTEX
  8
0
  5
2B6E
 10
18.9617
 20
-90.2676
 30
2.00491e-14
  70
    32
  0
VERTEX
  8
0
  5
2B6F
 10
18.9725
 20
-90.2703
 30
2.00504e-14
  70
    32
  0
VERTEX
  8
0
  5
2B70
 10
18.9833
 20
-90.2730
 30
2.00517e-14
  70
    32
  0
VERTEX
  8
0
  5
2B71
 10
18.9941
 20
-90.2757
 30
2.00530e-14
  70
    32
  0
VERTEX
  8
0
  5
2B72
 10
19.0048
 20
-90.2785
 30
2.00542e-14
  70
    32
  0
VERTEX
  8
0
  5
2B73
 10
19.0156
 20
-90.2812
 30
2.00555e-14
  70
    32
  0
VERTEX
  8
0
  5
2B74
 10
19.0263
 20
-90.2840
 30
2.00568e-14
  70
    32
  0
VERTEX
  8
0
  5
2B75
 10
19.0371
 20
-90.2868
 30
2.00581e-14
  70
    32
  0
VERTEX
  8
0
  5
2B76
 10
19.0478
 20
-90.2896
 30
2.00594e-14
  70
    32
  0
VERTEX
  8
0
  5
2B77
 10
19.0586
 20
-90.2924
 30
2.00607e-14
  70
    32
  0
VERTEX
  8
0
  5
2B78
 10
19.0693
 20
-90.2952
 30
2.00619e-14
  70
    32
  0
VERTEX
  8
0
  5
2B79
 10
19.0800
 20
-90.2980
 30
2.00632e-14
  70
    32
  0
VERTEX
  8
0
  5
2B7A
 10
19.0908
 20
-90.3009
 30
2.00644e-14
  70
    32
  0
VERTEX
  8
0
  5
2B7B
 10
19.1015
 20
-90.3037
 30
2.00657e-14
  70
    32
  0
VERTEX
  8
0
  5
2B7C
 10
19.1122
 20
-90.3066
 30
2.00669e-14
  70
    32
  0
VERTEX
  8
0
  5
2B7D
 10
19.1229
 20
-90.3095
 30
2.00681e-14
  70
    32
  0
VERTEX
  8
0
  5
2B7E
 10
19.1336
 20
-90.3124
 30
2.00693e-14
  70
    32
  0
VERTEX
  8
0
  5
2B7F
 10
19.1443
 20
-90.3153
 30
2.00705e-14
  70
    32
  0
VERTEX
  8
0
  5
2B80
 10
19.1550
 20
-90.3183
 30
2.00717e-14
  70
    32
  0
VERTEX
  8
0
  5
2B81
 10
19.1657
 20
-90.3212
 30
2.00729e-14
  70
    32
  0
VERTEX
  8
0
  5
2B82
 10
19.1764
 20
-90.3242
 30
2.00741e-14
  70
    32
  0
VERTEX
  8
0
  5
2B83
 10
19.1871
 20
-90.3272
 30
2.00752e-14
  70
    32
  0
VERTEX
  8
0
  5
2B84
 10
19.1977
 20
-90.3302
 30
2.00763e-14
  70
    32
  0
VERTEX
  8
0
  5
2B85
 10
19.2084
 20
-90.3332
 30
2.00774e-14
  70
    32
  0
VERTEX
  8
0
  5
2B86
 10
19.2191
 20
-90.3362
 30
2.00785e-14
  70
    32
  0
VERTEX
  8
0
  5
2B87
 10
19.2297
 20
-90.3392
 30
2.00796e-14
  70
    32
  0
VERTEX
  8
0
  5
2B88
 10
19.2404
 20
-90.3423
 30
2.00807e-14
  70
    32
  0
VERTEX
  8
0
  5
2B89
 10
19.2510
 20
-90.3454
 30
2.00817e-14
  70
    32
  0
VERTEX
  8
0
  5
2B8A
 10
19.2616
 20
-90.3484
 30
2.00827e-14
  70
    32
  0
VERTEX
  8
0
  5
2B8B
 10
19.2723
 20
-90.3515
 30
2.00837e-14
  70
    32
  0
VERTEX
  8
0
  5
2B8C
 10
19.2829
 20
-90.3546
 30
2.00847e-14
  70
    32
  0
VERTEX
  8
0
  5
2B8D
 10
19.2935
 20
-90.3578
 30
2.00856e-14
  70
    32
  0
VERTEX
  8
0
  5
2B8E
 10
19.3041
 20
-90.3609
 30
2.00866e-14
  70
    32
  0
VERTEX
  8
0
  5
2B8F
 10
19.3148
 20
-90.3641
 30
2.00875e-14
  70
    32
  0
VERTEX
  8
0
  5
2B90
 10
19.3254
 20
-90.3672
 30
2.00884e-14
  70
    32
  0
VERTEX
  8
0
  5
2B91
 10
19.3360
 20
-90.3704
 30
2.00892e-14
  70
    32
  0
VERTEX
  8
0
  5
2B92
 10
19.3465
 20
-90.3736
 30
2.00900e-14
  70
    32
  0
VERTEX
  8
0
  5
2B93
 10
19.3571
 20
-90.3768
 30
2.00908e-14
  70
    32
  0
VERTEX
  8
0
  5
2B94
 10
19.3677
 20
-90.3800
 30
2.00916e-14
  70
    32
  0
VERTEX
  8
0
  5
2B95
 10
19.3783
 20
-90.3833
 30
2.00924e-14
  70
    32
  0
VERTEX
  8
0
  5
2B96
 10
19.3889
 20
-90.3865
 30
2.00931e-14
  70
    32
  0
VERTEX
  8
0
  5
2B97
 10
19.3994
 20
-90.3898
 30
2.00938e-14
  70
    32
  0
VERTEX
  8
0
  5
2B98
 10
19.4100
 20
-90.3930
 30
2.00944e-14
  70
    32
  0
VERTEX
  8
0
  5
2B99
 10
19.4205
 20
-90.3963
 30
2.00950e-14
  70
    32
  0
VERTEX
  8
0
  5
2B9A
 10
19.4311
 20
-90.3996
 30
2.00956e-14
  70
    32
  0
VERTEX
  8
0
  5
2B9B
 10
19.4416
 20
-90.4029
 30
2.00962e-14
  70
    32
  0
VERTEX
  8
0
  5
2B9C
 10
19.4521
 20
-90.4063
 30
2.00967e-14
  70
    32
  0
VERTEX
  8
0
  5
2B9D
 10
19.4626
 20
-90.4096
 30
2.00972e-14
  70
    32
  0
VERTEX
  8
0
  5
2B9E
 10
19.4732
 20
-90.4130
 30
2.00976e-14
  70
    32
  0
VERTEX
  8
0
  5
2B9F
 10
19.4837
 20
-90.4163
 30
2.00980e-14
  70
    32
  0
VERTEX
  8
0
  5
2BA0
 10
19.4942
 20
-90.4197
 30
2.00984e-14
  70
    32
  0
VERTEX
  8
0
  5
2BA1
 10
19.5047
 20
-90.4231
 30
2.00988e-14
  70
    32
  0
VERTEX
  8
0
  5
2BA2
 10
19.5151
 20
-90.4265
 30
2.00991e-14
  70
    32
  0
VERTEX
  8
0
  5
2BA3
 10
19.5256
 20
-90.4300
 30
2.00993e-14
  70
    32
  0
VERTEX
  8
0
  5
2BA4
 10
19.5361
 20
-90.4334
 30
2.00995e-14
  70
    32
  0
VERTEX
  8
0
  5
2BA5
 10
19.5466
 20
-90.4369
 30
2.00997e-14
  70
    32
  0
VERTEX
  8
0
  5
2BA6
 10
19.5570
 20
-90.4403
 30
2.00998e-14
  70
    32
  0
VERTEX
  8
0
  5
2BA7
 10
19.5675
 20
-90.4438
 30
2.00999e-14
  70
    32
  0
VERTEX
  8
0
  5
2BA8
 10
19.5779
 20
-90.4473
 30
2.01000e-14
  70
    32
  0
VERTEX
  8
0
  5
2BA9
 10
19.5884
 20
-90.4508
 30
2.01000e-14
  70
    32
  0
VERTEX
  8
0
  5
2BAA
 10
19.5988
 20
-90.4543
 30
2.01000e-14
  70
    32
  0
VERTEX
  8
0
  5
2BAB
 10
19.6092
 20
-90.4579
 30
2.01000e-14
  70
    32
  0
VERTEX
  8
0
  5
2BAC
 10
19.6196
 20
-90.4614
 30
2.01000e-14
  70
    32
  0
VERTEX
  8
0
  5
2BAD
 10
19.6300
 20
-90.4650
 30
2.01000e-14
  70
    32
  0
VERTEX
  8
0
  5
2BAE
 10
19.6404
 20
-90.4685
 30
2.01000e-14
  70
    32
  0
VERTEX
  8
0
  5
2BAF
 10
19.6508
 20
-90.4721
 30
2.01000e-14
  70
    32
  0
VERTEX
  8
0
  5
2BB0
 10
19.6612
 20
-90.4757
 30
2.01000e-14
  70
    32
  0
VERTEX
  8
0
  5
2BB1
 10
19.6716
 20
-90.4793
 30
2.01000e-14
  70
    32
  0
VERTEX
  8
0
  5
2BB2
 10
19.6820
 20
-90.4830
 30
2.01000e-14
  70
    32
  0
VERTEX
  8
0
  5
2BB3
 10
19.6923
 20
-90.4866
 30
2.01000e-14
  70
    32
  0
VERTEX
  8
0
  5
2BB4
 10
19.7027
 20
-90.4903
 30
2.01000e-14
  70
    32
  0
VERTEX
  8
0
  5
2BB5
 10
19.7131
 20
-90.4939
 30
2.01000e-14
  70
    32
  0
VERTEX
  8
0
  5
2BB6
 10
19.7234
 20
-90.4976
 30
2.01000e-14
  70
    32
  0
VERTEX
  8
0
  5
2BB7
 10
19.7337
 20
-90.5013
 30
2.01000e-14
  70
    32
  0
VERTEX
  8
0
  5
2BB8
 10
19.7441
 20
-90.5050
 30
2.01000e-14
  70
    32
  0
VERTEX
  8
0
  5
2BB9
 10
19.7544
 20
-90.5087
 30
2.01000e-14
  70
    32
  0
VERTEX
  8
0
  5
2BBA
 10
19.7647
 20
-90.5124
 30
2.01000e-14
  70
    32
  0
VERTEX
  8
0
  5
2BBB
 10
19.7750
 20
-90.5162
 30
2.01000e-14
  70
    32
  0
VERTEX
  8
0
  5
2BBC
 10
19.7853
 20
-90.5199
 30
2.01000e-14
  70
    32
  0
VERTEX
  8
0
  5
2BBD
 10
19.7956
 20
-90.5237
 30
2.01000e-14
  70
    32
  0
VERTEX
  8
0
  5
2BBE
 10
19.8059
 20
-90.5275
 30
2.01000e-14
  70
    32
  0
VERTEX
  8
0
  5
2BBF
 10
19.8162
 20
-90.5313
 30
2.01000e-14
  70
    32
  0
VERTEX
  8
0
  5
2BC0
 10
19.8264
 20
-90.5351
 30
2.01000e-14
  70
    32
  0
SEQEND
  8
0
  5
2BC1
  0
POLYLINE
  8
0
  5
2BC2
  66
     1
 10
0.000000
 20
0.000000
 30
0.000000
  70
     8
  0
VERTEX
  8
0
  5
2BC3
 10
14.3291
 20
-90.5351
 30
2.01000e-14
  70
    32
  0
VERTEX
  8
0
  5
2BC4
 10
14.3394
 20
-90.5313
 30
2.01000e-14
  70
    32
  0
VERTEX
  8
0
  5
2BC5
 10
14.3497
 20
-90.5275
 30
2.01000e-14
  70
    32
  0
VERTEX
  8
0
  5
2BC6
 10
14.3600
 20
-90.5237
 30
2.01000e-14
  70
    32
  0
VERTEX
  8
0
  5
2BC7
 10
14.3702
 20
-90.5199
 30
2.01000e-14
  70
    32
  0
VERTEX
  8
0
  5
2BC8
 10
14.3805
 20
-90.5162
 30
2.01000e-14
  70
    32
  0
VERTEX
  8
0
  5
2BC9
 10
14.3909
 20
-90.5124
 30
2.01000e-14
  70
    32
  0
VERTEX
  8
0
  5
2BCA
 10
14.4012
 20
-90.5087
 30
2.01000e-14
  70
    32
  0
VERTEX
  8
0
  5
2BCB
 10
14.4115
 20
-90.5050
 30
2.01000e-14
  70
    32
  0
VERTEX
  8
0
  5
2BCC
 10
14.4218
 20
-90.5013
 30
2.01000e-14
  70
    32
  0
VERTEX
  8
0
  5
2BCD
 10
14.4322
 20
-90.4976
 30
2.01000e-14
  70
    32
  0
VERTEX
  8
0
  5
2BCE
 10
14.4425
 20
-90.4939
 30
2.01000e-14
  70
    32
  0
VERTEX
  8
0
  5
2BCF
 10
14.4529
 20
-90.4903
 30
2.01000e-14
  70
    32
  0
VERTEX
  8
0
  5
2BD0
 10
14.4632
 20
-90.4866
 30
2.01000e-14
  70
    32
  0
VERTEX
  8
0
  5
2BD1
 10
14.4736
 20
-90.4830
 30
2.01000e-14
  70
    32
  0
VERTEX
  8
0
  5
2BD2
 10
14.4840
 20
-90.4793
 30
2.01000e-14
  70
    32
  0
VERTEX
  8
0
  5
2BD3
 10
14.4943
 20
-90.4757
 30
2.01000e-14
  70
    32
  0
VERTEX
  8
0
  5
2BD4
 10
14.5047
 20
-90.4721
 30
2.01000e-14
  70
    32
  0
VERTEX
  8
0
  5
2BD5
 10
14.5151
 20
-90.4685
 30
2.01000e-14
  70
    32
  0
VERTEX
  8
0
  5
2BD6
 10
14.5255
 20
-90.4650
 30
2.01000e-14
  70
    32
  0
VERTEX
  8
0
  5
2BD7
 10
14.5359
 20
-90.4614
 30
2.01000e-14
  70
    32
  0
VERTEX
  8
0
  5
2BD8
 10
14.5464
 20
-90.4579
 30
2.01000e-14
  70
    32
  0
VERTEX
  8
0
  5
2BD9
 10
14.5568
 20
-90.4543
 30
2.01000e-14
  70
    32
  0
VERTEX
  8
0
  5
2BDA
 10
14.5672
 20
-90.4508
 30
2.01000e-14
  70
    32
  0
VERTEX
  8
0
  5
2BDB
 10
14.5776
 20
-90.4473
 30
2.01000e-14
  70
    32
  0
VERTEX
  8
0
  5
2BDC
 10
14.5881
 20
-90.4438
 30
2.00999e-14
  70
    32
  0
VERTEX
  8
0
  5
2BDD
 10
14.5985
 20
-90.4403
 30
2.00998e-14
  70
    32
  0
VERTEX
  8
0
  5
2BDE
 10
14.6090
 20
-90.4369
 30
2.00997e-14
  70
    32
  0
VERTEX
  8
0
  5
2BDF
 10
14.6195
 20
-90.4334
 30
2.00995e-14
  70
    32
  0
VERTEX
  8
0
  5
2BE0
 10
14.6299
 20
-90.4300
 30
2.00993e-14
  70
    32
  0
VERTEX
  8
0
  5
2BE1
 10
14.6404
 20
-90.4265
 30
2.00991e-14
  70
    32
  0
VERTEX
  8
0
  5
2BE2
 10
14.6509
 20
-90.4231
 30
2.00988e-14
  70
    32
  0
VERTEX
  8
0
  5
2BE3
 10
14.6614
 20
-90.4197
 30
2.00984e-14
  70
    32
  0
VERTEX
  8
0
  5
2BE4
 10
14.6719
 20
-90.4163
 30
2.00980e-14
  70
    32
  0
VERTEX
  8
0
  5
2BE5
 10
14.6824
 20
-90.4130
 30
2.00976e-14
  70
    32
  0
VERTEX
  8
0
  5
2BE6
 10
14.6929
 20
-90.4096
 30
2.00972e-14
  70
    32
  0
VERTEX
  8
0
  5
2BE7
 10
14.7034
 20
-90.4063
 30
2.00967e-14
  70
    32
  0
VERTEX
  8
0
  5
2BE8
 10
14.7140
 20
-90.4029
 30
2.00962e-14
  70
    32
  0
VERTEX
  8
0
  5
2BE9
 10
14.7245
 20
-90.3996
 30
2.00956e-14
  70
    32
  0
VERTEX
  8
0
  5
2BEA
 10
14.7350
 20
-90.3963
 30
2.00950e-14
  70
    32
  0
VERTEX
  8
0
  5
2BEB
 10
14.7456
 20
-90.3930
 30
2.00944e-14
  70
    32
  0
VERTEX
  8
0
  5
2BEC
 10
14.7562
 20
-90.3898
 30
2.00938e-14
  70
    32
  0
VERTEX
  8
0
  5
2BED
 10
14.7667
 20
-90.3865
 30
2.00931e-14
  70
    32
  0
VERTEX
  8
0
  5
2BEE
 10
14.7773
 20
-90.3833
 30
2.00924e-14
  70
    32
  0
VERTEX
  8
0
  5
2BEF
 10
14.7879
 20
-90.3800
 30
2.00916e-14
  70
    32
  0
VERTEX
  8
0
  5
2BF0
 10
14.7984
 20
-90.3768
 30
2.00908e-14
  70
    32
  0
VERTEX
  8
0
  5
2BF1
 10
14.8090
 20
-90.3736
 30
2.00900e-14
  70
    32
  0
VERTEX
  8
0
  5
2BF2
 10
14.8196
 20
-90.3704
 30
2.00892e-14
  70
    32
  0
VERTEX
  8
0
  5
2BF3
 10
14.8302
 20
-90.3672
 30
2.00884e-14
  70
    32
  0
VERTEX
  8
0
  5
2BF4
 10
14.8408
 20
-90.3641
 30
2.00875e-14
  70
    32
  0
VERTEX
  8
0
  5
2BF5
 10
14.8514
 20
-90.3609
 30
2.00866e-14
  70
    32
  0
VERTEX
  8
0
  5
2BF6
 10
14.8620
 20
-90.3578
 30
2.00856e-14
  70
    32
  0
VERTEX
  8
0
  5
2BF7
 10
14.8727
 20
-90.3546
 30
2.00847e-14
  70
    32
  0
VERTEX
  8
0
  5
2BF8
 10
14.8833
 20
-90.3515
 30
2.00837e-14
  70
    32
  0
VERTEX
  8
0
  5
2BF9
 10
14.8939
 20
-90.3484
 30
2.00827e-14
  70
    32
  0
VERTEX
  8
0
  5
2BFA
 10
14.9046
 20
-90.3454
 30
2.00817e-14
  70
    32
  0
VERTEX
  8
0
  5
2BFB
 10
14.9152
 20
-90.3423
 30
2.00807e-14
  70
    32
  0
VERTEX
  8
0
  5
2BFC
 10
14.9259
 20
-90.3392
 30
2.00796e-14
  70
    32
  0
VERTEX
  8
0
  5
2BFD
 10
14.9365
 20
-90.3362
 30
2.00785e-14
  70
    32
  0
VERTEX
  8
0
  5
2BFE
 10
14.9472
 20
-90.3332
 30
2.00774e-14
  70
    32
  0
VERTEX
  8
0
  5
2BFF
 10
14.9578
 20
-90.3302
 30
2.00763e-14
  70
    32
  0
VERTEX
  8
0
  5
2C00
 10
14.9685
 20
-90.3272
 30
2.00752e-14
  70
    32
  0
VERTEX
  8
0
  5
2C01
 10
14.9792
 20
-90.3242
 30
2.00741e-14
  70
    32
  0
VERTEX
  8
0
  5
2C02
 10
14.9899
 20
-90.3212
 30
2.00729e-14
  70
    32
  0
VERTEX
  8
0
  5
2C03
 10
15.0006
 20
-90.3183
 30
2.00717e-14
  70
    32
  0
VERTEX
  8
0
  5
2C04
 10
15.0113
 20
-90.3153
 30
2.00705e-14
  70
    32
  0
VERTEX
  8
0
  5
2C05
 10
15.0220
 20
-90.3124
 30
2.00693e-14
  70
    32
  0
VERTEX
  8
0
  5
2C06
 10
15.0327
 20
-90.3095
 30
2.00681e-14
  70
    32
  0
VERTEX
  8
0
  5
2C07
 10
15.0434
 20
-90.3066
 30
2.00669e-14
  70
    32
  0
VERTEX
  8
0
  5
2C08
 10
15.0541
 20
-90.3037
 30
2.00657e-14
  70
    32
  0
VERTEX
  8
0
  5
2C09
 10
15.0648
 20
-90.3009
 30
2.00644e-14
  70
    32
  0
VERTEX
  8
0
  5
2C0A
 10
15.0755
 20
-90.2980
 30
2.00632e-14
  70
    32
  0
VERTEX
  8
0
  5
2C0B
 10
15.0863
 20
-90.2952
 30
2.00619e-14
  70
    32
  0
VERTEX
  8
0
  5
2C0C
 10
15.0970
 20
-90.2924
 30
2.00607e-14
  70
    32
  0
VERTEX
  8
0
  5
2C0D
 10
15.1077
 20
-90.2896
 30
2.00594e-14
  70
    32
  0
VERTEX
  8
0
  5
2C0E
 10
15.1185
 20
-90.2868
 30
2.00581e-14
  70
    32
  0
VERTEX
  8
0
  5
2C0F
 10
15.1292
 20
-90.2840
 30
2.00568e-14
  70
    32
  0
VERTEX
  8
0
  5
2C10
 10
15.1400
 20
-90.2812
 30
2.00555e-14
  70
    32
  0
VERTEX
  8
0
  5
2C11
 10
15.1507
 20
-90.2785
 30
2.00542e-14
  70
    32
  0
VERTEX
  8
0
  5
2C12
 10
15.1615
 20
-90.2757
 30
2.00530e-14
  70
    32
  0
VERTEX
  8
0
  5
2C13
 10
15.1723
 20
-90.2730
 30
2.00517e-14
  70
    32
  0
VERTEX
  8
0
  5
2C14
 10
15.1830
 20
-90.2703
 30
2.00504e-14
  70
    32
  0
VERTEX
  8
0
  5
2C15
 10
15.1938
 20
-90.2676
 30
2.00491e-14
  70
    32
  0
VERTEX
  8
0
  5
2C16
 10
15.2046
 20
-90.2649
 30
2.00478e-14
  70
    32
  0
VERTEX
  8
0
  5
2C17
 10
15.2154
 20
-90.2623
 30
2.00465e-14
  70
    32
  0
VERTEX
  8
0
  5
2C18
 10
15.2262
 20
-90.2596
 30
2.00452e-14
  70
    32
  0
VERTEX
  8
0
  5
2C19
 10
15.2370
 20
-90.2570
 30
2.00439e-14
  70
    32
  0
VERTEX
  8
0
  5
2C1A
 10
15.2478
 20
-90.2544
 30
2.00426e-14
  70
    32
  0
VERTEX
  8
0
  5
2C1B
 10
15.2586
 20
-90.2518
 30
2.00413e-14
  70
    32
  0
VERTEX
  8
0
  5
2C1C
 10
15.2694
 20
-90.2492
 30
2.00401e-14
  70
    32
  0
VERTEX
  8
0
  5
2C1D
 10
15.2802
 20
-90.2466
 30
2.00388e-14
  70
    32
  0
VERTEX
  8
0
  5
2C1E
 10
15.2910
 20
-90.2441
 30
2.00375e-14
  70
    32
  0
VERTEX
  8
0
  5
2C1F
 10
15.3018
 20
-90.2415
 30
2.00363e-14
  70
    32
  0
VERTEX
  8
0
  5
2C20
 10
15.3126
 20
-90.2390
 30
2.00350e-14
  70
    32
  0
VERTEX
  8
0
  5
2C21
 10
15.3234
 20
-90.2365
 30
2.00338e-14
  70
    32
  0
VERTEX
  8
0
  5
2C22
 10
15.3343
 20
-90.2340
 30
2.00326e-14
  70
    32
  0
VERTEX
  8
0
  5
2C23
 10
15.3451
 20
-90.2315
 30
2.00314e-14
  70
    32
  0
VERTEX
  8
0
  5
2C24
 10
15.3559
 20
-90.2290
 30
2.00301e-14
  70
    32
  0
VERTEX
  8
0
  5
2C25
 10
15.3668
 20
-90.2266
 30
2.00290e-14
  70
    32
  0
VERTEX
  8
0
  5
2C26
 10
15.3776
 20
-90.2241
 30
2.00278e-14
  70
    32
  0
VERTEX
  8
0
  5
2C27
 10
15.3885
 20
-90.2217
 30
2.00266e-14
  70
    32
  0
VERTEX
  8
0
  5
2C28
 10
15.3993
 20
-90.2193
 30
2.00255e-14
  70
    32
  0
VERTEX
  8
0
  5
2C29
 10
15.4102
 20
-90.2169
 30
2.00243e-14
  70
    32
  0
VERTEX
  8
0
  5
2C2A
 10
15.4210
 20
-90.2145
 30
2.00232e-14
  70
    32
  0
VERTEX
  8
0
  5
2C2B
 10
15.4319
 20
-90.2122
 30
2.00221e-14
  70
    32
  0
VERTEX
  8
0
  5
2C2C
 10
15.4428
 20
-90.2098
 30
2.00210e-14
  70
    32
  0
VERTEX
  8
0
  5
2C2D
 10
15.4536
 20
-90.2075
 30
2.00199e-14
  70
    32
  0
VERTEX
  8
0
  5
2C2E
 10
15.4645
 20
-90.2052
 30
2.00189e-14
  70
    32
  0
VERTEX
  8
0
  5
2C2F
 10
15.4754
 20
-90.2029
 30
2.00179e-14
  70
    32
  0
VERTEX
  8
0
  5
2C30
 10
15.4862
 20
-90.2006
 30
2.00168e-14
  70
    32
  0
VERTEX
  8
0
  5
2C31
 10
15.4971
 20
-90.1983
 30
2.00159e-14
  70
    32
  0
VERTEX
  8
0
  5
2C32
 10
15.5080
 20
-90.1961
 30
2.00149e-14
  70
    32
  0
VERTEX
  8
0
  5
2C33
 10
15.5189
 20
-90.1938
 30
2.00139e-14
  70
    32
  0
VERTEX
  8
0
  5
2C34
 10
15.5298
 20
-90.1916
 30
2.00130e-14
  70
    32
  0
VERTEX
  8
0
  5
2C35
 10
15.5407
 20
-90.1894
 30
2.00121e-14
  70
    32
  0
VERTEX
  8
0
  5
2C36
 10
15.5515
 20
-90.1872
 30
2.00113e-14
  70
    32
  0
VERTEX
  8
0
  5
2C37
 10
15.5624
 20
-90.1850
 30
2.00104e-14
  70
    32
  0
VERTEX
  8
0
  5
2C38
 10
15.5733
 20
-90.1828
 30
2.00096e-14
  70
    32
  0
VERTEX
  8
0
  5
2C39
 10
15.5842
 20
-90.1807
 30
2.00088e-14
  70
    32
  0
VERTEX
  8
0
  5
2C3A
 10
15.5951
 20
-90.1786
 30
2.00081e-14
  70
    32
  0
VERTEX
  8
0
  5
2C3B
 10
15.6060
 20
-90.1764
 30
2.00073e-14
  70
    32
  0
VERTEX
  8
0
  5
2C3C
 10
15.6170
 20
-90.1743
 30
2.00066e-14
  70
    32
  0
VERTEX
  8
0
  5
2C3D
 10
15.6279
 20
-90.1723
 30
2.00060e-14
  70
    32
  0
VERTEX
  8
0
  5
2C3E
 10
15.6388
 20
-90.1702
 30
2.00053e-14
  70
    32
  0
VERTEX
  8
0
  5
2C3F
 10
15.6497
 20
-90.1681
 30
2.00047e-14
  70
    32
  0
VERTEX
  8
0
  5
2C40
 10
15.6606
 20
-90.1661
 30
2.00041e-14
  70
    32
  0
VERTEX
  8
0
  5
2C41
 10
15.6715
 20
-90.1641
 30
2.00036e-14
  70
    32
  0
VERTEX
  8
0
  5
2C42
 10
15.6825
 20
-90.1621
 30
2.00031e-14
  70
    32
  0
VERTEX
  8
0
  5
2C43
 10
15.6934
 20
-90.1601
 30
2.00026e-14
  70
    32
  0
VERTEX
  8
0
  5
2C44
 10
15.7043
 20
-90.1581
 30
2.00022e-14
  70
    32
  0
VERTEX
  8
0
  5
2C45
 10
15.7152
 20
-90.1561
 30
2.00018e-14
  70
    32
  0
VERTEX
  8
0
  5
2C46
 10
15.7262
 20
-90.1542
 30
2.00014e-14
  70
    32
  0
VERTEX
  8
0
  5
2C47
 10
15.7371
 20
-90.1523
 30
2.00011e-14
  70
    32
  0
VERTEX
  8
0
  5
2C48
 10
15.7480
 20
-90.1503
 30
2.00008e-14
  70
    32
  0
VERTEX
  8
0
  5
2C49
 10
15.7590
 20
-90.1484
 30
2.00006e-14
  70
    32
  0
VERTEX
  8
0
  5
2C4A
 10
15.7699
 20
-90.1466
 30
2.00004e-14
  70
    32
  0
VERTEX
  8
0
  5
2C4B
 10
15.7808
 20
-90.1447
 30
2.00002e-14
  70
    32
  0
VERTEX
  8
0
  5
2C4C
 10
15.7918
 20
-90.1428
 30
2.00001e-14
  70
    32
  0
VERTEX
  8
0
  5
2C4D
 10
15.8027
 20
-90.1410
 30
2.00000e-14
  70
    32
  0
VERTEX
  8
0
  5
2C4E
 10
15.8137
 20
-90.1392
 30
2.00000e-14
  70
    32
  0
VERTEX
  8
0
  5
2C4F
 10
15.8246
 20
-90.1374
 30
2.00000e-14
  70
    32
  0
VERTEX
  8
0
  5
2C50
 10
15.8355
 20
-90.1356
 30
2.00000e-14
  70
    32
  0
VERTEX
  8
0
  5
2C51
 10
15.8465
 20
-90.1338
 30
2.00000e-14
  70
    32
  0
VERTEX
  8
0
  5
2C52
 10
15.8574
 20
-90.1321
 30
2.00000e-14
  70
    32
  0
VERTEX
  8
0
  5
2C53
 10
15.8684
 20
-90.1303
 30
2.00000e-14
  70
    32
  0
VERTEX
  8
0
  5
2C54
 10
15.8793
 20
-90.1286
 30
2.00000e-14
  70
    32
  0
VERTEX
  8
0
  5
2C55
 10
15.8903
 20
-90.1269
 30
2.00000e-14
  70
    32
  0
VERTEX
  8
0
  5
2C56
 10
15.9012
 20
-90.1252
 30
2.00000e-14
  70
    32
  0
VERTEX
  8
0
  5
2C57
 10
15.9122
 20
-90.1236
 30
2.00000e-14
  70
    32
  0
VERTEX
  8
0
  5
2C58
 10
15.9231
 20
-90.1219
 30
2.00000e-14
  70
    32
  0
VERTEX
  8
0
  5
2C59
 10
15.9341
 20
-90.1203
 30
2.00000e-14
  70
    32
  0
VERTEX
  8
0
  5
2C5A
 10
15.9451
 20
-90.1186
 30
2.00000e-14
  70
    32
  0
VERTEX
  8
0
  5
2C5B
 10
15.9560
 20
-90.1170
 30
2.00000e-14
  70
    32
  0
VERTEX
  8
0
  5
2C5C
 10
15.9670
 20
-90.1154
 30
2.00000e-14
  70
    32
  0
VERTEX
  8
0
  5
2C5D
 10
15.9779
 20
-90.1138
 30
2.00000e-14
  70
    32
  0
VERTEX
  8
0
  5
2C5E
 10
15.9889
 20
-90.1123
 30
2.00000e-14
  70
    32
  0
VERTEX
  8
0
  5
2C5F
 10
15.9999
 20
-90.1107
 30
2.00000e-14
  70
    32
  0
VERTEX
  8
0
  5
2C60
 10
16.0108
 20
-90.1092
 30
2.00000e-14
  70
    32
  0
VERTEX
  8
0
  5
2C61
 10
16.0218
 20
-90.1077
 30
2.00000e-14
  70
    32
  0
VERTEX
  8
0
  5
2C62
 10
16.0327
 20
-90.1062
 30
2.00000e-14
  70
    32
  0
VERTEX
  8
0
  5
2C63
 10
16.0437
 20
-90.1047
 30
2.00000e-14
  70
    32
  0
VERTEX
  8
0
  5
2C64
 10
16.0547
 20
-90.1032
 30
2.00000e-14
  70
    32
  0
VERTEX
  8
0
  5
2C65
 10
16.0656
 20
-90.1018
 30
2.00000e-14
  70
    32
  0
VERTEX
  8
0
  5
2C66
 10
16.0766
 20
-90.1003
 30
2.00000e-14
  70
    32
  0
VERTEX
  8
0
  5
2C67
 10
16.0875
 20
-90.0989
 30
2.00000e-14
  70
    32
  0
VERTEX
  8
0
  5
2C68
 10
16.0985
 20
-90.0975
 30
2.00000e-14
  70
    32
  0
VERTEX
  8
0
  5
2C69
 10
16.1095
 20
-90.0961
 30
2.00000e-14
  70
    32
  0
VERTEX
  8
0
  5
2C6A
 10
16.1204
 20
-90.0948
 30
2.00000e-14
  70
    32
  0
VERTEX
  8
0
  5
2C6B
 10
16.1314
 20
-90.0934
 30
2.00000e-14
  70
    32
  0
VERTEX
  8
0
  5
2C6C
 10
16.1424
 20
-90.0921
 30
2.00000e-14
  70
    32
  0
VERTEX
  8
0
  5
2C6D
 10
16.1533
 20
-90.0907
 30
2.00000e-14
  70
    32
  0
VERTEX
  8
0
  5
2C6E
 10
16.1643
 20
-90.0894
 30
2.00000e-14
  70
    32
  0
VERTEX
  8
0
  5
2C6F
 10
16.1752
 20
-90.0881
 30
2.00000e-14
  70
    32
  0
VERTEX
  8
0
  5
2C70
 10
16.1862
 20
-90.0868
 30
2.00000e-14
  70
    32
  0
VERTEX
  8
0
  5
2C71
 10
16.1972
 20
-90.0856
 30
2.00000e-14
  70
    32
  0
VERTEX
  8
0
  5
2C72
 10
16.2081
 20
-90.0843
 30
2.00000e-14
  70
    32
  0
VERTEX
  8
0
  5
2C73
 10
16.2191
 20
-90.0831
 30
2.00000e-14
  70
    32
  0
VERTEX
  8
0
  5
2C74
 10
16.2300
 20
-90.0819
 30
2.00000e-14
  70
    32
  0
VERTEX
  8
0
  5
2C75
 10
16.2410
 20
-90.0807
 30
2.00000e-14
  70
    32
  0
VERTEX
  8
0
  5
2C76
 10
16.2519
 20
-90.0795
 30
2.00000e-14
  70
    32
  0
VERTEX
  8
0
  5
2C77
 10
16.2629
 20
-90.0783
 30
2.00000e-14
  70
    32
  0
VERTEX
  8
0
  5
2C78
 10
16.2739
 20
-90.0772
 30
2.00000e-14
  70
    32
  0
VERTEX
  8
0
  5
2C79
 10
16.2848
 20
-90.0761
 30
2.00000e-14
  70
    32
  0
VERTEX
  8
0
  5
2C7A
 10
16.2958
 20
-90.0749
 30
2.00000e-14
  70
    32
  0
VERTEX
  8
0
  5
2C7B
 10
16.3067
 20
-90.0738
 30
2.00000e-14
  70
    32
  0
VERTEX
  8
0
  5
2C7C
 10
16.3177
 20
-90.0727
 30
2.00000e-14
  70
    32
  0
VERTEX
  8
0
  5
2C7D
 10
16.3286
 20
-90.0717
 30
2.00000e-14
  70
    32
  0
VERTEX
  8
0
  5
2C7E
 10
16.3396
 20
-90.0706
 30
2.00000e-14
  70
    32
  0
VERTEX
  8
0
  5
2C7F
 10
16.3505
 20
-90.0696
 30
2.00000e-14
  70
    32
  0
VERTEX
  8
0
  5
2C80
 10
16.3614
 20
-90.0685
 30
2.00000e-14
  70
    32
  0
VERTEX
  8
0
  5
2C81
 10
16.3724
 20
-90.0675
 30
2.00000e-14
  70
    32
  0
VERTEX
  8
0
  5
2C82
 10
16.3833
 20
-90.0665
 30
2.00000e-14
  70
    32
  0
VERTEX
  8
0
  5
2C83
 10
16.3943
 20
-90.0656
 30
2.00000e-14
  70
    32
  0
VERTEX
  8
0
  5
2C84
 10
16.4052
 20
-90.0646
 30
2.00000e-14
  70
    32
  0
VERTEX
  8
0
  5
2C85
 10
16.4161
 20
-90.0636
 30
2.00000e-14
  70
    32
  0
VERTEX
  8
0
  5
2C86
 10
16.4271
 20
-90.0627
 30
2.00000e-14
  70
    32
  0
VERTEX
  8
0
  5
2C87
 10
16.4380
 20
-90.0618
 30
2.00000e-14
  70
    32
  0
VERTEX
  8
0
  5
2C88
 10
16.4489
 20
-90.0609
 30
2.00000e-14
  70
    32
  0
VERTEX
  8
0
  5
2C89
 10
16.4599
 20
-90.0600
 30
2.00000e-14
  70
    32
  0
VERTEX
  8
0
  5
2C8A
 10
16.4708
 20
-90.0591
 30
2.00000e-14
  70
    32
  0
VERTEX
  8
0
  5
2C8B
 10
16.4817
 20
-90.0583
 30
2.00000e-14
  70
    32
  0
VERTEX
  8
0
  5
2C8C
 10
16.4927
 20
-90.0574
 30
2.00000e-14
  70
    32
  0
VERTEX
  8
0
  5
2C8D
 10
16.5036
 20
-90.0566
 30
2.00000e-14
  70
    32
  0
VERTEX
  8
0
  5
2C8E
 10
16.5145
 20
-90.0558
 30
2.00000e-14
  70
    32
  0
VERTEX
  8
0
  5
2C8F
 10
16.5254
 20
-90.0550
 30
2.00000e-14
  70
    32
  0
VERTEX
  8
0
  5
2C90
 10
16.5363
 20
-90.0542
 30
2.00000e-14
  70
    32
  0
VERTEX
  8
0
  5
2C91
 10
16.5472
 20
-90.0535
 30
2.00000e-14
  70
    32
  0
VERTEX
  8
0
  5
2C92
 10
16.5581
 20
-90.0527
 30
2.00000e-14
  70
    32
  0
VERTEX
  8
0
  5
2C93
 10
16.5691
 20
-90.0520
 30
2.00000e-14
  70
    32
  0
VERTEX
  8
0
  5
2C94
 10
16.5800
 20
-90.0513
 30
2.00000e-14
  70
    32
  0
VERTEX
  8
0
  5
2C95
 10
16.5909
 20
-90.0506
 30
2.00000e-14
  70
    32
  0
VERTEX
  8
0
  5
2C96
 10
16.6018
 20
-90.0499
 30
2.00000e-14
  70
    32
  0
VERTEX
  8
0
  5
2C97
 10
16.6127
 20
-90.0492
 30
2.00000e-14
  70
    32
  0
VERTEX
  8
0
  5
2C98
 10
16.6235
 20
-90.0486
 30
2.00000e-14
  70
    32
  0
VERTEX
  8
0
  5
2C99
 10
16.6344
 20
-90.0479
 30
2.00000e-14
  70
    32
  0
VERTEX
  8
0
  5
2C9A
 10
16.6453
 20
-90.0473
 30
2.00000e-14
  70
    32
  0
VERTEX
  8
0
  5
2C9B
 10
16.6562
 20
-90.0467
 30
2.00000e-14
  70
    32
  0
VERTEX
  8
0
  5
2C9C
 10
16.6671
 20
-90.0461
 30
2.00000e-14
  70
    32
  0
VERTEX
  8
0
  5
2C9D
 10
16.6780
 20
-90.0455
 30
2.00000e-14
  70
    32
  0
VERTEX
  8
0
  5
2C9E
 10
16.6888
 20
-90.0450
 30
2.00000e-14
  70
    32
  0
VERTEX
  8
0
  5
2C9F
 10
16.6997
 20
-90.0444
 30
2.00000e-14
  70
    32
  0
VERTEX
  8
0
  5
2CA0
 10
16.7106
 20
-90.0439
 30
2.00000e-14
  70
    32
  0
VERTEX
  8
0
  5
2CA1
 10
16.7215
 20
-90.0434
 30
2.00000e-14
  70
    32
  0
VERTEX
  8
0
  5
2CA2
 10
16.7323
 20
-90.0429
 30
2.00000e-14
  70
    32
  0
VERTEX
  8
0
  5
2CA3
 10
16.7432
 20
-90.0424
 30
2.00000e-14
  70
    32
  0
VERTEX
  8
0
  5
2CA4
 10
16.7540
 20
-90.0419
 30
2.00000e-14
  70
    32
  0
VERTEX
  8
0
  5
2CA5
 10
16.7649
 20
-90.0415
 30
2.00000e-14
  70
    32
  0
VERTEX
  8
0
  5
2CA6
 10
16.7757
 20
-90.0411
 30
2.00000e-14
  70
    32
  0
VERTEX
  8
0
  5
2CA7
 10
16.7866
 20
-90.0406
 30
2.00000e-14
  70
    32
  0
VERTEX
  8
0
  5
2CA8
 10
16.7974
 20
-90.0402
 30
2.00000e-14
  70
    32
  0
VERTEX
  8
0
  5
2CA9
 10
16.8083
 20
-90.0398
 30
2.00000e-14
  70
    32
  0
VERTEX
  8
0
  5
2CAA
 10
16.8191
 20
-90.0395
 30
2.00000e-14
  70
    32
  0
VERTEX
  8
0
  5
2CAB
 10
16.8299
 20
-90.0391
 30
2.00000e-14
  70
    32
  0
VERTEX
  8
0
  5
2CAC
 10
16.8407
 20
-90.0388
 30
2.00000e-14
  70
    32
  0
VERTEX
  8
0
  5
2CAD
 10
16.8516
 20
-90.0384
 30
2.00000e-14
  70
    32
  0
VERTEX
  8
0
  5
2CAE
 10
16.8624
 20
-90.0381
 30
2.00000e-14
  70
    32
  0
VERTEX
  8
0
  5
2CAF
 10
16.8732
 20
-90.0378
 30
2.00000e-14
  70
    32
  0
VERTEX
  8
0
  5
2CB0
 10
16.8840
 20
-90.0375
 30
2.00000e-14
  70
    32
  0
VERTEX
  8
0
  5
2CB1
 10
16.8948
 20
-90.0373
 30
2.00000e-14
  70
    32
  0
VERTEX
  8
0
  5
2CB2
 10
16.9056
 20
-90.0370
 30
2.00000e-14
  70
    32
  0
VERTEX
  8
0
  5
2CB3
 10
16.9164
 20
-90.0368
 30
2.00000e-14
  70
    32
  0
VERTEX
  8
0
  5
2CB4
 10
16.9272
 20
-90.0366
 30
2.00000e-14
  70
    32
  0
VERTEX
  8
0
  5
2CB5
 10
16.9380
 20
-90.0364
 30
2.00000e-14
  70
    32
  0
VERTEX
  8
0
  5
2CB6
 10
16.9488
 20
-90.0362
 30
2.00000e-14
  70
    32
  0
VERTEX
  8
0
  5
2CB7
 10
16.9595
 20
-90.0360
 30
2.00000e-14
  70
    32
  0
VERTEX
  8
0
  5
2CB8
 10
16.9703
 20
-90.0358
 30
2.00000e-14
  70
    32
  0
VERTEX
  8
0
  5
2CB9
 10
16.9811
 20
-90.0357
 30
2.00000e-14
  70
    32
  0
VERTEX
  8
0
  5
2CBA
 10
16.9919
 20
-90.0356
 30
2.00000e-14
  70
    32
  0
VERTEX
  8
0
  5
2CBB
 10
17.0026
 20
-90.0354
 30
2.00000e-14
  70
    32
  0
VERTEX
  8
0
  5
2CBC
 10
17.0134
 20
-90.0353
 30
2.00000e-14
  70
    32
  0
VERTEX
  8
0
  5
2CBD
 10
17.0241
 20
-90.0353
 30
2.00000e-14
  70
    32
  0
VERTEX
  8
0
  5
2CBE
 10
17.0349
 20
-90.0352
 30
2.00000e-14
  70
    32
  0
VERTEX
  8
0
  5
2CBF
 10
17.0456
 20
-90.0351
 30
2.00000e-14
  70
    32
  0
VERTEX
  8
0
  5
2CC0
 10
17.0563
 20
-90.0351
 30
2.00000e-14
  70
    32
  0
VERTEX
  8
0
  5
2CC1
 10
17.0671
 20
-90.0351
 30
2.00000e-14
  70
    32
  0
VERTEX
  8
0
  5
2CC2
 10
17.0778
 20
-90.0351
 30
2.00000e-14
  70
    32
  0
SEQEND
  8
0
  5
2CC3
  0
LINE
  5
1FFC
  8
0
 10
68.0777825510818957
 20
-87.5350682550881771
 30
0.0000000000000194
 11
-33.9222174489181114
 21
-87.5350682550881771
 31
0.0000000000000194
210
0.0
220
1.0
230
-0.0000000000000002
  0
LINE
  5
1FFD
  8
0
 10
99.5777825510818957
 20
-105.5350682550882055
 30
0.0000000000000234
 11
-65.4222174489181043
 21
-105.5350682550881061
 31
0.0000000000000234
210
0.0
220
1.0
230
-0.0000000000000002
  0
LINE
  5
1FFE
  8
0
 10
99.5777825510818957
 20
-90.535068255088234
 30
0.0000000000000201
 11
-65.4222174489181043
 21
-90.5350682550881203
 31
0.0000000000000201
210
0.0
220
1.0
230
-0.0000000000000002
  0
ARC
  5
1FFF
  8
0
 10
-49.2277825510819724
 20
-124.9084290770634027
 30
0.0
 40
2.0000000000000711
210
0.0
220
-0.0000000000000002
230
-1.0
 50
0.0000000000004071
 51
21.1485687849523885
  0
ARC
  5
2000
  8
0
 10
15.0722174489180993
 20
-124.9084290770633032
 30
0.0
 40
1.9999999999999949
210
0.0
220
-0.0000000000000002
230
-1.0
 50
158.8514312150481089
 51
180.0000000000003979
  0
LINE
  5
2001
  8
0
 10
-13.07221744891811
 20
-132.5350682550881913
 30
0.0000000000000294
 11
-13.07221744891811
 21
-124.9084290770634027
 31
0.0000000000000277
210
0.0
220
1.0
230
-0.0000000000000002
  0
LINE
  5
2002
  8
0
 10
47.2277825510819014
 20
-132.5350682550881913
 30
0.0000000000000294
 11
47.2277825510819014
 21
-124.9084290770634027
 31
0.0000000000000277
210
0.0
220
1.0
230
-0.0000000000000002
  0
LINE
  5
2003
  8
0
 10
-13.2069213775271894
 20
-124.1868540178674039
 30
0.0000000000000276
 11
-18.9385716623534499
 21
-109.3703430775002943
 31
0.0000000000000243
210
0.0
220
1.0
230
-0.0000000000000002
  0
LINE
  5
2004
  8
0
 10
47.3624864796909932
 20
-124.1868540178674039
 30
0.0000000000000276
 11
53.0941367645172235
 21
-109.3703430775002943
 31
0.0000000000000243
210
0.0
220
1.0
230
-0.0000000000000002
  0
LINE
  5
2005
  8
0
 10
68.0777825510819241
 20
-87.5350682550882055
 30
0.0000000000000194
 11
70.5777825510818957
 21
-90.0350682550881771
 31
0.00000000000002
210
0.0
220
1.0
230
-0.0000000000000002
  0
LINE
  5
2006
  8
0
 10
-33.9222174489182393
 20
-87.5350682550882766
 30
0.0000000000000194
 11
-36.4222174489182393
 21
-90.0350682550882766
 31
0.00000000000002
210
0.0
220
1.0
230
-0.0000000000000002
  0
ARC
  5
2007
  8
0
 10
-58.6900249786899693
 20
-111.5350682550882055
 30
0.0
 40
6.0000000000000258
210
0.0
220
-0.0000000000000002
230
-1.0
 50
21.1485687849519195
 51
90.0000000000001421
  0
ARC
  5
2008
  8
0
 10
24.5344598765261992
 20
-111.5350682550882055
 30
0.0
 40
6.0000000000000417
210
0.0
220
-0.0000000000000002
230
-1.0
 50
89.9999999999992042
 51
158.8514312150473984
  0
LINE
  5
2009
  8
0
 10
-65.4222174489181327
 20
-105.5350682550882055
 30
0.0000000000000234
 11
-65.4222174489181327
 21
-90.5350682550881629
 31
0.0000000000000201
210
0.0
220
1.0
230
-0.0000000000000002
  0
LINE
  5
200A
  8
0
 10
99.5777825510819241
 20
-105.5350682550882055
 30
0.0000000000000234
 11
99.5777825510819241
 21
-90.5350682550882055
 31
0.0000000000000201
210
0.0
220
1.0
230
-0.0000000000000002
  0
LINE
  5
200B
  8
0
 10
-8.8094509546094741
 20
-222.5350682550881913
 30
0.0000000000000494
 11
42.9650160567732726
 21
-222.5350682550881913
 31
0.0000000000000494
210
0.0
220
1.0
230
-0.0000000000000002
  0
ARC
  5
200C
  8
0
 10
2.9225632985455499
 20
-217.1307481556958976
 30
0.0
 40
6.4999999999997771
210
0.0
220
-0.0000000000000002
230
-1.0
 50
353.0200771855076027
 51
0.0000000000000127
  0
ARC
  5
200D
  8
0
 10
-37.0781284007102983
 20
-217.1307481556960113
 30
0.0
 40
6.4999999999988196
210
0.0
220
-0.0000000000000002
230
-1.0
 50
179.9999999999992042
 51
186.9799228144925962
  0
LINE
  5
200E
  8
0
 10
-8.8094509546094777
 20
-222.5350682550881913
 30
0.0000000000000494
 11
-9.3743904680255881
 21
-217.9206381323105859
 31
0.0000000000000484
210
0.0
220
1.0
230
-0.0000000000000002
  0
LINE
  5
200F
  8
0
 10
42.9650160567732726
 20
-222.5350682550881913
 30
0.0000000000000494
 11
43.5299555701893794
 21
-217.9206381323105859
 31
0.0000000000000484
210
0.0
220
1.0
230
-0.0000000000000002
  0
LINE
  5
2010
  8
0
 10
43.5781284007091188
 20
-138.7153935682576105
 30
0.0000000000000308
 11
43.5781284007091188
 21
-217.1307481556958976
 31
0.0000000000000482
210
0.0
220
1.0
230
-0.0000000000000002
  0
LINE
  5
2011
  8
0
 10
-9.4225632985453274
 20
-138.7153935682576105
 30
0.0000000000000308
 11
-9.4225632985453274
 21
-217.1307481556958976
 31
0.0000000000000482
210
0.0
220
1.0
230
-0.0000000000000002
  0
LINE
  5
2012
  8
0
 10
-9.7747828618296353
 20
-137.0741446884362915
 30
0.0000000000000304
 11
-11.8170532892578404
 21
-132.5350682550881061
 31
0.0000000000000294
210
0.0
220
1.0
230
-0.0000000000000002
  0
LINE
  5
2013
  8
0
 10
43.9303479639934267
 20
-137.0741446884362915
 30
0.0000000000000304
 11
45.9726183914216335
 21
-132.5350682550881061
 31
0.0000000000000294
210
0.0
220
1.0
230
-0.0000000000000002
  0
ARC
  5
2014
  8
0
 10
13.4225632985453895
 20
-138.7153935682576105
 30
0.0
 40
4.0000000000001057
210
0.0
220
-0.0000000000000002
230
-1.0
 50
155.7755505218636927
 51
179.9999999999996021
  0
ARC
  5
2015
  8
0
 10
-47.5781284007091827
 20
-138.7153935682576105
 30
0.0
 40
4.0000000000000986
210
0.0
220
-0.0000000000000002
230
-1.0
 50
0.0000000000004071
 51
24.2244494781362896
  0
LINE
  5
2016
  8
0
  6
VERDECKT
 62
     1
 10
88.5777825510818957
 20
-90.5350682550881629
 30
0.0000000000000201
 11
88.5777825510818957
 21
-105.5350682550882055
 31
0.0000000000000234
210
0.0
220
1.0
230
-0.0000000000000002
  0
LINE
  5
2017
  8
0
  6
VERDECKT
 62
     1
 10
70.5777825510818957
 20
-90.0350682550881771
 30
0.00000000000002
 11
70.5777825510818957
 21
-105.5350682550882055
 31
0.0000000000000234
210
0.0
220
1.0
230
-0.0000000000000002
  0
LINE
  5
2018
  8
0
  6
VERDECKT
 62
     1
 10
-54.4222174489183317
 20
-105.5350682550882055
 30
0.0000000000000234
 11
-54.4222174489183317
 21
-90.5350682550881629
 31
0.0000000000000201
210
0.0
220
1.0
230
-0.0000000000000002
  0
LINE
  5
2019
  8
0
  6
VERDECKT
 62
     1
 10
-36.4222174489183317
 20
-105.5350682550882055
 30
0.0000000000000234
 11
-36.4222174489183317
 21
-90.0350682550881771
 31
0.00000000000002
210
0.0
220
1.0
230
-0.0000000000000002
  0
LINE
  5
201A
  8
0
  6
VERDECKT
 62
     1
 10
8.0777825510818921
 20
-105.5350682550882055
 30
0.0000000000000234
 11
8.0777825510818957
 21
-90.5350682550881629
 31
0.0000000000000201
210
0.0
220
1.0
230
-0.0000000000000002
  0
LINE
  5
201B
  8
0
  6
VERDECKT
 62
     1
 10
26.0777825510818992
 20
-105.5350682550882055
 30
0.0000000000000234
 11
26.0777825510818992
 21
-90.5350682550881629
 31
0.0000000000000201
210
0.0
220
1.0
230
-0.0000000000000002
  0
LINE
  5
201C
  8
0
  6
VERDECKT
 62
     1
 10
-10.1722174489181398
 20
-132.5350682550881913
 30
0.0000000000000294
 11
-10.1722174489181203
 21
-87.5350682550881771
 31
0.0000000000000194
210
0.0
220
1.0
230
-0.0000000000000002
  0
LINE
  5
201D
  8
0
  6
VERDECKT
 62
     1
 10
44.327782551081917
 20
-132.5350682550881913
 30
0.0000000000000294
 11
44.3277825510819312
 21
-87.5350682550882055
 31
0.0000000000000194
210
0.0
220
1.0
230
-0.0000000000000002
  0
LINE
  5
201E
  8
0
  6
VERDECKT
 62
     1
 10
-7.3322836643601468
 20
-222.3542203176432963
 30
0.0000000000000494
 11
41.487848766523939
 21
-222.3542203176432963
 31
0.0000000000000494
210
0.0
220
1.0
230
-0.0000000000000002
  0
ARC
  5
201F
  8
0
  6
VERDECKT
 62
     1
 10
2.9225632985456409
 20
-217.2299927416515004
 30
0.0
 40
4.9999999999997149
210
0.0
220
-0.0000000000000002
230
-1.0
 50
353.0168414064734179
 51
0.0
  0
ARC
  5
2020
  8
0
  6
VERDECKT
 62
     1
 10
-37.0781284007099288
 20
-217.2299927416516141
 30
0.0
 40
4.9999999999992184
210
0.0
220
-0.0000000000000002
230
-1.0
 50
179.9999999999996874
 51
186.9831585935272926
  0
LINE
  5
2021
  8
0
  6
VERDECKT
 62
     1
 10
-7.3322836643601583
 20
-222.3542203176432963
 30
0.0000000000000494
 11
-7.8854729525119778
 21
-217.8378806972525865
 31
0.0000000000000484
210
0.0
220
1.0
230
-0.0000000000000002
  0
LINE
  5
2022
  8
0
  6
VERDECKT
 62
     1
 10
41.4878487665239533
 20
-222.3542203176432963
 30
0.0000000000000494
 11
42.0410380546757665
 21
-217.8378806972525865
 31
0.0000000000000484
210
0.0
220
1.0
230
-0.0000000000000002
  0
LINE
  5
2023
  8
0
  6
VERDECKT
 62
     1
 10
42.0781284007091401
 20
-138.7153935682576105
 30
0.0000000000000308
 11
42.0781284007091401
 21
-217.2299927416515004
 31
0.0000000000000482
210
0.0
220
1.0
230
-0.0000000000000002
  0
LINE
  5
2024
  8
0
  6
VERDECKT
 62
     1
 10
-7.9225632985453549
 20
-138.7153935682576105
 30
0.0000000000000308
 11
-7.9225632985453549
 21
-217.2299927416515004
 31
0.0000000000000482
210
0.0
220
1.0
230
-0.0000000000000002
  0
LINE
  5
2025
  8
0
  6
VERDECKT
 62
     1
 10
41.4878487665239533
 20
-222.3542203176432963
 30
0.0000000000000494
 11
42.9650160567732726
 21
-222.5350682550881913
 31
0.0000000000000494
210
0.0
220
1.0
230
-0.0000000000000002
  0
LINE
  5
2026
  8
0
  6
VERDECKT
 62
     1
 10
-7.3322836643601788
 20
-222.3542203176432963
 30
0.0000000000000494
 11
-8.8094509546094777
 21
-222.5350682550881913
 31
0.0000000000000494
210
0.0
220
1.0
230
-0.0000000000000002
  0
ARC
  5
2027
  8
0
  6
VERDECKT
 62
     1
 10
13.4225632985460805
 20
-138.7153935682574968
 30
0.0
 40
5.5000000000007203
210
0.0
220
-0.0000000000000002
230
-1.0
 50
155.7755505218675012
 51
180.000000000000199
  0
ARC
  5
2028
  8
0
  6
VERDECKT
 62
     1
 10
-47.5781284007099501
 20
-138.7153935682576105
 30
0.0
 40
5.50000000000081
210
0.0
220
-0.0000000000000002
230
-1.0
 50
0.0000000000003053
 51
24.2244494781323496
  0
LINE
  5
2029
  8
0
  6
VERDECKT
 62
     1
 10
-8.4068651980612117
 20
-136.4586763585033964
 30
0.0000000000000303
 11
-10.1722174489181008
 21
-132.5350682550881061
 31
0.0000000000000294
210
0.0
220
1.0
230
-0.0000000000000002
  0
LINE
  5
202A
  8
0
  6
VERDECKT
 62
     1
 10
42.5624303002249889
 20
-136.4586763585035101
 30
0.0000000000000303
 11
44.3277825510818886
 21
-132.5350682550881061
 31
0.0000000000000294
210
0.0
220
1.0
230
-0.0000000000000002
  0
ENDBLK
  5
202C
  8
0
  0
ENDSEC
  0
SECTION
  2
ENTITIES
  0
TEXT
  5
8F
  8
VOLL
 10
78.076754716981128
 20
31.025947764705851
 30
0.0
 40
1.8
  1

  7
GREEKS
  0
INSERT
  5
B3C
  8
ADSK_ASSOC_ENTITY_BACKUPS
  2
*S0
 10
0.0
 20
0.0
 30
0.0
  0
INSERT
  5
1FF4
  8
STEMPEL
  2
A$C3F932B2A
 10
189.4667156724644883
 20
-301.3201406418996839
 30
-33.5444175418161379
  0
INSERT
  5
202D
  8
STEMPEL
  2
A$C0697DFF6
 10
189.4667156724644883
 20
257.0135023295015912
 30
-33.5444175418161592
  0
VIEWPORT
  5
928
 67
     1
  8
0
 10
104.9325357368027056
 20
148.4488398705011889
 30
0.0
 40
533.9969448798291296
 41
299.1239570917758783
 68
     1
 69
     1
1001
ACAD
1000
MVIEW
1002
{
1070
    16
1010
0.0
1020
0.0
1030
0.0
1010
0.0
1020
0.0
1030
1.0
1040
0.0
1040
299.1239570917758783
1040
104.9325357368027056
1040
148.4488398705011889
1040
50.0
1040
0.0
1040
0.0
1070
     0
1070
  1500
1070
     1
1070
     1
1070
     0
1070
     0
1070
     0
1070
     0
1040
0.0
1040
0.0
1040
0.0
1040
10.0
1040
10.0
1040
10.0
1040
10.0
1070
     0
1002
{
1002
}
1002
}
  0
ENDSEC
  0
EOF
