  0
SECTION
  2
HEADER
  9
$ACADVER
  1
AC1009
  9
$INSBASE
 10
0.0
 20
0.0
 30
0.0
  9
$EXTMIN
 10
995.4383649180427938
 20
-79.4994171417926623
 30
-55.8582340987963093
  9
$EXTMAX
 10
1145.4383649180429074
 20
235.187638975662594
 30
-55.8582340987962809
  9
$LIMMIN
 10
0.0
 20
0.0
  9
$LIMMAX
 10
419.9999999999998863
 20
594.0
  9
$ORTHOMODE
 70
     1
  9
$REGENMODE
 70
     1
  9
$FILLMODE
 70
     1
  9
$QTEXTMODE
 70
     0
  9
$MIRRTEXT
 70
     1
  9
$DRAGMODE
 70
     2
  9
$LTSCALE
 40
10.0
  9
$OSMODE
 70
  2495
  9
$ATTMODE
 70
     1
  9
$TEXTSIZE
 40
3.5
  9
$TRACEWID
 40
0.5
  9
$TEXTSTYLE
  7
STANDARD
  9
$CLAYER
  8
STEMPEL
  9
$CELTYPE
  6
BYLAYER
  9
$CECOLOR
 62
   256
  9
$DIMSCALE
 40
1.0
  9
$DIMASZ
 40
3.5
  9
$DIMEXO
 40
1.0
  9
$DIMDLI
 40
7.0
  9
$DIMRND
 40
0.0
  9
$DIMDLE
 40
0.0
  9
$DIMEXE
 40
1.0
  9
$DIMTP
 40
0.0
  9
$DIMTM
 40
0.0
  9
$DIMTXT
 40
3.5
  9
$DIMCEN
 40
1.5
  9
$DIMTSZ
 40
0.0
  9
$DIMTOL
 70
     0
  9
$DIMLIM
 70
     0
  9
$DIMTIH
 70
     0
  9
$DIMTOH
 70
     0
  9
$DIMSE1
 70
     0
  9
$DIMSE2
 70
     0
  9
$DIMTAD
 70
     1
  9
$DIMZIN
 70
     8
  9
$DIMBLK
  1

  9
$DIMASO
 70
     1
  9
$DIMSHO
 70
     0
  9
$DIMPOST
  1

  9
$DIMAPOST
  1

  9
$DIMALT
 70
     0
  9
$DIMALTD
 70
     2
  9
$DIMALTF
 40
25.3999999999999986
  9
$DIMLFAC
 40
1.0
  9
$DIMTOFL
 70
     1
  9
$DIMTVP
 40
0.0
  9
$DIMTIX
 70
     0
  9
$DIMSOXD
 70
     0
  9
$DIMSAH
 70
     0
  9
$DIMBLK1
  1

  9
$DIMBLK2
  1

  9
$DIMSTYLE
  2
STANDARD
  9
$DIMCLRD
 70
     0
  9
$DIMCLRE
 70
     0
  9
$DIMCLRT
 70
     1
  9
$DIMTFAC
 40
0.5142857142857143
  9
$DIMGAP
 40
1.5
  9
$LUNITS
 70
     2
  9
$LUPREC
 70
     2
  9
$SKETCHINC
 40
1.0
  9
$FILLETRAD
 40
10.0
  9
$AUNITS
 70
     0
  9
$AUPREC
 70
     0
  9
$MENU
  1
ACAD
  9
$ELEVATION
 40
0.0
  9
$PELEVATION
 40
0.0
  9
$THICKNESS
 40
0.0
  9
$LIMCHECK
 70
     0
  9
$BLIPMODE
 70
     0
  9
$CHAMFERA
 40
0.0
  9
$CHAMFERB
 40
0.0
  9
$SKPOLY
 70
     0
  9
$TDCREATE
 40
2455397.8646990740671754
  9
$TDUPDATE
 40
2459627.4962962968274951
  9
$TDINDWG
 40
0.3754607176
  9
$TDUSRTIMER
 40
0.3754607176
  9
$USRTIMER
 70
     1
  9
$ANGBASE
 50
0.0
  9
$ANGDIR
 70
     0
  9
$PDMODE
 70
     0
  9
$PDSIZE
 40
0.0
  9
$PLINEWID
 40
0.0
  9
$COORDS
 70
     1
  9
$SPLFRAME
 70
     0
  9
$SPLINETYPE
 70
     6
  9
$SPLINESEGS
 70
     8
  9
$ATTDIA
 70
     1
  9
$ATTREQ
 70
     1
  9
$HANDLING
 70
     1
  9
$HANDSEED
  5
2B13
  9
$SURFTAB1
 70
     6
  9
$SURFTAB2
 70
     6
  9
$SURFTYPE
 70
     6
  9
$SURFU
 70
     6
  9
$SURFV
 70
     6
  9
$UCSNAME
  2

  9
$UCSORG
 10
0.0
 20
0.0
 30
0.0
  9
$UCSXDIR
 10
1.0
 20
0.0
 30
0.0
  9
$UCSYDIR
 10
0.0
 20
1.0
 30
0.0
  9
$PUCSNAME
  2

  9
$PUCSORG
 10
0.0
 20
0.0
 30
0.0
  9
$PUCSXDIR
 10
1.0
 20
0.0
 30
0.0
  9
$PUCSYDIR
 10
0.0
 20
1.0
 30
0.0
  9
$USERI1
 70
     0
  9
$USERI2
 70
     0
  9
$USERI3
 70
     0
  9
$USERI4
 70
     0
  9
$USERI5
 70
     0
  9
$USERR1
 40
0.0
  9
$USERR2
 40
0.0
  9
$USERR3
 40
0.0
  9
$USERR4
 40
0.0
  9
$USERR5
 40
0.0
  9
$WORLDVIEW
 70
     1
  9
$SHADEDGE
 70
     3
  9
$SHADEDIF
 70
    70
  9
$TILEMODE
 70
     1
  9
$MAXACTVP
 70
    16
  9
$PLIMCHECK
 70
     0
  9
$PEXTMIN
 10
1.0000000000000000E+20
 20
1.0000000000000000E+20
 30
1.0000000000000000E+20
  9
$PEXTMAX
 10
-1.0000000000000000E+20
 20
-1.0000000000000000E+20
 30
-1.0000000000000000E+20
  9
$PLIMMIN
 10
-5.027082920074462
 20
-6.4382776093749987
  9
$PLIMMAX
 10
204.9462447166442871
 20
290.4877172636719251
  9
$UNITMODE
 70
     0
  9
$VISRETAIN
 70
     0
  9
$PLINEGEN
 70
     0
  9
$PSLTSCALE
 70
     0
  0
ENDSEC
  0
SECTION
  2
TABLES
  0
TABLE
  2
VPORT
 70
     1
  0
VPORT
  2
*ACTIVE
 70
     0
 10
0.0
 20
0.0
 11
1.0
 21
1.0
 12
93.8328414931695391
 22
-75.2694668326109735
 13
0.0
 23
0.0
 14
1.0
 24
1.0
 15
10.0
 25
10.0
 16
-0.0000000000002274
 26
0.0
 36
943.9237575217996437
 17
976.6055234248733541
 27
153.1135777495460104
 37
-27.92911704939808
 40
316.9374999037540874
 41
1.785202863961814
 42
50.0
 43
0.0
 44
0.0
 50
0.0
 51
0.0
 71
     0
 72
  1500
 73
     1
 74
     0
 75
     0
 76
     0
 77
     0
 78
     0
  0
ENDTAB
  0
TABLE
  2
LTYPE
 70
     7
  0
LTYPE
  2
CONTINUOUS
 70
     0
  3
Solid line
 72
    65
 73
     0
 40
0.0
  0
LTYPE
  2
PHANTOM2
 70
     0
  3
Phantom (.5x) ___ _ _ ___ _ _ ___ _ _ ___ _ _
 72
    65
 73
     6
 40
1.25
 49
0.625
 49
-0.125
 49
0.125
 49
-0.125
 49
0.125
 49
-0.125
  0
LTYPE
  2
AUSGEZOGEN
 70
     0
  3
Ausgezogene Linie
 72
    65
 73
     0
 40
0.0
  0
LTYPE
  2
VERDECKT
 70
     0
  3
Verdeckt __ __ __ __ __ __ __ __ __ __ __ __ __
 72
    65
 73
     2
 40
0.375
 49
0.25
 49
-0.125
  0
ENDTAB
  0
TABLE
  2
LAYER
 70
    13
  0
LAYER
  2
0
 70
     0
 62
     7
  6
CONTINUOUS
  0
LAYER
  2
VOLL
 70
     0
 62
     1
  6
CONTINUOUS
  0
LAYER
  2
STEMPEL
 70
     0
 62
     3
  6
CONTINUOUS
  0
LAYER
  2
DEFPOINTS
 70
     0
 62
     7
  6
CONTINUOUS
  0
LAYER
  2
ADSK_ASSOC_ENTITY_BACKUPS
 70
     1
 62
    -7
  6
CONTINUOUS
  0
ENDTAB
  0
TABLE
  2
STYLE
 70
     4
  0
STYLE
  2
STANDARD
 70
     0
 40
0.0
 41
0.8
 50
0.0
 71
     0
 42
3.5
  3
simplex.shx
  4

  0
STYLE
  2
GREEKS
 70
     0
 40
0.0
 41
0.8
 50
0.0
 71
     0
 42
2.5
  3
SIMPLEX.shx
  4

  0
ENDTAB
  0
TABLE
  2
VIEW
 70
     1
  0
ENDTAB
  0
TABLE
  2
UCS
 70
     0
  0
ENDTAB
  0
TABLE
  2
APPID
 70
    34
  0
APPID
  2
ACAD
 70
     0
  0
APPID
  2
ACAD_EXEMPT_FROM_CAD_STANDARDS
 70
     0
  0
APPID
  2
ACAD_NAV_VCDISPLAY
 70
     0
  0
APPID
  2
ACAECLAYERSTANDARD
 70
     0
  0
APPID
  2
ACCMTRANSPARENCY
 70
     0
  0
APPID
  2
ACAD_PSEXT
 70
     0
  0
APPID
  2
GRADIENTCOLOR1ACI
 70
     0
  0
APPID
  2
GRADIENTCOLOR2ACI
 70
     0
  0
APPID
  2
ACAD_MLEADERVER
 70
     0
  0
APPID
  2
ACAD_OBJECT_CHANGE_GUID
 70
     0
  0
APPID
  2
MCAD_NO_VIS
 70
     0
  0
APPID
  2
ACAD_TEMP_GRAPHIC
 70
     0
  0
APPID
  2
ACATTRIBSERVICES
 70
     0
  0
APPID
  2
DESIGNERASSEMBLIES
 70
     0
  0
APPID
  2
ACAD_DSTYLE_DIMJAG
 70
     0
  0
APPID
  2
ACAD_DSTYLE_DIMBREAK
 70
     0
  0
APPID
  2
GENIUS_GENSCREG_15
 70
     0
  0
APPID
  2
GENIUS_GENOBJ-N-SDF_13
 70
     0
  0
APPID
  2
GENIUS_GENODEF_13
 70
     0
  0
APPID
  2
RAK
 70
     0
  0
APPID
  2
ACAUTHENVIRON
 70
     0
  0
APPID
  2
ACDBDYNAMICBLOCKTRUENAME
 70
     0
  0
APPID
  2
ACDBDYNAMICBLOCKGUID
 70
     0
  0
APPID
  2
ACSYNERGY
 70
     0
  0
APPID
  2
SYNERGY_BODY_TBR_ID
 70
     0
  0
APPID
  2
ACAD_VIEW_EDGE_ID
 70
     0
  0
APPID
  2
ACSYNERGYSKETCH
 70
     0
  0
APPID
  2
ACAD_STEPID
 70
     0
  0
APPID
  2
ACAD_MODELDOC_XFORM
 70
     0
  0
APPID
  2
GENIUS_GENDTOL_13
 70
     0
  0
APPID
  2
ACAD_DSTYLE_DIMINSPECT
 70
     0
  0
APPID
  2
ACADANNOMONITORALERTICONDI
 70
     0
  0
APPID
  2
GENIUS_GENDIMSH_14
 70
     0
  0
APPID
  2
AcDbAttr
 70
     0
  0
ENDTAB
  0
TABLE
  2
DIMSTYLE
 70
     3
  0
DIMSTYLE
  2
STANDARD
 70
     0
  3

  4

  5

  6

  7

 40
1.0
 41
0.18
 42
0.0625
 43
0.38
 44
0.18
 45
0.0
 46
0.0
 47
0.0
 48
0.0
140
0.18
141
0.09
142
0.0
143
25.3999999999999986
144
1.0
145
0.0
146
1.0
147
0.09
 71
     0
 72
     0
 73
     1
 74
     1
 75
     0
 76
     0
 77
     0
 78
     0
170
     0
171
     2
172
     0
173
     0
174
     0
175
     0
176
     0
177
     0
178
     0
  0
ENDTAB
  0
ENDSEC
  0
SECTION
  2
BLOCKS
  0
BLOCK
  8
0
  2
$MODEL_SPACE
 70
     0
 10
0.0
 20
0.0
 30
0.0
  3
$MODEL_SPACE
  1

  0
ENDBLK
  5
36
  8
0
  0
BLOCK
 67
     1
  8
0
  2
$PAPER_SPACE
 70
     0
 10
0.0
 20
0.0
 30
0.0
  3
$PAPER_SPACE
  1

  0
ENDBLK
  5
34
 67
     1
  8
0
  0
BLOCK
  8
0
  2
*S0
 70
     1
 10
0.0
 20
0.0
 30
0.0
  3
*S0
  1

  0
ENDBLK
  5
FA2
  8
0
  0
BLOCK
  8
0
  2
A$C403FCDA9
 70
     0
 10
0.0
 20
0.0
 30
0.0
  3
A$C403FCDA9
  1

  0
CIRCLE
  5
2A74
  8
0
 10
701.5112652587622506
 20
155.0350682550881061
 30
0.0000000000001279
 40
18.9152930788977685
  0
CIRCLE
  5
2A75
  8
0
 10
701.5112652587622506
 20
155.0350682550881061
 30
0.0000000000001279
 40
19.5000000000001101
  0
CIRCLE
  5
2A76
  8
0
 10
701.5112652587622506
 20
210.0350682550881061
 30
0.0000000000001279
 40
9.0
  0
CIRCLE
  5
2A77
  8
0
 10
701.5112652587622506
 20
100.0350682550881061
 30
0.0000000000001279
 40
9.0
  0
CIRCLE
  5
2A78
  8
0
 10
756.5112652587622506
 20
155.0350682550881061
 30
0.0000000000001421
 40
9.0
  0
CIRCLE
  5
2A79
  8
0
 10
646.5112652587622506
 20
155.0350682550881061
 30
0.0000000000001137
 40
9.0
  0
CIRCLE
  5
2A7A
  8
0
 10
701.5112652587622506
 20
155.0350682550881061
 30
0.0000000000001279
 40
41.0
  0
CIRCLE
  5
2A7B
  8
0
 10
701.5112652587622506
 20
155.0350682550881061
 30
0.0000000000001279
 40
75.0
  0
CIRCLE
  5
2A7C
  8
0
 10
701.5112652587622506
 20
155.0350682550881061
 30
0.0000000000001279
 40
39.0
  0
CIRCLE
  5
2A7D
  8
0
 10
701.5112652587622506
 20
155.0350682550881061
 30
0.0000000000001279
 40
21.5500000000000718
  0
CIRCLE
  5
2A7E
  8
0
  6
VERDECKT
 62
     1
 10
701.5112652587622506
 20
155.0350682550881061
 30
0.0000000000001279
 40
20.3875793553186213
  0
CIRCLE
  5
2A7F
  8
0
  6
VERDECKT
 62
     1
 10
701.5112652587622506
 20
155.0350682550881061
 30
0.0000000000001279
 40
21.0000000000000817
  0
CIRCLE
  5
2A80
  8
0
  6
VERDECKT
 62
     1
 10
701.5112652587622506
 20
155.0350682550881061
 30
0.0000000000001279
 40
23.1711801257108583
  0
CIRCLE
  5
2A81
  8
0
  6
VERDECKT
 62
     1
 10
701.5112652587622506
 20
155.0350682550881061
 30
0.0000000000001279
 40
24.1499999999999808
  0
ENDBLK
  5
2A83
  8
0
  0
BLOCK
  8
0
  2
A$C00D3038D
 70
     0
 10
0.0
 20
0.0
 30
0.0
  3
A$C00D3038D
  1

  0
LINE
  5
2A87
  8
0
 10
681.1236859034436293
 20
-35.3496528069123386
 30
0.0000000000000078
 11
721.8988446140808719
 21
-35.3496528069123386
 31
0.0000000000000078
210
0.0
220
1.0
230
-0.0000000000000002
  0
ARC
  5
2A88
  8
0
 10
-686.011265258772255
 20
-30.2998984781941303
 30
0.0
 40
5.50000000001023
210
0.0
220
-0.0000000000000002
230
-1.0
 50
352.564097426864123
 51
359.9999999999922125
  0
ARC
  5
2A89
  8
0
 10
-717.0112652587521325
 20
-30.2998984781941303
 30
0.0
 40
5.50000000001023
210
0.0
220
-0.0000000000000002
230
-1.0
 50
180.0000000000077875
 51
187.4359025731357917
  0
LINE
  5
2A8A
  8
0
 10
681.1236859034436293
 20
-35.3496528069123528
 30
0.0000000000000078
 11
680.5575188175148469
 21
-31.0116918151850918
 31
0.0000000000000069
210
0.0
220
1.0
230
-0.0000000000000002
  0
LINE
  5
2A8B
  8
0
 10
721.8988446140808719
 20
-35.3496528069123528
 30
0.0000000000000078
 11
722.4650117000096543
 21
-31.0116918151850918
 31
0.0000000000000069
210
0.0
220
1.0
230
-0.0000000000000002
  0
LINE
  5
2A8C
  8
0
 10
722.5112652587623643
 20
32.7784590723502021
 30
-0.0000000000000073
 11
722.5112652587623643
 21
-30.2998984781948799
 31
0.0000000000000067
210
0.0
220
1.0
230
-0.0000000000000002
  0
LINE
  5
2A8D
  8
0
 10
680.5112652587621369
 20
32.7784590723502021
 30
-0.0000000000000073
 11
680.5112652587621369
 21
-30.2998984781948799
 31
0.0000000000000067
210
0.0
220
1.0
230
-0.0000000000000002
  0
ARC
  5
2A8E
  8
0
 10
-672.511265258762819
 20
32.778459072350401
 30
0.0
 40
7.999999999999317
210
0.0
220
-0.0000000000000002
230
-1.0
 50
157.7063708403069029
 51
180.0000000000013927
  0
ARC
  5
2A8F
  8
0
 10
-730.5112652587616822
 20
32.778459072350401
 30
0.0
 40
7.999999999999317
210
0.0
220
-0.0000000000000002
230
-1.0
 50
0.0
 51
22.2936291596945502
  0
LINE
  5
2A90
  8
0
 10
679.9132805004294369
 20
35.8132853214335682
 30
-0.000000000000008
 11
678.3400851330512751
 21
39.6503471930876188
 31
-0.0000000000000088
210
0.0
220
1.0
230
-0.0000000000000002
  0
LINE
  5
2A91
  8
0
 10
723.1092500170950643
 20
35.8132853214335682
 30
-0.000000000000008
 11
724.6824453844729987
 21
39.6503471930876188
 31
-0.0000000000000088
210
0.0
220
1.0
230
-0.0000000000000002
  0
LINE
  5
2A92
  8
0
 10
677.3612652587622733
 20
39.6503471930876188
 30
-0.0000000000000088
 11
725.6612652587622279
 21
39.6503471930876188
 31
-0.0000000000000088
210
0.0
220
1.0
230
-0.0000000000000002
  0
LINE
  5
2A93
  8
0
 10
626.5112652587622506
 20
66.6503471930876259
 30
-0.0000000000000148
 11
776.5112652587622506
 21
66.6503471930876259
 31
-0.0000000000000148
210
0.0
220
1.0
230
-0.0000000000000002
  0
LINE
  5
2A94
  8
0
 10
626.5112652587622506
 20
82.6503471930876259
 30
-0.0000000000000184
 11
776.5112652587622506
 21
82.6503471930876259
 31
-0.0000000000000184
210
0.0
220
1.0
230
-0.0000000000000002
  0
LINE
  5
2A95
  8
0
 10
662.5112652587622506
 20
84.6503471930876827
 30
-0.0000000000000188
 11
740.5112652587622506
 21
84.6503471930876827
 31
-0.0000000000000188
210
0.0
220
1.0
230
-0.0000000000000002
  0
ARC
  5
2A96
  8
0
 10
-676.3612652587676166
 20
46.5549727111740026
 30
0.0
 40
0.9999999999946567
210
0.0
220
-0.0000000000000002
230
-1.0
 50
169.1038478588359908
 51
180.0000000000349019
  0
ARC
  5
2A97
  8
0
 10
-726.6612652587568846
 20
46.5549727111740026
 30
0.0
 40
0.9999999999946567
210
0.0
220
-0.0000000000000002
230
-1.0
 50
359.9999999999649845
 51
10.8961521411635491
  0
LINE
  5
2A98
  8
0
 10
677.3432366684794488
 20
46.7440022075439288
 30
-0.0000000000000104
 11
674.4479361904542429
 21
61.7845241713109417
 31
-0.0000000000000137
210
0.0
220
1.0
230
-0.0000000000000002
  0
LINE
  5
2A99
  8
0
 10
725.6792938490450524
 20
46.7440022075439288
 30
-0.0000000000000104
 11
728.5745943270701446
 21
61.7845241713109132
 31
-0.0000000000000137
210
0.0
220
1.0
230
-0.0000000000000002
  0
LINE
  5
2A9A
  8
0
 10
725.6612652587622279
 20
46.5549727111733773
 30
-0.0000000000000103
 11
725.6612652587622279
 21
39.6503471930876188
 31
-0.0000000000000088
210
0.0
220
1.0
230
-0.0000000000000002
  0
LINE
  5
2A9B
  8
0
 10
677.3612652587622733
 20
46.5549727111733773
 30
-0.0000000000000103
 11
677.3612652587622733
 21
39.6503471930876188
 31
-0.0000000000000088
210
0.0
220
1.0
230
-0.0000000000000002
  0
ARC
  5
2A9C
  8
0
 10
-734.4664227853728562
 20
60.6503471930877467
 30
0.0
 40
5.999999999999762
210
0.0
220
-0.0000000000000002
230
-1.0
 50
10.8961521411401403
 51
90.0
  0
ARC
  5
2A9D
  8
0
 10
-668.5561077321515313
 20
60.6503471930878035
 30
0.0
 40
5.9999999999997788
210
0.0
220
-0.0000000000000002
230
-1.0
 50
89.9999999999989342
 51
169.1038478588602061
  0
LINE
  5
2A9E
  8
0
 10
740.5112652587622506
 20
84.650347193087697
 30
-0.0000000000000188
 11
742.5112652587622506
 21
82.6503471930876259
 31
-0.0000000000000184
210
0.0
220
1.0
230
-0.0000000000000002
  0
LINE
  5
2A9F
  8
0
 10
662.5112652587622506
 20
84.650347193087697
 30
-0.0000000000000188
 11
660.5112652587622506
 21
82.6503471930876259
 31
-0.0000000000000184
210
0.0
220
1.0
230
-0.0000000000000002
  0
LINE
  5
2AA0
  8
0
 10
776.5112652587622506
 20
82.6503471930876259
 30
-0.0000000000000184
 11
776.5112652587622506
 21
66.6503471930876259
 31
-0.0000000000000148
210
0.0
220
1.0
230
-0.0000000000000002
  0
LINE
  5
2AA1
  8
0
 10
626.5112652587622506
 20
82.6503471930876259
 30
-0.0000000000000184
 11
626.5112652587622506
 21
66.6503471930876259
 31
-0.0000000000000148
210
0.0
220
1.0
230
-0.0000000000000002
  0
LINE
  5
2AA2
  8
0
  6
VERDECKT
 62
     1
 10
682.5959721798643614
 20
-35.1373108060979078
 30
0.0000000000000078
 11
720.4265583376600262
 21
-35.1373108060979078
 31
0.0000000000000078
210
0.0
220
1.0
230
-0.0000000000000002
  0
ARC
  5
2AA3
  8
0
  6
VERDECKT
 62
     1
 10
-686.0112652587822595
 20
-30.3973710654233784
 30
0.0
 40
4.0000000000202371
210
0.0
220
-0.0000000000000002
230
-1.0
 50
352.5640974268804939
 51
359.9999999999831743
  0
ARC
  5
2AA4
  8
0
  6
VERDECKT
 62
     1
 10
-717.0112652587420143
 20
-30.3973710654233784
 30
0.0
 40
4.0000000000203491
210
0.0
220
-0.0000000000000002
230
-1.0
 50
180.0000000000169109
 51
187.4359025731193071
  0
LINE
  5
2AA5
  8
0
  6
VERDECKT
 62
     1
 10
682.5959721798643614
 20
-35.1373108060979007
 30
0.0000000000000078
 11
682.0449042105824446
 21
-30.91503894687186
 31
0.0000000000000069
210
0.0
220
1.0
230
-0.0000000000000002
  0
LINE
  5
2AA6
  8
0
  6
VERDECKT
 62
     1
 10
720.4265583376600262
 20
-35.1373108060979007
 30
0.0000000000000078
 11
720.9776263069420565
 21
-30.91503894687186
 31
0.0000000000000069
210
0.0
220
1.0
230
-0.0000000000000002
  0
LINE
  5
2AA7
  8
0
  6
VERDECKT
 62
     1
 10
721.0112652587622506
 20
32.7784590723502021
 30
-0.0000000000000073
 11
721.0112652587622506
 21
-30.3973710654245615
 31
0.0000000000000067
210
0.0
220
1.0
230
-0.0000000000000002
  0
LINE
  5
2AA8
  8
0
  6
VERDECKT
 62
     1
 10
682.0112652587621369
 20
32.7784590723502021
 30
-0.0000000000000073
 11
682.0112652587621369
 21
-30.3973710654245615
 31
0.0000000000000067
210
0.0
220
1.0
230
-0.0000000000000002
  0
LINE
  5
2AA9
  8
0
  6
VERDECKT
 62
     1
 10
720.4265583376600262
 20
-35.1373108060979433
 30
0.0000000000000078
 11
721.8988446140808719
 21
-35.349652806912367
 31
0.0000000000000078
210
0.0
220
1.0
230
-0.0000000000000002
  0
LINE
  5
2AAA
  8
0
  6
VERDECKT
 62
     1
 10
682.5959721798643614
 20
-35.1373108060979433
 30
0.0000000000000078
 11
681.1236859034436293
 21
-35.349652806912367
 31
0.0000000000000078
210
0.0
220
1.0
230
-0.0000000000000002
  0
LINE
  5
2AAB
  8
0
  6
VERDECKT
 62
     1
 10
681.3011583582419917
 20
36.3823152431366665
 30
-0.0000000000000081
 11
679.9612652587624098
 21
39.6503471930875406
 31
-0.0000000000000088
210
0.0
220
1.0
230
-0.0000000000000002
  0
LINE
  5
2AAC
  8
0
  6
VERDECKT
 62
     1
 10
721.7213721592822822
 20
36.3823152431366665
 30
-0.0000000000000081
 11
723.0612652587620914
 21
39.6503471930875406
 31
-0.0000000000000088
210
0.0
220
1.0
230
-0.0000000000000002
  0
ARC
  5
2AAD
  8
0
  6
VERDECKT
 62
     1
 10
-672.5112652587647517
 20
32.7784590723508913
 30
0.0
 40
9.4999999999973852
210
0.0
220
-0.0000000000000002
230
-1.0
 50
157.7063708403055102
 51
180.0000000000040927
  0
ARC
  5
2AAE
  8
0
  6
VERDECKT
 62
     1
 10
-730.5112652587597495
 20
32.7784590723508771
 30
0.0
 40
9.4999999999974971
210
0.0
220
-0.0000000000000002
230
-1.0
 50
359.9999999999959073
 51
22.2936291596942411
  0
LINE
  5
2AAF
  8
0
  6
VERDECKT
 62
     1
 10
692.5112652587622506
 20
66.6503471930875548
 30
-0.0000000000000148
 11
692.5112652587622506
 21
82.6503471930876259
 31
-0.0000000000000184
210
0.0
220
1.0
230
-0.0000000000000002
  0
LINE
  5
2AB0
  8
0
  6
VERDECKT
 62
     1
 10
710.5112652587622506
 20
66.6503471930875548
 30
-0.0000000000000148
 11
710.5112652587622506
 21
82.6503471930876259
 31
-0.0000000000000184
210
0.0
220
1.0
230
-0.0000000000000002
  0
LINE
  5
2AB1
  8
0
  6
VERDECKT
 62
     1
 10
765.5112652587622506
 20
82.6503471930876259
 30
-0.0000000000000184
 11
765.5112652587622506
 21
66.6503471930875548
 31
-0.0000000000000148
210
0.0
220
1.0
230
-0.0000000000000002
  0
LINE
  5
2AB2
  8
0
  6
VERDECKT
 62
     1
 10
747.5112652587622506
 20
82.6503471930876259
 30
-0.0000000000000184
 11
747.5112652587622506
 21
66.6503471930876259
 31
-0.0000000000000148
210
0.0
220
1.0
230
-0.0000000000000002
  0
LINE
  5
2AB3
  8
0
  6
VERDECKT
 62
     1
 10
637.5112652587622506
 20
66.6503471930875548
 30
-0.0000000000000148
 11
637.5112652587622506
 21
82.6503471930876259
 31
-0.0000000000000184
210
0.0
220
1.0
230
-0.0000000000000002
  0
LINE
  5
2AB4
  8
0
  6
VERDECKT
 62
     1
 10
655.5112652587622506
 20
66.6503471930876259
 30
-0.0000000000000148
 11
655.5112652587622506
 21
82.6503471930876259
 31
-0.0000000000000184
210
0.0
220
1.0
230
-0.0000000000000002
  0
LINE
  5
2AB5
  8
0
  6
VERDECKT
 62
     1
 10
723.0612652587620914
 20
84.6503471930876827
 30
-0.0000000000000188
 11
723.0612652587620914
 21
39.6503471930876188
 31
-0.0000000000000088
210
0.0
220
1.0
230
-0.0000000000000002
  0
LINE
  5
2AB6
  8
0
  6
VERDECKT
 62
     1
 10
679.9612652587621824
 20
84.6503471930876827
 30
-0.0000000000000188
 11
679.9612652587621824
 21
39.6503471930876188
 31
-0.0000000000000088
210
0.0
220
1.0
230
-0.0000000000000002
  0
ENDBLK
  5
2AB8
  8
0
  0
ENDSEC
  0
SECTION
  2
ENTITIES
  0
TEXT
  5
8F
  8
VOLL
 10
78.076754716981128
 20
31.025947764705851
 30
0.0
 40
1.8
  1

  7
GREEKS
  0
INSERT
  5
FA4
  8
ADSK_ASSOC_ENTITY_BACKUPS
  2
*S0
 10
0.0
 20
0.0
 30
0.0
  0
INSERT
  5
2A84
  8
STEMPEL
  2
A$C403FCDA9
 10
368.9270996592806
 20
-159.5344853968807115
 30
-55.8582340987964301
  0
INSERT
  5
2AB9
  8
STEMPEL
  2
A$C00D3038D
 10
368.9270996592806
 20
150.5372917825748971
 30
-55.858234098796288
  0
VIEWPORT
  5
702
 67
     1
  8
0
 10
99.9595808982848837
 20
142.0247198271484024
 30
0.0
 40
533.8638859178814755
 41
299.049422726727812
 68
     1
 69
     1
1001
ACAD
1000
MVIEW
1002
{
1070
    16
1010
0.0
1020
0.0
1030
0.0
1010
0.0
1020
0.0
1030
1.0
1040
0.0
1040
299.049422726727812
1040
99.9595808982848837
1040
142.0247198271484024
1040
50.0
1040
0.0
1040
0.0
1070
     0
1070
  1500
1070
     1
1070
     1
1070
     0
1070
     0
1070
     0
1070
     0
1040
0.0
1040
0.0
1040
0.0
1040
10.0
1040
10.0
1040
10.0
1040
10.0
1070
     0
1002
{
1002
}
1002
}
1001
GENIUS_GENOBJ-N-SDF_13
1002
{
1000
OWNER
1000
GEN
1002
}
1001
GENIUS_GENODEF_13
1002
{
1000
HIER
1070
     0
1002
}
1002
{
1000
MANEDIT
1070
     0
1002
}
1002
{
1000
NOSEL
1070
     0
1002
}
1002
{
1000
BEHIND
1070
     0
1002
}
1002
{
1000
OTHER
1070
     0
1002
}
1002
{
1000
REACTOR
1002
}
1001
GENIUS_GENSCREG_15
1000
PF
1040
1.0
1000
DF
1040
1.0
1000
MIN
1011
-157.9659741883696995
1021
0.0
1031
0.0
1021
37.1404190252147828
1031
0.0
1000
MAX
1011
377.5282697540558274
1021
0.0
1031
0.0
1021
272.7454039765734137
1031
0.0
1000
FLAGS
1070
     4
  0
ENDSEC
  0
EOF
