  0
SECTION
  2
HEADER
  9
$ACADVER
  1
AC1009
  9
$INSBASE
 10
0.0
 20
0.0
 30
0.0
  9
$EXTMIN
 10
862.2240805130016952
 20
-27.3405060912168096
 30
-59.8164272858217601
  9
$EXTMAX
 10
1112.2240805130008994
 20
452.6671619664178934
 30
-59.816427285821689
  9
$LIMMIN
 10
0.0
 20
0.0
  9
$LIMMAX
 10
419.9999999999998863
 20
594.0
  9
$ORTHOMODE
 70
     1
  9
$REGENMODE
 70
     1
  9
$FILLMODE
 70
     1
  9
$QTEXTMODE
 70
     0
  9
$MIRRTEXT
 70
     1
  9
$DRAGMODE
 70
     2
  9
$LTSCALE
 40
10.0
  9
$OSMODE
 70
  2495
  9
$ATTMODE
 70
     1
  9
$TEXTSIZE
 40
3.5
  9
$TRACEWID
 40
0.5
  9
$TEXTSTYLE
  7
STANDARD
  9
$CLAYER
  8
STEMPEL
  9
$CELTYPE
  6
BYLAYER
  9
$CECOLOR
 62
   256
  9
$DIMSCALE
 40
1.0
  9
$DIMASZ
 40
3.5
  9
$DIMEXO
 40
1.0
  9
$DIMDLI
 40
7.0
  9
$DIMRND
 40
0.0
  9
$DIMDLE
 40
0.0
  9
$DIMEXE
 40
1.0
  9
$DIMTP
 40
0.0
  9
$DIMTM
 40
0.0
  9
$DIMTXT
 40
3.5
  9
$DIMCEN
 40
1.5
  9
$DIMTSZ
 40
0.0
  9
$DIMTOL
 70
     0
  9
$DIMLIM
 70
     0
  9
$DIMTIH
 70
     0
  9
$DIMTOH
 70
     0
  9
$DIMSE1
 70
     0
  9
$DIMSE2
 70
     0
  9
$DIMTAD
 70
     1
  9
$DIMZIN
 70
     8
  9
$DIMBLK
  1

  9
$DIMASO
 70
     1
  9
$DIMSHO
 70
     0
  9
$DIMPOST
  1

  9
$DIMAPOST
  1

  9
$DIMALT
 70
     0
  9
$DIMALTD
 70
     2
  9
$DIMALTF
 40
25.3999999999999986
  9
$DIMLFAC
 40
2.0
  9
$DIMTOFL
 70
     1
  9
$DIMTVP
 40
0.0
  9
$DIMTIX
 70
     0
  9
$DIMSOXD
 70
     0
  9
$DIMSAH
 70
     0
  9
$DIMBLK1
  1

  9
$DIMBLK2
  1

  9
$DIMSTYLE
  2
STANDARD
  9
$DIMCLRD
 70
     0
  9
$DIMCLRE
 70
     0
  9
$DIMCLRT
 70
     1
  9
$DIMTFAC
 40
0.5142857142857143
  9
$DIMGAP
 40
1.5
  9
$LUNITS
 70
     2
  9
$LUPREC
 70
     2
  9
$SKETCHINC
 40
1.0
  9
$FILLETRAD
 40
10.0
  9
$AUNITS
 70
     0
  9
$AUPREC
 70
     0
  9
$MENU
  1
ACAD
  9
$ELEVATION
 40
0.0
  9
$PELEVATION
 40
0.0
  9
$THICKNESS
 40
0.0
  9
$LIMCHECK
 70
     0
  9
$BLIPMODE
 70
     0
  9
$CHAMFERA
 40
0.0
  9
$CHAMFERB
 40
0.0
  9
$SKPOLY
 70
     0
  9
$TDCREATE
 40
2455397.8646990740671754
  9
$TDUPDATE
 40
2459627.4868749999441206
  9
$TDINDWG
 40
0.4670891088
  9
$TDUSRTIMER
 40
0.4670891088
  9
$USRTIMER
 70
     1
  9
$ANGBASE
 50
0.0
  9
$ANGDIR
 70
     0
  9
$PDMODE
 70
     0
  9
$PDSIZE
 40
0.0
  9
$PLINEWID
 40
0.0
  9
$COORDS
 70
     1
  9
$SPLFRAME
 70
     0
  9
$SPLINETYPE
 70
     6
  9
$SPLINESEGS
 70
     8
  9
$ATTDIA
 70
     1
  9
$ATTREQ
 70
     1
  9
$HANDLING
 70
     1
  9
$HANDSEED
  5
43CC
  9
$SURFTAB1
 70
     6
  9
$SURFTAB2
 70
     6
  9
$SURFTYPE
 70
     6
  9
$SURFU
 70
     6
  9
$SURFV
 70
     6
  9
$UCSNAME
  2

  9
$UCSORG
 10
0.0
 20
0.0
 30
0.0
  9
$UCSXDIR
 10
1.0
 20
0.0
 30
0.0
  9
$UCSYDIR
 10
0.0
 20
1.0
 30
0.0
  9
$PUCSNAME
  2

  9
$PUCSORG
 10
0.0
 20
0.0
 30
0.0
  9
$PUCSXDIR
 10
1.0
 20
0.0
 30
0.0
  9
$PUCSYDIR
 10
0.0
 20
1.0
 30
0.0
  9
$USERI1
 70
     0
  9
$USERI2
 70
     0
  9
$USERI3
 70
     0
  9
$USERI4
 70
     0
  9
$USERI5
 70
     0
  9
$USERR1
 40
0.0
  9
$USERR2
 40
0.0
  9
$USERR3
 40
0.0
  9
$USERR4
 40
0.0
  9
$USERR5
 40
0.0
  9
$WORLDVIEW
 70
     1
  9
$SHADEDGE
 70
     3
  9
$SHADEDIF
 70
    70
  9
$TILEMODE
 70
     1
  9
$MAXACTVP
 70
    16
  9
$PLIMCHECK
 70
     0
  9
$PEXTMIN
 10
1.0000000000000000E+20
 20
1.0000000000000000E+20
 30
1.0000000000000000E+20
  9
$PEXTMAX
 10
-1.0000000000000000E+20
 20
-1.0000000000000000E+20
 30
-1.0000000000000000E+20
  9
$PLIMMIN
 10
-4.8337780480378854
 20
-5.6590368088155003
  9
$PLIMMAX
 10
205.1662219519620862
 20
291.3409631911845281
  9
$UNITMODE
 70
     0
  9
$VISRETAIN
 70
     0
  9
$PLINEGEN
 70
     0
  9
$PSLTSCALE
 70
     0
  0
ENDSEC
  0
SECTION
  2
TABLES
  0
TABLE
  2
VPORT
 70
     1
  0
VPORT
  2
*ACTIVE
 70
     0
 10
0.0
 20
0.0
 11
1.0
 21
1.0
 12
4.2316055153743264
 22
-24.9115246307416989
 13
0.0
 23
0.0
 14
1.0
 24
1.0
 15
10.0
 25
10.0
 16
-0.0000000000002274
 26
0.0
 36
1256.8261394658100016
 17
982.9924749976273688
 27
237.574852568342294
 37
-29.9082136429107912
 40
483.4403808208597866
 41
1.7852028639618129
 42
50.0
 43
0.0
 44
0.0
 50
0.0
 51
0.0
 71
     0
 72
  1500
 73
     1
 74
     0
 75
     0
 76
     0
 77
     0
 78
     0
  0
ENDTAB
  0
TABLE
  2
LTYPE
 70
     7
  0
LTYPE
  2
CONTINUOUS
 70
     0
  3
Solid line
 72
    65
 73
     0
 40
0.0
  0
LTYPE
  2
PHANTOM2
 70
     0
  3
Phantom (.5x) ___ _ _ ___ _ _ ___ _ _ ___ _ _
 72
    65
 73
     6
 40
1.25
 49
0.625
 49
-0.125
 49
0.125
 49
-0.125
 49
0.125
 49
-0.125
  0
LTYPE
  2
AUSGEZOGEN
 70
     0
  3
Ausgezogene Linie
 72
    65
 73
     0
 40
0.0
  0
LTYPE
  2
VERDECKT
 70
     0
  3
Verdeckt __ __ __ __ __ __ __ __ __ __ __ __ __
 72
    65
 73
     2
 40
0.375
 49
0.25
 49
-0.125
  0
ENDTAB
  0
TABLE
  2
LAYER
 70
    14
  0
LAYER
  2
0
 70
     0
 62
     7
  6
CONTINUOUS
  0
LAYER
  2
VOLL
 70
     0
 62
     1
  6
CONTINUOUS
  0
LAYER
  2
STEMPEL
 70
     0
 62
     3
  6
CONTINUOUS
  0
LAYER
  2
DEFPOINTS
 70
     0
 62
     7
  6
CONTINUOUS
  0
LAYER
  2
ADSK_ASSOC_ENTITY_BACKUPS
 70
     1
 62
    -7
  6
CONTINUOUS
  0
ENDTAB
  0
TABLE
  2
STYLE
 70
     4
  0
STYLE
  2
STANDARD
 70
     0
 40
0.0
 41
0.8
 50
0.0
 71
     0
 42
3.5
  3
simplex.shx
  4

  0
STYLE
  2
GREEKS
 70
     0
 40
0.0
 41
0.8
 50
0.0
 71
     0
 42
2.5
  3
SIMPLEX.shx
  4

  0
ENDTAB
  0
TABLE
  2
VIEW
 70
     1
  0
ENDTAB
  0
TABLE
  2
UCS
 70
     0
  0
ENDTAB
  0
TABLE
  2
APPID
 70
    34
  0
APPID
  2
ACAD
 70
     0
  0
APPID
  2
ACAD_EXEMPT_FROM_CAD_STANDARDS
 70
     0
  0
APPID
  2
ACAD_NAV_VCDISPLAY
 70
     0
  0
APPID
  2
ACAECLAYERSTANDARD
 70
     0
  0
APPID
  2
ACCMTRANSPARENCY
 70
     0
  0
APPID
  2
ACAD_PSEXT
 70
     0
  0
APPID
  2
GRADIENTCOLOR1ACI
 70
     0
  0
APPID
  2
GRADIENTCOLOR2ACI
 70
     0
  0
APPID
  2
ACAD_MLEADERVER
 70
     0
  0
APPID
  2
ACAD_OBJECT_CHANGE_GUID
 70
     0
  0
APPID
  2
MCAD_NO_VIS
 70
     0
  0
APPID
  2
ACAD_TEMP_GRAPHIC
 70
     0
  0
APPID
  2
ACATTRIBSERVICES
 70
     0
  0
APPID
  2
DESIGNERASSEMBLIES
 70
     0
  0
APPID
  2
ACAD_DSTYLE_DIMJAG
 70
     0
  0
APPID
  2
ACAD_DSTYLE_DIMBREAK
 70
     0
  0
APPID
  2
GENIUS_GENSCREG_15
 70
     0
  0
APPID
  2
GENIUS_GENOBJ-N-SDF_13
 70
     0
  0
APPID
  2
GENIUS_GENODEF_13
 70
     0
  0
APPID
  2
RAK
 70
     0
  0
APPID
  2
ACAUTHENVIRON
 70
     0
  0
APPID
  2
ACDBDYNAMICBLOCKTRUENAME
 70
     0
  0
APPID
  2
ACDBDYNAMICBLOCKGUID
 70
     0
  0
APPID
  2
ACSYNERGY
 70
     0
  0
APPID
  2
SYNERGY_BODY_TBR_ID
 70
     0
  0
APPID
  2
ACAD_VIEW_EDGE_ID
 70
     0
  0
APPID
  2
ACSYNERGYSKETCH
 70
     0
  0
APPID
  2
ACAD_STEPID
 70
     0
  0
APPID
  2
ACAD_MODELDOC_XFORM
 70
     0
  0
APPID
  2
GENIUS_GENDTOL_13
 70
     0
  0
APPID
  2
ACAD_DSTYLE_DIMINSPECT
 70
     0
  0
APPID
  2
ACADANNOMONITORALERTICONDI
 70
     0
  0
APPID
  2
ACAD_DSTYLE_DIMTALN
 70
     0
  0
APPID
  2
AcDbAttr
 70
     0
  0
ENDTAB
  0
TABLE
  2
DIMSTYLE
 70
     3
  0
DIMSTYLE
  2
STANDARD
 70
     0
  3

  4

  5

  6

  7

 40
1.0
 41
0.18
 42
0.0625
 43
0.38
 44
0.18
 45
0.0
 46
0.0
 47
0.0
 48
0.0
140
0.18
141
0.09
142
0.0
143
25.3999999999999986
144
1.0
145
0.0
146
1.0
147
0.09
 71
     0
 72
     0
 73
     1
 74
     1
 75
     0
 76
     0
 77
     0
 78
     0
170
     0
171
     2
172
     0
173
     0
174
     0
175
     0
176
     0
177
     0
178
     0
  0
ENDTAB
  0
ENDSEC
  0
SECTION
  2
BLOCKS
  0
BLOCK
  8
0
  2
$MODEL_SPACE
 70
     0
 10
0.0
 20
0.0
 30
0.0
  3
$MODEL_SPACE
  1

  0
ENDBLK
  5
36
  8
0
  0
BLOCK
 67
     1
  8
0
  2
$PAPER_SPACE
 70
     0
 10
0.0
 20
0.0
 30
0.0
  3
$PAPER_SPACE
  1

  0
ENDBLK
  5
34
 67
     1
  8
0
  0
BLOCK
  8
0
  2
*S3
 70
     1
 10
0.0
 20
0.0
 30
0.0
  3
*S3
  1

  0
ENDBLK
  5
FA2
  8
0
  0
BLOCK
  8
0
  2
A$CF7E748E1
 70
     0
 10
0.0
 20
0.0
 30
0.0
  3
A$CF7E748E1
  1

  0
CIRCLE
  5
3BC1
  8
0
 10
701.5112652587623643
 20
155.0350682550881061
 30
0.0000000000001705
 40
63.9999999999997726
  0
CIRCLE
  5
3BC2
  8
0
 10
701.5112652587623643
 20
155.0350682550881061
 30
0.0000000000001705
 40
72.7584447974061135
  0
CIRCLE
  5
3BC3
  8
0
 10
701.5112652587623643
 20
155.0350682550881061
 30
0.0000000000001705
 40
70.4926753298144035
  0
CIRCLE
  5
3BC4
  8
0
 10
701.5112652587623643
 20
155.0350682550881061
 30
0.0000000000001705
 40
76.0000000028576324
  0
CIRCLE
  5
3BC5
  8
0
 10
701.5112652587623643
 20
155.0350682550881061
 30
0.0000000000001705
 40
68.9999999808323139
  0
CIRCLE
  5
3BC6
  8
0
 10
627.2650532341746157
 20
80.7888562305006843
 30
0.0000000000001492
 40
9.0
  0
CIRCLE
  5
3BC7
  8
0
 10
775.7574772833495445
 20
80.7888562305006843
 30
0.0000000000001847
 40
9.0
  0
CIRCLE
  5
3BC8
  8
0
 10
775.7574772833495445
 20
229.2812802796755989
 30
0.0000000000001847
 40
9.0
  0
CIRCLE
  5
3BC9
  8
0
 10
627.2650532341746157
 20
229.2812802796755989
 30
0.0000000000001492
 40
9.0
  0
CIRCLE
  5
3BCA
  8
0
 10
701.5112652587621369
 20
260.0350682550881061
 30
0.0000000000001634
 40
9.0
  0
CIRCLE
  5
3BCB
  8
0
 10
806.5112652587622506
 20
155.0350682550881061
 30
0.0000000000001918
 40
9.0
  0
CIRCLE
  5
3BCC
  8
0
 10
701.5112652587621369
 20
50.0350682550881416
 30
0.0000000000001634
 40
9.0
  0
CIRCLE
  5
3BCD
  8
0
 10
596.5112652587621369
 20
155.0350682550881061
 30
0.0000000000001421
 40
9.0
  0
CIRCLE
  5
3BCE
  8
0
 10
701.5112652587621369
 20
155.0350682550881061
 30
0.0000000000001634
 40
125.0
  0
CIRCLE
  5
3BCF
  8
0
  6
VERDECKT
 62
     1
 10
701.5112652587623643
 20
155.0350682550881061
 30
0.0000000000001705
 40
66.4999999999997726
  0
CIRCLE
  5
3BD0
  8
0
  6
VERDECKT
 62
     1
 10
701.5112652587623643
 20
155.0350682550881061
 30
0.0000000000001705
 40
71.4999999999997726
  0
CIRCLE
  5
3BD1
  8
0
  6
VERDECKT
 62
     1
 10
701.5112652587623643
 20
155.0350682550881061
 30
0.0000000000001705
 40
73.4999999999997726
  0
ARC
  5
3BD2
  8
0
  6
VERDECKT
 62
     1
 10
701.511265258762478
 20
155.035068255088305
 30
0.0000000000001634
 40
97.0000000000003553
 50
182.3409750488000043
 51
222.6590249511999957
  0
ARC
  5
3BD3
  8
0
  6
VERDECKT
 62
     1
 10
701.511265258762478
 20
155.0350682550879071
 30
0.0000000000001634
 40
97.0000000000003979
 50
137.3409750488000043
 51
177.6590249511999104
  0
ARC
  5
3BD4
  8
0
  6
VERDECKT
 62
     1
 10
701.5112652587622506
 20
155.0350682550877934
 30
0.0000000000001634
 40
97.0000000000003268
 50
92.3409750488000469
 51
132.6590249511999957
  0
ARC
  5
3BD5
  8
0
  6
VERDECKT
 62
     1
 10
701.5112652587621369
 20
155.0350682550879924
 30
0.0000000000001634
 40
97.0000000000000853
 50
47.3409750487999617
 51
87.6590249512000952
  0
ARC
  5
3BD6
  8
0
  6
VERDECKT
 62
     1
 10
701.5112652587615685
 20
155.0350682550879071
 30
0.0000000000001634
 40
97.0000000000006111
 50
2.34097504880011
 51
42.6590249511998607
  0
ARC
  5
3BD7
  8
0
  6
VERDECKT
 62
     1
 10
701.5112652587614548
 20
155.0350682550883903
 30
0.0000000000001634
 40
97.0000000000007248
 50
317.3409750488000896
 51
357.6590249511999104
  0
ARC
  5
3BD8
  8
0
  6
VERDECKT
 62
     1
 10
701.5112652587622506
 20
155.0350682550877934
 30
0.0000000000001634
 40
96.9999999999996732
 50
272.340975048799919
 51
312.6590249512001947
  0
ARC
  5
3BD9
  8
0
  6
VERDECKT
 62
     1
 10
701.5112652587617958
 20
155.0350682550875945
 30
0.0000000000001634
 40
96.9999999999995453
 50
227.3409750487998906
 51
267.6590249512001947
  0
CIRCLE
  5
3BDA
  8
0
  6
VERDECKT
 62
     1
 10
701.5112652587621369
 20
155.0350682550881061
 30
0.0000000000001634
 40
94.0
  0
CIRCLE
  5
3BDB
  8
0
  6
VERDECKT
 62
     1
 10
701.5112652587622506
 20
155.0350682550881061
 30
0.0000000000001705
 40
69.8500000000000512
  0
CIRCLE
  5
3BDC
  8
0
  6
VERDECKT
 62
     1
 10
701.5112652587622506
 20
155.0350682550881061
 30
0.0000000000001705
 40
65.8500000000000512
  0
ENDBLK
  5
3BDE
  8
0
  0
BLOCK
  8
0
  2
A$C80D2EBF8
 70
     0
 10
0.0
 20
0.0
 30
0.0
  3
A$C80D2EBF8
  1

  0
LINE
  5
3BE2
  8
0
 10
817.2670507634641126
 20
301.4083572593979738
 30
-0.0000000000000426
 11
962.7839403582764817
 21
301.4083572593979738
 31
-0.0000000000000426
210
0.0
220
1.0
230
-0.0000000000000002
  0
LINE
  5
3BE3
  8
0
 10
956.5254955608702403
 20
218.9083572593978886
 30
-0.0000000000000242
 11
956.5254955608702403
 21
201.4083572593980875
 31
-0.0000000000000204
210
0.0
220
1.0
230
-0.0000000000000002
  0
LINE
  5
3BE4
  8
0
 10
823.5254955608702403
 20
218.9083572593980023
 30
-0.0000000000000242
 11
823.5254955608702403
 21
201.4083572593980875
 31
-0.0000000000000204
210
0.0
220
1.0
230
-0.0000000000000002
  0
ARC
  5
3BE5
  8
0
 10
32646.2621649442298803
 20
15905.145944680829416
 30
-0.0000000000000244
 40
36922.6815692960080924
210
0.0
220
-0.0000000000000002
230
-1.0
 50
204.9992091110974002
 51
205.0007908891871864
  0
ARC
  5
3BE6
  8
0
 10
-34426.3445230056677246
 20
15905.1605713427798037
 30
-0.0000000000000244
 40
36922.7161788921584957
210
0.0
220
-0.0000000000000002
230
-1.0
 50
334.9992091115295807
 51
335.00079088813618
  0
ARC
  5
3BE7
  8
0
 10
-844.0236277557496578
 20
287.8063938973601239
 30
-0.0000000000000244
 40
29.9981321977368793
210
0.0
220
-0.0000000000000002
230
-1.0
 50
359.9992091115789776
 51
25.0007908884157395
  0
ARC
  5
3BE8
  8
0
 10
-936.0273633659912775
 20
287.8063938973601239
 30
-0.0000000000000244
 40
29.9981321977366484
210
0.0
220
-0.0000000000000002
230
-1.0
 50
154.9992091115842072
 51
180.0007908884209087
  0
LINE
  5
3BE9
  8
0
 10
814.025759301178482
 20
268.6993572593980275
 30
-0.0000000000000353
 11
814.0254955608704677
 21
287.8059798149337212
 31
-0.0000000000000395
210
0.0
220
1.0
230
-0.0000000000000002
  0
LINE
  5
3BEA
  8
0
 10
966.0252318205621123
 20
268.6993572593980275
 30
-0.0000000000000353
 11
966.0254955608701266
 21
287.8059798149337212
 31
-0.0000000000000395
210
0.0
220
1.0
230
-0.0000000000000002
  0
ARC
  5
3BEB
  8
0
 10
-844.0254955608506862
 20
268.6993572593937074
 30
-0.0000000000000244
 40
29.9997362596723214
210
0.0
220
-0.0000000000000002
230
-1.0
 50
334.992841663441709
 51
0.0000000000081422
  0
ARC
  5
3BEC
  8
0
 10
-936.0254955608902492
 20
268.6993572593935937
 30
-0.0000000000000244
 40
29.9997362596719803
210
0.0
220
-0.0000000000000002
230
-1.0
 50
179.9999999999917861
 51
205.007158336558291
  0
ARC
  5
3BED
  8
0
 10
-800.525495560870354
 20
248.4083572593978886
 30
-0.0000000000000244
 40
18.0000000000002203
210
0.0
220
-0.0000000000000002
230
-1.0
 50
154.992841663441709
 51
179.9999999999992042
  0
ARC
  5
3BEE
  8
0
 10
-979.5254955608698992
 20
248.4083572593978033
 30
-0.0000000000000244
 40
17.9999999999998792
210
0.0
220
-0.0000000000000002
230
-1.0
 50
0.0000000000008142
 51
25.0071583365583088
  0
LINE
  5
3BEF
  8
0
 10
961.5254955608701266
 20
248.4083572593980023
 30
-0.0000000000000308
 11
961.5254955608701266
 21
234.8770766820692018
 31
-0.0000000000000278
210
0.0
220
1.0
230
-0.0000000000000002
  0
LINE
  5
3BF0
  8
0
 10
818.5254955608704677
 20
248.4083572593980875
 30
-0.0000000000000308
 11
818.5254955608704677
 21
234.8770766820692018
 31
-0.0000000000000278
210
0.0
220
1.0
230
-0.0000000000000002
  0
ARC
  5
3BF1
  8
0
 10
-836.5254955608717182
 20
234.877076682069486
 30
-0.0000000000000244
 40
18.0000000000011511
210
0.0
220
-0.0000000000000002
230
-1.0
 50
325.2280559680526153
 51
359.9999999999992042
  0
ARC
  5
3BF2
  8
0
 10
-943.5254955608688761
 20
234.8770766820694007
 30
-0.0000000000000244
 40
18.0000000000012506
210
0.0
220
-0.0000000000000002
230
-1.0
 50
180.0000000000007958
 51
214.7719440319474131
  0
ARC
  5
3BF3
  8
0
 10
-813.525495560870354
 20
218.9083572593978886
 30
-0.0000000000000244
 40
10.0000000000002096
210
0.0
220
-0.0000000000000002
230
-1.0
 50
145.2280559680525016
 51
179.9999999999992042
  0
ARC
  5
3BF4
  8
0
 10
-966.525495560870354
 20
218.9083572593978886
 30
-0.0000000000000244
 40
10.0000000000002292
210
0.0
220
-0.0000000000000002
230
-1.0
 50
0.0
 51
34.7719440319474415
  0
POLYLINE
  8
0
  5
3C82
  66
     1
 10
0.000000
 20
0.000000
 30
0.000000
  70
     8
  0
VERTEX
  8
0
  5
3C83
 10
824.295
 20
149.408
 30
-8.80000e-15
  70
    32
  0
VERTEX
  8
0
  5
3C84
 10
824.289
 20
149.400
 30
-8.79991e-15
  70
    32
  0
VERTEX
  8
0
  5
3C85
 10
824.284
 20
149.392
 30
-8.79966e-15
  70
    32
  0
VERTEX
  8
0
  5
3C86
 10
824.278
 20
149.383
 30
-8.79923e-15
  70
    32
  0
VERTEX
  8
0
  5
3C87
 10
824.272
 20
149.375
 30
-8.79865e-15
  70
    32
  0
VERTEX
  8
0
  5
3C88
 10
824.266
 20
149.367
 30
-8.79792e-15
  70
    32
  0
VERTEX
  8
0
  5
3C89
 10
824.260
 20
149.359
 30
-8.79704e-15
  70
    32
  0
VERTEX
  8
0
  5
3C8A
 10
824.254
 20
149.351
 30
-8.79602e-15
  70
    32
  0
VERTEX
  8
0
  5
3C8B
 10
824.249
 20
149.342
 30
-8.79487e-15
  70
    32
  0
VERTEX
  8
0
  5
3C8C
 10
824.243
 20
149.334
 30
-8.79359e-15
  70
    32
  0
VERTEX
  8
0
  5
3C8D
 10
824.237
 20
149.326
 30
-8.79218e-15
  70
    32
  0
VERTEX
  8
0
  5
3C8E
 10
824.230
 20
149.318
 30
-8.79066e-15
  70
    32
  0
VERTEX
  8
0
  5
3C8F
 10
824.224
 20
149.310
 30
-8.78903e-15
  70
    32
  0
VERTEX
  8
0
  5
3C90
 10
824.218
 20
149.302
 30
-8.78730e-15
  70
    32
  0
VERTEX
  8
0
  5
3C91
 10
824.212
 20
149.294
 30
-8.78547e-15
  70
    32
  0
VERTEX
  8
0
  5
3C92
 10
824.206
 20
149.286
 30
-8.78355e-15
  70
    32
  0
VERTEX
  8
0
  5
3C93
 10
824.200
 20
149.278
 30
-8.78154e-15
  70
    32
  0
VERTEX
  8
0
  5
3C94
 10
824.193
 20
149.270
 30
-8.77945e-15
  70
    32
  0
VERTEX
  8
0
  5
3C95
 10
824.187
 20
149.263
 30
-8.77729e-15
  70
    32
  0
VERTEX
  8
0
  5
3C96
 10
824.181
 20
149.255
 30
-8.77506e-15
  70
    32
  0
VERTEX
  8
0
  5
3C97
 10
824.174
 20
149.247
 30
-8.77277e-15
  70
    32
  0
VERTEX
  8
0
  5
3C98
 10
824.168
 20
149.239
 30
-8.77042e-15
  70
    32
  0
VERTEX
  8
0
  5
3C99
 10
824.161
 20
149.231
 30
-8.76803e-15
  70
    32
  0
VERTEX
  8
0
  5
3C9A
 10
824.155
 20
149.224
 30
-8.76559e-15
  70
    32
  0
VERTEX
  8
0
  5
3C9B
 10
824.148
 20
149.216
 30
-8.76311e-15
  70
    32
  0
VERTEX
  8
0
  5
3C9C
 10
824.142
 20
149.208
 30
-8.76061e-15
  70
    32
  0
VERTEX
  8
0
  5
3C9D
 10
824.135
 20
149.201
 30
-8.75808e-15
  70
    32
  0
VERTEX
  8
0
  5
3C9E
 10
824.129
 20
149.193
 30
-8.75552e-15
  70
    32
  0
VERTEX
  8
0
  5
3C9F
 10
824.122
 20
149.185
 30
-8.75296e-15
  70
    32
  0
VERTEX
  8
0
  5
3CA0
 10
824.115
 20
149.178
 30
-8.75039e-15
  70
    32
  0
VERTEX
  8
0
  5
3CA1
 10
824.108
 20
149.170
 30
-8.74782e-15
  70
    32
  0
VERTEX
  8
0
  5
3CA2
 10
824.102
 20
149.163
 30
-8.74525e-15
  70
    32
  0
VERTEX
  8
0
  5
3CA3
 10
824.095
 20
149.155
 30
-8.74269e-15
  70
    32
  0
VERTEX
  8
0
  5
3CA4
 10
824.088
 20
149.148
 30
-8.74015e-15
  70
    32
  0
VERTEX
  8
0
  5
3CA5
 10
824.081
 20
149.141
 30
-8.73764e-15
  70
    32
  0
VERTEX
  8
0
  5
3CA6
 10
824.074
 20
149.133
 30
-8.73515e-15
  70
    32
  0
VERTEX
  8
0
  5
3CA7
 10
824.067
 20
149.126
 30
-8.73270e-15
  70
    32
  0
VERTEX
  8
0
  5
3CA8
 10
824.060
 20
149.119
 30
-8.73029e-15
  70
    32
  0
VERTEX
  8
0
  5
3CA9
 10
824.053
 20
149.111
 30
-8.72793e-15
  70
    32
  0
VERTEX
  8
0
  5
3CAA
 10
824.046
 20
149.104
 30
-8.72562e-15
  70
    32
  0
VERTEX
  8
0
  5
3CAB
 10
824.039
 20
149.097
 30
-8.72338e-15
  70
    32
  0
VERTEX
  8
0
  5
3CAC
 10
824.031
 20
149.090
 30
-8.72119e-15
  70
    32
  0
VERTEX
  8
0
  5
3CAD
 10
824.024
 20
149.082
 30
-8.71908e-15
  70
    32
  0
VERTEX
  8
0
  5
3CAE
 10
824.017
 20
149.075
 30
-8.71705e-15
  70
    32
  0
VERTEX
  8
0
  5
3CAF
 10
824.010
 20
149.068
 30
-8.71510e-15
  70
    32
  0
VERTEX
  8
0
  5
3CB0
 10
824.002
 20
149.061
 30
-8.71324e-15
  70
    32
  0
VERTEX
  8
0
  5
3CB1
 10
823.995
 20
149.054
 30
-8.71148e-15
  70
    32
  0
VERTEX
  8
0
  5
3CB2
 10
823.988
 20
149.047
 30
-8.70982e-15
  70
    32
  0
VERTEX
  8
0
  5
3CB3
 10
823.980
 20
149.040
 30
-8.70826e-15
  70
    32
  0
VERTEX
  8
0
  5
3CB4
 10
823.973
 20
149.033
 30
-8.70682e-15
  70
    32
  0
VERTEX
  8
0
  5
3CB5
 10
823.965
 20
149.026
 30
-8.70551e-15
  70
    32
  0
VERTEX
  8
0
  5
3CB6
 10
823.958
 20
149.020
 30
-8.70431e-15
  70
    32
  0
VERTEX
  8
0
  5
3CB7
 10
823.950
 20
149.013
 30
-8.70325e-15
  70
    32
  0
VERTEX
  8
0
  5
3CB8
 10
823.943
 20
149.006
 30
-8.70233e-15
  70
    32
  0
VERTEX
  8
0
  5
3CB9
 10
823.935
 20
148.999
 30
-8.70155e-15
  70
    32
  0
VERTEX
  8
0
  5
3CBA
 10
823.927
 20
148.992
 30
-8.70093e-15
  70
    32
  0
VERTEX
  8
0
  5
3CBB
 10
823.919
 20
148.986
 30
-8.70046e-15
  70
    32
  0
VERTEX
  8
0
  5
3CBC
 10
823.912
 20
148.979
 30
-8.70015e-15
  70
    32
  0
VERTEX
  8
0
  5
3CBD
 10
823.904
 20
148.972
 30
-8.70001e-15
  70
    32
  0
VERTEX
  8
0
  5
3CBE
 10
823.896
 20
148.966
 30
-8.69998e-15
  70
    32
  0
VERTEX
  8
0
  5
3CBF
 10
823.888
 20
148.959
 30
-8.69987e-15
  70
    32
  0
VERTEX
  8
0
  5
3CC0
 10
823.880
 20
148.953
 30
-8.69969e-15
  70
    32
  0
VERTEX
  8
0
  5
3CC1
 10
823.872
 20
148.946
 30
-8.69942e-15
  70
    32
  0
VERTEX
  8
0
  5
3CC2
 10
823.864
 20
148.940
 30
-8.69907e-15
  70
    32
  0
VERTEX
  8
0
  5
3CC3
 10
823.856
 20
148.933
 30
-8.69864e-15
  70
    32
  0
VERTEX
  8
0
  5
3CC4
 10
823.848
 20
148.927
 30
-8.69813e-15
  70
    32
  0
VERTEX
  8
0
  5
3CC5
 10
823.840
 20
148.921
 30
-8.69756e-15
  70
    32
  0
VERTEX
  8
0
  5
3CC6
 10
823.832
 20
148.914
 30
-8.69691e-15
  70
    32
  0
VERTEX
  8
0
  5
3CC7
 10
823.824
 20
148.908
 30
-8.69619e-15
  70
    32
  0
VERTEX
  8
0
  5
3CC8
 10
823.815
 20
148.902
 30
-8.69540e-15
  70
    32
  0
VERTEX
  8
0
  5
3CC9
 10
823.807
 20
148.896
 30
-8.69455e-15
  70
    32
  0
VERTEX
  8
0
  5
3CCA
 10
823.799
 20
148.889
 30
-8.69364e-15
  70
    32
  0
VERTEX
  8
0
  5
3CCB
 10
823.791
 20
148.883
 30
-8.69266e-15
  70
    32
  0
VERTEX
  8
0
  5
3CCC
 10
823.782
 20
148.877
 30
-8.69163e-15
  70
    32
  0
VERTEX
  8
0
  5
3CCD
 10
823.774
 20
148.871
 30
-8.69054e-15
  70
    32
  0
VERTEX
  8
0
  5
3CCE
 10
823.765
 20
148.865
 30
-8.68939e-15
  70
    32
  0
VERTEX
  8
0
  5
3CCF
 10
823.757
 20
148.859
 30
-8.68819e-15
  70
    32
  0
VERTEX
  8
0
  5
3CD0
 10
823.748
 20
148.853
 30
-8.68695e-15
  70
    32
  0
VERTEX
  8
0
  5
3CD1
 10
823.740
 20
148.847
 30
-8.68565e-15
  70
    32
  0
VERTEX
  8
0
  5
3CD2
 10
823.731
 20
148.841
 30
-8.68431e-15
  70
    32
  0
VERTEX
  8
0
  5
3CD3
 10
823.723
 20
148.835
 30
-8.68292e-15
  70
    32
  0
VERTEX
  8
0
  5
3CD4
 10
823.714
 20
148.830
 30
-8.68150e-15
  70
    32
  0
VERTEX
  8
0
  5
3CD5
 10
823.705
 20
148.824
 30
-8.68003e-15
  70
    32
  0
VERTEX
  8
0
  5
3CD6
 10
823.697
 20
148.818
 30
-8.67852e-15
  70
    32
  0
VERTEX
  8
0
  5
3CD7
 10
823.688
 20
148.812
 30
-8.67698e-15
  70
    32
  0
VERTEX
  8
0
  5
3CD8
 10
823.679
 20
148.807
 30
-8.67541e-15
  70
    32
  0
VERTEX
  8
0
  5
3CD9
 10
823.670
 20
148.801
 30
-8.67381e-15
  70
    32
  0
VERTEX
  8
0
  5
3CDA
 10
823.661
 20
148.796
 30
-8.67217e-15
  70
    32
  0
VERTEX
  8
0
  5
3CDB
 10
823.652
 20
148.790
 30
-8.67051e-15
  70
    32
  0
VERTEX
  8
0
  5
3CDC
 10
823.643
 20
148.784
 30
-8.66883e-15
  70
    32
  0
VERTEX
  8
0
  5
3CDD
 10
823.634
 20
148.779
 30
-8.66712e-15
  70
    32
  0
VERTEX
  8
0
  5
3CDE
 10
823.625
 20
148.774
 30
-8.66539e-15
  70
    32
  0
VERTEX
  8
0
  5
3CDF
 10
823.616
 20
148.768
 30
-8.66365e-15
  70
    32
  0
VERTEX
  8
0
  5
3CE0
 10
823.607
 20
148.763
 30
-8.66189e-15
  70
    32
  0
VERTEX
  8
0
  5
3CE1
 10
823.598
 20
148.757
 30
-8.66011e-15
  70
    32
  0
VERTEX
  8
0
  5
3CE2
 10
823.589
 20
148.752
 30
-8.65832e-15
  70
    32
  0
VERTEX
  8
0
  5
3CE3
 10
823.580
 20
148.747
 30
-8.65652e-15
  70
    32
  0
VERTEX
  8
0
  5
3CE4
 10
823.570
 20
148.742
 30
-8.65472e-15
  70
    32
  0
VERTEX
  8
0
  5
3CE5
 10
823.561
 20
148.736
 30
-8.65291e-15
  70
    32
  0
VERTEX
  8
0
  5
3CE6
 10
823.552
 20
148.731
 30
-8.65109e-15
  70
    32
  0
VERTEX
  8
0
  5
3CE7
 10
823.542
 20
148.726
 30
-8.64928e-15
  70
    32
  0
VERTEX
  8
0
  5
3CE8
 10
823.533
 20
148.721
 30
-8.64746e-15
  70
    32
  0
VERTEX
  8
0
  5
3CE9
 10
823.524
 20
148.716
 30
-8.64565e-15
  70
    32
  0
VERTEX
  8
0
  5
3CEA
 10
823.514
 20
148.711
 30
-8.64384e-15
  70
    32
  0
VERTEX
  8
0
  5
3CEB
 10
823.505
 20
148.706
 30
-8.64204e-15
  70
    32
  0
VERTEX
  8
0
  5
3CEC
 10
823.495
 20
148.701
 30
-8.64025e-15
  70
    32
  0
VERTEX
  8
0
  5
3CED
 10
823.486
 20
148.696
 30
-8.63847e-15
  70
    32
  0
VERTEX
  8
0
  5
3CEE
 10
823.476
 20
148.691
 30
-8.63671e-15
  70
    32
  0
VERTEX
  8
0
  5
3CEF
 10
823.466
 20
148.687
 30
-8.63496e-15
  70
    32
  0
VERTEX
  8
0
  5
3CF0
 10
823.457
 20
148.682
 30
-8.63323e-15
  70
    32
  0
VERTEX
  8
0
  5
3CF1
 10
823.447
 20
148.677
 30
-8.63152e-15
  70
    32
  0
VERTEX
  8
0
  5
3CF2
 10
823.437
 20
148.672
 30
-8.62983e-15
  70
    32
  0
VERTEX
  8
0
  5
3CF3
 10
823.427
 20
148.668
 30
-8.62816e-15
  70
    32
  0
VERTEX
  8
0
  5
3CF4
 10
823.418
 20
148.663
 30
-8.62652e-15
  70
    32
  0
VERTEX
  8
0
  5
3CF5
 10
823.408
 20
148.659
 30
-8.62491e-15
  70
    32
  0
VERTEX
  8
0
  5
3CF6
 10
823.398
 20
148.654
 30
-8.62333e-15
  70
    32
  0
VERTEX
  8
0
  5
3CF7
 10
823.388
 20
148.650
 30
-8.62179e-15
  70
    32
  0
VERTEX
  8
0
  5
3CF8
 10
823.378
 20
148.645
 30
-8.62027e-15
  70
    32
  0
VERTEX
  8
0
  5
3CF9
 10
823.368
 20
148.641
 30
-8.61880e-15
  70
    32
  0
VERTEX
  8
0
  5
3CFA
 10
823.358
 20
148.636
 30
-8.61736e-15
  70
    32
  0
VERTEX
  8
0
  5
3CFB
 10
823.348
 20
148.632
 30
-8.61597e-15
  70
    32
  0
VERTEX
  8
0
  5
3CFC
 10
823.338
 20
148.628
 30
-8.61462e-15
  70
    32
  0
VERTEX
  8
0
  5
3CFD
 10
823.328
 20
148.624
 30
-8.61331e-15
  70
    32
  0
VERTEX
  8
0
  5
3CFE
 10
823.318
 20
148.619
 30
-8.61205e-15
  70
    32
  0
VERTEX
  8
0
  5
3CFF
 10
823.308
 20
148.615
 30
-8.61085e-15
  70
    32
  0
VERTEX
  8
0
  5
3D00
 10
823.297
 20
148.611
 30
-8.60969e-15
  70
    32
  0
VERTEX
  8
0
  5
3D01
 10
823.287
 20
148.607
 30
-8.60859e-15
  70
    32
  0
VERTEX
  8
0
  5
3D02
 10
823.277
 20
148.603
 30
-8.60754e-15
  70
    32
  0
VERTEX
  8
0
  5
3D03
 10
823.266
 20
148.599
 30
-8.60656e-15
  70
    32
  0
VERTEX
  8
0
  5
3D04
 10
823.256
 20
148.595
 30
-8.60563e-15
  70
    32
  0
VERTEX
  8
0
  5
3D05
 10
823.246
 20
148.591
 30
-8.60477e-15
  70
    32
  0
VERTEX
  8
0
  5
3D06
 10
823.235
 20
148.587
 30
-8.60397e-15
  70
    32
  0
VERTEX
  8
0
  5
3D07
 10
823.225
 20
148.583
 30
-8.60323e-15
  70
    32
  0
VERTEX
  8
0
  5
3D08
 10
823.214
 20
148.579
 30
-8.60257e-15
  70
    32
  0
VERTEX
  8
0
  5
3D09
 10
823.204
 20
148.576
 30
-8.60198e-15
  70
    32
  0
VERTEX
  8
0
  5
3D0A
 10
823.193
 20
148.572
 30
-8.60146e-15
  70
    32
  0
VERTEX
  8
0
  5
3D0B
 10
823.183
 20
148.568
 30
-8.60101e-15
  70
    32
  0
VERTEX
  8
0
  5
3D0C
 10
823.172
 20
148.565
 30
-8.60065e-15
  70
    32
  0
VERTEX
  8
0
  5
3D0D
 10
823.161
 20
148.561
 30
-8.60036e-15
  70
    32
  0
VERTEX
  8
0
  5
3D0E
 10
823.151
 20
148.558
 30
-8.60016e-15
  70
    32
  0
VERTEX
  8
0
  5
3D0F
 10
823.140
 20
148.554
 30
-8.60004e-15
  70
    32
  0
VERTEX
  8
0
  5
3D10
 10
823.129
 20
148.551
 30
-8.60000e-15
  70
    32
  0
VERTEX
  8
0
  5
3D11
 10
823.119
 20
148.547
 30
-8.60000e-15
  70
    32
  0
VERTEX
  8
0
  5
3D12
 10
823.108
 20
148.544
 30
-8.60000e-15
  70
    32
  0
VERTEX
  8
0
  5
3D13
 10
823.097
 20
148.540
 30
-8.60000e-15
  70
    32
  0
VERTEX
  8
0
  5
3D14
 10
823.086
 20
148.537
 30
-8.60000e-15
  70
    32
  0
VERTEX
  8
0
  5
3D15
 10
823.075
 20
148.534
 30
-8.60000e-15
  70
    32
  0
VERTEX
  8
0
  5
3D16
 10
823.064
 20
148.531
 30
-8.60000e-15
  70
    32
  0
VERTEX
  8
0
  5
3D17
 10
823.053
 20
148.527
 30
-8.60000e-15
  70
    32
  0
VERTEX
  8
0
  5
3D18
 10
823.042
 20
148.524
 30
-8.60000e-15
  70
    32
  0
VERTEX
  8
0
  5
3D19
 10
823.031
 20
148.521
 30
-8.60000e-15
  70
    32
  0
VERTEX
  8
0
  5
3D1A
 10
823.020
 20
148.518
 30
-8.60000e-15
  70
    32
  0
VERTEX
  8
0
  5
3D1B
 10
823.009
 20
148.515
 30
-8.60000e-15
  70
    32
  0
VERTEX
  8
0
  5
3D1C
 10
822.998
 20
148.512
 30
-8.60000e-15
  70
    32
  0
VERTEX
  8
0
  5
3D1D
 10
822.987
 20
148.509
 30
-8.60000e-15
  70
    32
  0
VERTEX
  8
0
  5
3D1E
 10
822.975
 20
148.506
 30
-8.60000e-15
  70
    32
  0
VERTEX
  8
0
  5
3D1F
 10
822.964
 20
148.503
 30
-8.60000e-15
  70
    32
  0
VERTEX
  8
0
  5
3D20
 10
822.953
 20
148.501
 30
-8.60000e-15
  70
    32
  0
VERTEX
  8
0
  5
3D21
 10
822.942
 20
148.498
 30
-8.60000e-15
  70
    32
  0
VERTEX
  8
0
  5
3D22
 10
822.930
 20
148.495
 30
-8.60000e-15
  70
    32
  0
VERTEX
  8
0
  5
3D23
 10
822.919
 20
148.493
 30
-8.60000e-15
  70
    32
  0
VERTEX
  8
0
  5
3D24
 10
822.908
 20
148.490
 30
-8.60000e-15
  70
    32
  0
VERTEX
  8
0
  5
3D25
 10
822.896
 20
148.487
 30
-8.60000e-15
  70
    32
  0
VERTEX
  8
0
  5
3D26
 10
822.885
 20
148.485
 30
-8.60000e-15
  70
    32
  0
VERTEX
  8
0
  5
3D27
 10
822.873
 20
148.482
 30
-8.60000e-15
  70
    32
  0
VERTEX
  8
0
  5
3D28
 10
822.862
 20
148.480
 30
-8.60000e-15
  70
    32
  0
VERTEX
  8
0
  5
3D29
 10
822.850
 20
148.477
 30
-8.60000e-15
  70
    32
  0
VERTEX
  8
0
  5
3D2A
 10
822.839
 20
148.475
 30
-8.60000e-15
  70
    32
  0
VERTEX
  8
0
  5
3D2B
 10
822.827
 20
148.473
 30
-8.60000e-15
  70
    32
  0
VERTEX
  8
0
  5
3D2C
 10
822.816
 20
148.470
 30
-8.60000e-15
  70
    32
  0
VERTEX
  8
0
  5
3D2D
 10
822.804
 20
148.468
 30
-8.60000e-15
  70
    32
  0
VERTEX
  8
0
  5
3D2E
 10
822.792
 20
148.466
 30
-8.60000e-15
  70
    32
  0
VERTEX
  8
0
  5
3D2F
 10
822.781
 20
148.464
 30
-8.60000e-15
  70
    32
  0
VERTEX
  8
0
  5
3D30
 10
822.769
 20
148.462
 30
-8.60000e-15
  70
    32
  0
VERTEX
  8
0
  5
3D31
 10
822.757
 20
148.459
 30
-8.60000e-15
  70
    32
  0
VERTEX
  8
0
  5
3D32
 10
822.745
 20
148.457
 30
-8.60000e-15
  70
    32
  0
VERTEX
  8
0
  5
3D33
 10
822.733
 20
148.455
 30
-8.60000e-15
  70
    32
  0
VERTEX
  8
0
  5
3D34
 10
822.722
 20
148.453
 30
-8.60000e-15
  70
    32
  0
VERTEX
  8
0
  5
3D35
 10
822.710
 20
148.452
 30
-8.60000e-15
  70
    32
  0
VERTEX
  8
0
  5
3D36
 10
822.698
 20
148.450
 30
-8.60000e-15
  70
    32
  0
VERTEX
  8
0
  5
3D37
 10
822.686
 20
148.448
 30
-8.60000e-15
  70
    32
  0
VERTEX
  8
0
  5
3D38
 10
822.674
 20
148.446
 30
-8.60000e-15
  70
    32
  0
VERTEX
  8
0
  5
3D39
 10
822.662
 20
148.444
 30
-8.60000e-15
  70
    32
  0
VERTEX
  8
0
  5
3D3A
 10
822.650
 20
148.443
 30
-8.60000e-15
  70
    32
  0
VERTEX
  8
0
  5
3D3B
 10
822.638
 20
148.441
 30
-8.60000e-15
  70
    32
  0
VERTEX
  8
0
  5
3D3C
 10
822.626
 20
148.439
 30
-8.60000e-15
  70
    32
  0
VERTEX
  8
0
  5
3D3D
 10
822.614
 20
148.438
 30
-8.60000e-15
  70
    32
  0
VERTEX
  8
0
  5
3D3E
 10
822.602
 20
148.436
 30
-8.60000e-15
  70
    32
  0
VERTEX
  8
0
  5
3D3F
 10
822.590
 20
148.435
 30
-8.60000e-15
  70
    32
  0
VERTEX
  8
0
  5
3D40
 10
822.577
 20
148.433
 30
-8.60000e-15
  70
    32
  0
VERTEX
  8
0
  5
3D41
 10
822.565
 20
148.432
 30
-8.60000e-15
  70
    32
  0
VERTEX
  8
0
  5
3D42
 10
822.553
 20
148.430
 30
-8.60000e-15
  70
    32
  0
VERTEX
  8
0
  5
3D43
 10
822.541
 20
148.429
 30
-8.60000e-15
  70
    32
  0
VERTEX
  8
0
  5
3D44
 10
822.529
 20
148.428
 30
-8.60000e-15
  70
    32
  0
VERTEX
  8
0
  5
3D45
 10
822.516
 20
148.427
 30
-8.60000e-15
  70
    32
  0
VERTEX
  8
0
  5
3D46
 10
822.504
 20
148.425
 30
-8.60000e-15
  70
    32
  0
VERTEX
  8
0
  5
3D47
 10
822.492
 20
148.424
 30
-8.60000e-15
  70
    32
  0
VERTEX
  8
0
  5
3D48
 10
822.479
 20
148.423
 30
-8.60000e-15
  70
    32
  0
VERTEX
  8
0
  5
3D49
 10
822.467
 20
148.422
 30
-8.60000e-15
  70
    32
  0
VERTEX
  8
0
  5
3D4A
 10
822.454
 20
148.421
 30
-8.60000e-15
  70
    32
  0
VERTEX
  8
0
  5
3D4B
 10
822.442
 20
148.420
 30
-8.60000e-15
  70
    32
  0
VERTEX
  8
0
  5
3D4C
 10
822.430
 20
148.419
 30
-8.60000e-15
  70
    32
  0
VERTEX
  8
0
  5
3D4D
 10
822.417
 20
148.418
 30
-8.60000e-15
  70
    32
  0
VERTEX
  8
0
  5
3D4E
 10
822.405
 20
148.417
 30
-8.60000e-15
  70
    32
  0
VERTEX
  8
0
  5
3D4F
 10
822.392
 20
148.416
 30
-8.60000e-15
  70
    32
  0
VERTEX
  8
0
  5
3D50
 10
822.380
 20
148.415
 30
-8.60000e-15
  70
    32
  0
VERTEX
  8
0
  5
3D51
 10
822.367
 20
148.415
 30
-8.60000e-15
  70
    32
  0
VERTEX
  8
0
  5
3D52
 10
822.354
 20
148.414
 30
-8.60000e-15
  70
    32
  0
VERTEX
  8
0
  5
3D53
 10
822.342
 20
148.413
 30
-8.60000e-15
  70
    32
  0
VERTEX
  8
0
  5
3D54
 10
822.329
 20
148.413
 30
-8.60000e-15
  70
    32
  0
VERTEX
  8
0
  5
3D55
 10
822.316
 20
148.412
 30
-8.60000e-15
  70
    32
  0
VERTEX
  8
0
  5
3D56
 10
822.304
 20
148.412
 30
-8.60000e-15
  70
    32
  0
VERTEX
  8
0
  5
3D57
 10
822.291
 20
148.411
 30
-8.60000e-15
  70
    32
  0
VERTEX
  8
0
  5
3D58
 10
822.278
 20
148.411
 30
-8.60000e-15
  70
    32
  0
VERTEX
  8
0
  5
3D59
 10
822.266
 20
148.410
 30
-8.60000e-15
  70
    32
  0
VERTEX
  8
0
  5
3D5A
 10
822.253
 20
148.410
 30
-8.60000e-15
  70
    32
  0
VERTEX
  8
0
  5
3D5B
 10
822.240
 20
148.410
 30
-8.60000e-15
  70
    32
  0
VERTEX
  8
0
  5
3D5C
 10
822.227
 20
148.409
 30
-8.60000e-15
  70
    32
  0
VERTEX
  8
0
  5
3D5D
 10
822.214
 20
148.409
 30
-8.60000e-15
  70
    32
  0
VERTEX
  8
0
  5
3D5E
 10
822.201
 20
148.409
 30
-8.60000e-15
  70
    32
  0
VERTEX
  8
0
  5
3D5F
 10
822.189
 20
148.409
 30
-8.60000e-15
  70
    32
  0
VERTEX
  8
0
  5
3D60
 10
822.176
 20
148.408
 30
-8.60000e-15
  70
    32
  0
VERTEX
  8
0
  5
3D61
 10
822.163
 20
148.408
 30
-8.60000e-15
  70
    32
  0
VERTEX
  8
0
  5
3D62
 10
822.150
 20
148.408
 30
-8.60000e-15
  70
    32
  0
VERTEX
  8
0
  5
3D63
 10
822.137
 20
148.408
 30
-8.60000e-15
  70
    32
  0
VERTEX
  8
0
  5
3D64
 10
822.124
 20
148.408
 30
-8.60000e-15
  70
    32
  0
VERTEX
  8
0
  5
3D65
 10
822.111
 20
148.408
 30
-8.60000e-15
  70
    32
  0
VERTEX
  8
0
  5
3D66
 10
822.098
 20
148.409
 30
-8.60000e-15
  70
    32
  0
VERTEX
  8
0
  5
3D67
 10
822.085
 20
148.409
 30
-8.60000e-15
  70
    32
  0
VERTEX
  8
0
  5
3D68
 10
822.071
 20
148.409
 30
-8.60000e-15
  70
    32
  0
VERTEX
  8
0
  5
3D69
 10
822.058
 20
148.409
 30
-8.60000e-15
  70
    32
  0
VERTEX
  8
0
  5
3D6A
 10
822.045
 20
148.410
 30
-8.60000e-15
  70
    32
  0
VERTEX
  8
0
  5
3D6B
 10
822.032
 20
148.410
 30
-8.60000e-15
  70
    32
  0
VERTEX
  8
0
  5
3D6C
 10
822.019
 20
148.410
 30
-8.60000e-15
  70
    32
  0
VERTEX
  8
0
  5
3D6D
 10
822.005
 20
148.411
 30
-8.60000e-15
  70
    32
  0
VERTEX
  8
0
  5
3D6E
 10
821.992
 20
148.411
 30
-8.60000e-15
  70
    32
  0
VERTEX
  8
0
  5
3D6F
 10
821.979
 20
148.412
 30
-8.60000e-15
  70
    32
  0
VERTEX
  8
0
  5
3D70
 10
821.965
 20
148.412
 30
-8.60000e-15
  70
    32
  0
VERTEX
  8
0
  5
3D71
 10
821.952
 20
148.413
 30
-8.60000e-15
  70
    32
  0
VERTEX
  8
0
  5
3D72
 10
821.938
 20
148.413
 30
-8.60000e-15
  70
    32
  0
VERTEX
  8
0
  5
3D73
 10
821.925
 20
148.414
 30
-8.60000e-15
  70
    32
  0
VERTEX
  8
0
  5
3D74
 10
821.911
 20
148.415
 30
-8.60000e-15
  70
    32
  0
VERTEX
  8
0
  5
3D75
 10
821.898
 20
148.415
 30
-8.60000e-15
  70
    32
  0
VERTEX
  8
0
  5
3D76
 10
821.884
 20
148.416
 30
-8.60000e-15
  70
    32
  0
VERTEX
  8
0
  5
3D77
 10
821.871
 20
148.417
 30
-8.60000e-15
  70
    32
  0
VERTEX
  8
0
  5
3D78
 10
821.857
 20
148.418
 30
-8.60000e-15
  70
    32
  0
VERTEX
  8
0
  5
3D79
 10
821.843
 20
148.419
 30
-8.60000e-15
  70
    32
  0
VERTEX
  8
0
  5
3D7A
 10
821.830
 20
148.420
 30
-8.60000e-15
  70
    32
  0
VERTEX
  8
0
  5
3D7B
 10
821.816
 20
148.421
 30
-8.60000e-15
  70
    32
  0
VERTEX
  8
0
  5
3D7C
 10
821.802
 20
148.422
 30
-8.60000e-15
  70
    32
  0
VERTEX
  8
0
  5
3D7D
 10
821.788
 20
148.423
 30
-8.60000e-15
  70
    32
  0
VERTEX
  8
0
  5
3D7E
 10
821.774
 20
148.424
 30
-8.60000e-15
  70
    32
  0
VERTEX
  8
0
  5
3D7F
 10
821.761
 20
148.425
 30
-8.60000e-15
  70
    32
  0
VERTEX
  8
0
  5
3D80
 10
821.747
 20
148.427
 30
-8.60000e-15
  70
    32
  0
VERTEX
  8
0
  5
3D81
 10
821.733
 20
148.428
 30
-8.60000e-15
  70
    32
  0
VERTEX
  8
0
  5
3D82
 10
821.719
 20
148.429
 30
-8.60000e-15
  70
    32
  0
VERTEX
  8
0
  5
3D83
 10
821.705
 20
148.430
 30
-8.60000e-15
  70
    32
  0
VERTEX
  8
0
  5
3D84
 10
821.691
 20
148.432
 30
-8.60000e-15
  70
    32
  0
VERTEX
  8
0
  5
3D85
 10
821.677
 20
148.433
 30
-8.60000e-15
  70
    32
  0
VERTEX
  8
0
  5
3D86
 10
821.663
 20
148.435
 30
-8.60000e-15
  70
    32
  0
VERTEX
  8
0
  5
3D87
 10
821.649
 20
148.436
 30
-8.60000e-15
  70
    32
  0
VERTEX
  8
0
  5
3D88
 10
821.635
 20
148.438
 30
-8.60000e-15
  70
    32
  0
VERTEX
  8
0
  5
3D89
 10
821.621
 20
148.439
 30
-8.60000e-15
  70
    32
  0
VERTEX
  8
0
  5
3D8A
 10
821.606
 20
148.441
 30
-8.60000e-15
  70
    32
  0
VERTEX
  8
0
  5
3D8B
 10
821.592
 20
148.443
 30
-8.60000e-15
  70
    32
  0
VERTEX
  8
0
  5
3D8C
 10
821.578
 20
148.444
 30
-8.60000e-15
  70
    32
  0
VERTEX
  8
0
  5
3D8D
 10
821.564
 20
148.446
 30
-8.60000e-15
  70
    32
  0
VERTEX
  8
0
  5
3D8E
 10
821.550
 20
148.448
 30
-8.60000e-15
  70
    32
  0
VERTEX
  8
0
  5
3D8F
 10
821.535
 20
148.450
 30
-8.60000e-15
  70
    32
  0
VERTEX
  8
0
  5
3D90
 10
821.521
 20
148.452
 30
-8.60000e-15
  70
    32
  0
VERTEX
  8
0
  5
3D91
 10
821.507
 20
148.453
 30
-8.60000e-15
  70
    32
  0
VERTEX
  8
0
  5
3D92
 10
821.492
 20
148.455
 30
-8.60000e-15
  70
    32
  0
VERTEX
  8
0
  5
3D93
 10
821.478
 20
148.457
 30
-8.60000e-15
  70
    32
  0
VERTEX
  8
0
  5
3D94
 10
821.463
 20
148.459
 30
-8.60000e-15
  70
    32
  0
VERTEX
  8
0
  5
3D95
 10
821.449
 20
148.462
 30
-8.60000e-15
  70
    32
  0
VERTEX
  8
0
  5
3D96
 10
821.434
 20
148.464
 30
-8.60000e-15
  70
    32
  0
VERTEX
  8
0
  5
3D97
 10
821.420
 20
148.466
 30
-8.60000e-15
  70
    32
  0
VERTEX
  8
0
  5
3D98
 10
821.405
 20
148.468
 30
-8.60000e-15
  70
    32
  0
VERTEX
  8
0
  5
3D99
 10
821.391
 20
148.470
 30
-8.60000e-15
  70
    32
  0
VERTEX
  8
0
  5
3D9A
 10
821.376
 20
148.473
 30
-8.60000e-15
  70
    32
  0
VERTEX
  8
0
  5
3D9B
 10
821.362
 20
148.475
 30
-8.60000e-15
  70
    32
  0
VERTEX
  8
0
  5
3D9C
 10
821.347
 20
148.477
 30
-8.60000e-15
  70
    32
  0
VERTEX
  8
0
  5
3D9D
 10
821.332
 20
148.480
 30
-8.60000e-15
  70
    32
  0
VERTEX
  8
0
  5
3D9E
 10
821.318
 20
148.482
 30
-8.60000e-15
  70
    32
  0
VERTEX
  8
0
  5
3D9F
 10
821.303
 20
148.485
 30
-8.60000e-15
  70
    32
  0
VERTEX
  8
0
  5
3DA0
 10
821.288
 20
148.487
 30
-8.60000e-15
  70
    32
  0
VERTEX
  8
0
  5
3DA1
 10
821.273
 20
148.490
 30
-8.60000e-15
  70
    32
  0
VERTEX
  8
0
  5
3DA2
 10
821.259
 20
148.493
 30
-8.60000e-15
  70
    32
  0
VERTEX
  8
0
  5
3DA3
 10
821.244
 20
148.495
 30
-8.60000e-15
  70
    32
  0
VERTEX
  8
0
  5
3DA4
 10
821.229
 20
148.498
 30
-8.60000e-15
  70
    32
  0
VERTEX
  8
0
  5
3DA5
 10
821.214
 20
148.501
 30
-8.60000e-15
  70
    32
  0
VERTEX
  8
0
  5
3DA6
 10
821.199
 20
148.503
 30
-8.60000e-15
  70
    32
  0
VERTEX
  8
0
  5
3DA7
 10
821.184
 20
148.506
 30
-8.60000e-15
  70
    32
  0
VERTEX
  8
0
  5
3DA8
 10
821.169
 20
148.509
 30
-8.60000e-15
  70
    32
  0
VERTEX
  8
0
  5
3DA9
 10
821.154
 20
148.512
 30
-8.60000e-15
  70
    32
  0
VERTEX
  8
0
  5
3DAA
 10
821.139
 20
148.515
 30
-8.60000e-15
  70
    32
  0
VERTEX
  8
0
  5
3DAB
 10
821.124
 20
148.518
 30
-8.60000e-15
  70
    32
  0
VERTEX
  8
0
  5
3DAC
 10
821.109
 20
148.521
 30
-8.60000e-15
  70
    32
  0
VERTEX
  8
0
  5
3DAD
 10
821.094
 20
148.524
 30
-8.60000e-15
  70
    32
  0
VERTEX
  8
0
  5
3DAE
 10
821.079
 20
148.527
 30
-8.60000e-15
  70
    32
  0
VERTEX
  8
0
  5
3DAF
 10
821.064
 20
148.531
 30
-8.60000e-15
  70
    32
  0
VERTEX
  8
0
  5
3DB0
 10
821.049
 20
148.534
 30
-8.60000e-15
  70
    32
  0
VERTEX
  8
0
  5
3DB1
 10
821.034
 20
148.537
 30
-8.60000e-15
  70
    32
  0
VERTEX
  8
0
  5
3DB2
 10
821.019
 20
148.540
 30
-8.60000e-15
  70
    32
  0
VERTEX
  8
0
  5
3DB3
 10
821.004
 20
148.544
 30
-8.60000e-15
  70
    32
  0
VERTEX
  8
0
  5
3DB4
 10
820.988
 20
148.547
 30
-8.60000e-15
  70
    32
  0
VERTEX
  8
0
  5
3DB5
 10
820.973
 20
148.551
 30
-8.60000e-15
  70
    32
  0
VERTEX
  8
0
  5
3DB6
 10
820.958
 20
148.554
 30
-8.60004e-15
  70
    32
  0
VERTEX
  8
0
  5
3DB7
 10
820.943
 20
148.558
 30
-8.60016e-15
  70
    32
  0
VERTEX
  8
0
  5
3DB8
 10
820.927
 20
148.561
 30
-8.60036e-15
  70
    32
  0
VERTEX
  8
0
  5
3DB9
 10
820.912
 20
148.565
 30
-8.60065e-15
  70
    32
  0
VERTEX
  8
0
  5
3DBA
 10
820.897
 20
148.568
 30
-8.60101e-15
  70
    32
  0
VERTEX
  8
0
  5
3DBB
 10
820.881
 20
148.572
 30
-8.60146e-15
  70
    32
  0
VERTEX
  8
0
  5
3DBC
 10
820.866
 20
148.576
 30
-8.60198e-15
  70
    32
  0
VERTEX
  8
0
  5
3DBD
 10
820.851
 20
148.579
 30
-8.60257e-15
  70
    32
  0
VERTEX
  8
0
  5
3DBE
 10
820.835
 20
148.583
 30
-8.60323e-15
  70
    32
  0
VERTEX
  8
0
  5
3DBF
 10
820.820
 20
148.587
 30
-8.60397e-15
  70
    32
  0
VERTEX
  8
0
  5
3DC0
 10
820.804
 20
148.591
 30
-8.60477e-15
  70
    32
  0
VERTEX
  8
0
  5
3DC1
 10
820.789
 20
148.595
 30
-8.60563e-15
  70
    32
  0
VERTEX
  8
0
  5
3DC2
 10
820.773
 20
148.599
 30
-8.60656e-15
  70
    32
  0
VERTEX
  8
0
  5
3DC3
 10
820.758
 20
148.603
 30
-8.60754e-15
  70
    32
  0
VERTEX
  8
0
  5
3DC4
 10
820.742
 20
148.607
 30
-8.60859e-15
  70
    32
  0
VERTEX
  8
0
  5
3DC5
 10
820.727
 20
148.611
 30
-8.60969e-15
  70
    32
  0
VERTEX
  8
0
  5
3DC6
 10
820.711
 20
148.615
 30
-8.61085e-15
  70
    32
  0
VERTEX
  8
0
  5
3DC7
 10
820.696
 20
148.619
 30
-8.61205e-15
  70
    32
  0
VERTEX
  8
0
  5
3DC8
 10
820.680
 20
148.624
 30
-8.61331e-15
  70
    32
  0
VERTEX
  8
0
  5
3DC9
 10
820.664
 20
148.628
 30
-8.61462e-15
  70
    32
  0
VERTEX
  8
0
  5
3DCA
 10
820.649
 20
148.632
 30
-8.61597e-15
  70
    32
  0
VERTEX
  8
0
  5
3DCB
 10
820.633
 20
148.636
 30
-8.61736e-15
  70
    32
  0
VERTEX
  8
0
  5
3DCC
 10
820.617
 20
148.641
 30
-8.61880e-15
  70
    32
  0
VERTEX
  8
0
  5
3DCD
 10
820.602
 20
148.645
 30
-8.62027e-15
  70
    32
  0
VERTEX
  8
0
  5
3DCE
 10
820.586
 20
148.650
 30
-8.62179e-15
  70
    32
  0
VERTEX
  8
0
  5
3DCF
 10
820.570
 20
148.654
 30
-8.62333e-15
  70
    32
  0
VERTEX
  8
0
  5
3DD0
 10
820.555
 20
148.659
 30
-8.62491e-15
  70
    32
  0
VERTEX
  8
0
  5
3DD1
 10
820.539
 20
148.663
 30
-8.62652e-15
  70
    32
  0
VERTEX
  8
0
  5
3DD2
 10
820.523
 20
148.668
 30
-8.62816e-15
  70
    32
  0
VERTEX
  8
0
  5
3DD3
 10
820.507
 20
148.672
 30
-8.62983e-15
  70
    32
  0
VERTEX
  8
0
  5
3DD4
 10
820.491
 20
148.677
 30
-8.63152e-15
  70
    32
  0
VERTEX
  8
0
  5
3DD5
 10
820.476
 20
148.682
 30
-8.63323e-15
  70
    32
  0
VERTEX
  8
0
  5
3DD6
 10
820.460
 20
148.687
 30
-8.63496e-15
  70
    32
  0
VERTEX
  8
0
  5
3DD7
 10
820.444
 20
148.691
 30
-8.63671e-15
  70
    32
  0
VERTEX
  8
0
  5
3DD8
 10
820.428
 20
148.696
 30
-8.63847e-15
  70
    32
  0
VERTEX
  8
0
  5
3DD9
 10
820.412
 20
148.701
 30
-8.64025e-15
  70
    32
  0
VERTEX
  8
0
  5
3DDA
 10
820.396
 20
148.706
 30
-8.64204e-15
  70
    32
  0
VERTEX
  8
0
  5
3DDB
 10
820.380
 20
148.711
 30
-8.64384e-15
  70
    32
  0
VERTEX
  8
0
  5
3DDC
 10
820.364
 20
148.716
 30
-8.64565e-15
  70
    32
  0
VERTEX
  8
0
  5
3DDD
 10
820.348
 20
148.721
 30
-8.64746e-15
  70
    32
  0
VERTEX
  8
0
  5
3DDE
 10
820.332
 20
148.726
 30
-8.64928e-15
  70
    32
  0
VERTEX
  8
0
  5
3DDF
 10
820.316
 20
148.731
 30
-8.65109e-15
  70
    32
  0
VERTEX
  8
0
  5
3DE0
 10
820.300
 20
148.736
 30
-8.65291e-15
  70
    32
  0
VERTEX
  8
0
  5
3DE1
 10
820.284
 20
148.742
 30
-8.65472e-15
  70
    32
  0
VERTEX
  8
0
  5
3DE2
 10
820.268
 20
148.747
 30
-8.65652e-15
  70
    32
  0
VERTEX
  8
0
  5
3DE3
 10
820.252
 20
148.752
 30
-8.65832e-15
  70
    32
  0
VERTEX
  8
0
  5
3DE4
 10
820.236
 20
148.757
 30
-8.66011e-15
  70
    32
  0
VERTEX
  8
0
  5
3DE5
 10
820.220
 20
148.763
 30
-8.66189e-15
  70
    32
  0
VERTEX
  8
0
  5
3DE6
 10
820.204
 20
148.768
 30
-8.66365e-15
  70
    32
  0
VERTEX
  8
0
  5
3DE7
 10
820.188
 20
148.774
 30
-8.66539e-15
  70
    32
  0
VERTEX
  8
0
  5
3DE8
 10
820.172
 20
148.779
 30
-8.66712e-15
  70
    32
  0
VERTEX
  8
0
  5
3DE9
 10
820.156
 20
148.784
 30
-8.66883e-15
  70
    32
  0
VERTEX
  8
0
  5
3DEA
 10
820.140
 20
148.790
 30
-8.67051e-15
  70
    32
  0
VERTEX
  8
0
  5
3DEB
 10
820.124
 20
148.796
 30
-8.67217e-15
  70
    32
  0
VERTEX
  8
0
  5
3DEC
 10
820.108
 20
148.801
 30
-8.67381e-15
  70
    32
  0
VERTEX
  8
0
  5
3DED
 10
820.091
 20
148.807
 30
-8.67541e-15
  70
    32
  0
VERTEX
  8
0
  5
3DEE
 10
820.075
 20
148.812
 30
-8.67698e-15
  70
    32
  0
VERTEX
  8
0
  5
3DEF
 10
820.059
 20
148.818
 30
-8.67852e-15
  70
    32
  0
VERTEX
  8
0
  5
3DF0
 10
820.043
 20
148.824
 30
-8.68003e-15
  70
    32
  0
VERTEX
  8
0
  5
3DF1
 10
820.027
 20
148.830
 30
-8.68150e-15
  70
    32
  0
VERTEX
  8
0
  5
3DF2
 10
820.010
 20
148.835
 30
-8.68292e-15
  70
    32
  0
VERTEX
  8
0
  5
3DF3
 10
819.994
 20
148.841
 30
-8.68431e-15
  70
    32
  0
VERTEX
  8
0
  5
3DF4
 10
819.978
 20
148.847
 30
-8.68565e-15
  70
    32
  0
VERTEX
  8
0
  5
3DF5
 10
819.962
 20
148.853
 30
-8.68695e-15
  70
    32
  0
VERTEX
  8
0
  5
3DF6
 10
819.945
 20
148.859
 30
-8.68819e-15
  70
    32
  0
VERTEX
  8
0
  5
3DF7
 10
819.929
 20
148.865
 30
-8.68939e-15
  70
    32
  0
VERTEX
  8
0
  5
3DF8
 10
819.913
 20
148.871
 30
-8.69054e-15
  70
    32
  0
VERTEX
  8
0
  5
3DF9
 10
819.897
 20
148.877
 30
-8.69163e-15
  70
    32
  0
VERTEX
  8
0
  5
3DFA
 10
819.880
 20
148.883
 30
-8.69266e-15
  70
    32
  0
VERTEX
  8
0
  5
3DFB
 10
819.864
 20
148.889
 30
-8.69364e-15
  70
    32
  0
VERTEX
  8
0
  5
3DFC
 10
819.848
 20
148.896
 30
-8.69455e-15
  70
    32
  0
VERTEX
  8
0
  5
3DFD
 10
819.831
 20
148.902
 30
-8.69540e-15
  70
    32
  0
VERTEX
  8
0
  5
3DFE
 10
819.815
 20
148.908
 30
-8.69619e-15
  70
    32
  0
VERTEX
  8
0
  5
3DFF
 10
819.799
 20
148.914
 30
-8.69691e-15
  70
    32
  0
VERTEX
  8
0
  5
3E00
 10
819.782
 20
148.921
 30
-8.69756e-15
  70
    32
  0
VERTEX
  8
0
  5
3E01
 10
819.766
 20
148.927
 30
-8.69813e-15
  70
    32
  0
VERTEX
  8
0
  5
3E02
 10
819.750
 20
148.933
 30
-8.69864e-15
  70
    32
  0
VERTEX
  8
0
  5
3E03
 10
819.733
 20
148.940
 30
-8.69907e-15
  70
    32
  0
VERTEX
  8
0
  5
3E04
 10
819.717
 20
148.946
 30
-8.69942e-15
  70
    32
  0
VERTEX
  8
0
  5
3E05
 10
819.700
 20
148.953
 30
-8.69969e-15
  70
    32
  0
VERTEX
  8
0
  5
3E06
 10
819.684
 20
148.959
 30
-8.69987e-15
  70
    32
  0
VERTEX
  8
0
  5
3E07
 10
819.668
 20
148.966
 30
-8.69998e-15
  70
    32
  0
VERTEX
  8
0
  5
3E08
 10
819.651
 20
148.972
 30
-8.70001e-15
  70
    32
  0
VERTEX
  8
0
  5
3E09
 10
819.635
 20
148.979
 30
-8.70015e-15
  70
    32
  0
VERTEX
  8
0
  5
3E0A
 10
819.618
 20
148.986
 30
-8.70046e-15
  70
    32
  0
VERTEX
  8
0
  5
3E0B
 10
819.602
 20
148.992
 30
-8.70093e-15
  70
    32
  0
VERTEX
  8
0
  5
3E0C
 10
819.585
 20
148.999
 30
-8.70155e-15
  70
    32
  0
VERTEX
  8
0
  5
3E0D
 10
819.569
 20
149.006
 30
-8.70233e-15
  70
    32
  0
VERTEX
  8
0
  5
3E0E
 10
819.552
 20
149.013
 30
-8.70325e-15
  70
    32
  0
VERTEX
  8
0
  5
3E0F
 10
819.536
 20
149.020
 30
-8.70431e-15
  70
    32
  0
VERTEX
  8
0
  5
3E10
 10
819.520
 20
149.026
 30
-8.70551e-15
  70
    32
  0
VERTEX
  8
0
  5
3E11
 10
819.503
 20
149.033
 30
-8.70682e-15
  70
    32
  0
VERTEX
  8
0
  5
3E12
 10
819.487
 20
149.040
 30
-8.70826e-15
  70
    32
  0
VERTEX
  8
0
  5
3E13
 10
819.470
 20
149.047
 30
-8.70982e-15
  70
    32
  0
VERTEX
  8
0
  5
3E14
 10
819.454
 20
149.054
 30
-8.71148e-15
  70
    32
  0
VERTEX
  8
0
  5
3E15
 10
819.437
 20
149.061
 30
-8.71324e-15
  70
    32
  0
VERTEX
  8
0
  5
3E16
 10
819.421
 20
149.068
 30
-8.71510e-15
  70
    32
  0
VERTEX
  8
0
  5
3E17
 10
819.404
 20
149.075
 30
-8.71705e-15
  70
    32
  0
VERTEX
  8
0
  5
3E18
 10
819.388
 20
149.082
 30
-8.71908e-15
  70
    32
  0
VERTEX
  8
0
  5
3E19
 10
819.371
 20
149.090
 30
-8.72119e-15
  70
    32
  0
VERTEX
  8
0
  5
3E1A
 10
819.355
 20
149.097
 30
-8.72338e-15
  70
    32
  0
VERTEX
  8
0
  5
3E1B
 10
819.338
 20
149.104
 30
-8.72562e-15
  70
    32
  0
VERTEX
  8
0
  5
3E1C
 10
819.321
 20
149.111
 30
-8.72793e-15
  70
    32
  0
VERTEX
  8
0
  5
3E1D
 10
819.305
 20
149.119
 30
-8.73029e-15
  70
    32
  0
VERTEX
  8
0
  5
3E1E
 10
819.288
 20
149.126
 30
-8.73270e-15
  70
    32
  0
VERTEX
  8
0
  5
3E1F
 10
819.272
 20
149.133
 30
-8.73515e-15
  70
    32
  0
VERTEX
  8
0
  5
3E20
 10
819.255
 20
149.141
 30
-8.73764e-15
  70
    32
  0
VERTEX
  8
0
  5
3E21
 10
819.239
 20
149.148
 30
-8.74015e-15
  70
    32
  0
VERTEX
  8
0
  5
3E22
 10
819.222
 20
149.155
 30
-8.74269e-15
  70
    32
  0
VERTEX
  8
0
  5
3E23
 10
819.206
 20
149.163
 30
-8.74525e-15
  70
    32
  0
VERTEX
  8
0
  5
3E24
 10
819.189
 20
149.170
 30
-8.74782e-15
  70
    32
  0
VERTEX
  8
0
  5
3E25
 10
819.172
 20
149.178
 30
-8.75039e-15
  70
    32
  0
VERTEX
  8
0
  5
3E26
 10
819.156
 20
149.185
 30
-8.75296e-15
  70
    32
  0
VERTEX
  8
0
  5
3E27
 10
819.139
 20
149.193
 30
-8.75552e-15
  70
    32
  0
VERTEX
  8
0
  5
3E28
 10
819.123
 20
149.201
 30
-8.75808e-15
  70
    32
  0
VERTEX
  8
0
  5
3E29
 10
819.106
 20
149.208
 30
-8.76061e-15
  70
    32
  0
VERTEX
  8
0
  5
3E2A
 10
819.090
 20
149.216
 30
-8.76311e-15
  70
    32
  0
VERTEX
  8
0
  5
3E2B
 10
819.073
 20
149.224
 30
-8.76559e-15
  70
    32
  0
VERTEX
  8
0
  5
3E2C
 10
819.056
 20
149.231
 30
-8.76803e-15
  70
    32
  0
VERTEX
  8
0
  5
3E2D
 10
819.040
 20
149.239
 30
-8.77042e-15
  70
    32
  0
VERTEX
  8
0
  5
3E2E
 10
819.023
 20
149.247
 30
-8.77277e-15
  70
    32
  0
VERTEX
  8
0
  5
3E2F
 10
819.007
 20
149.255
 30
-8.77506e-15
  70
    32
  0
VERTEX
  8
0
  5
3E30
 10
818.990
 20
149.263
 30
-8.77729e-15
  70
    32
  0
VERTEX
  8
0
  5
3E31
 10
818.974
 20
149.270
 30
-8.77945e-15
  70
    32
  0
VERTEX
  8
0
  5
3E32
 10
818.957
 20
149.278
 30
-8.78154e-15
  70
    32
  0
VERTEX
  8
0
  5
3E33
 10
818.940
 20
149.286
 30
-8.78355e-15
  70
    32
  0
VERTEX
  8
0
  5
3E34
 10
818.924
 20
149.294
 30
-8.78547e-15
  70
    32
  0
VERTEX
  8
0
  5
3E35
 10
818.907
 20
149.302
 30
-8.78730e-15
  70
    32
  0
VERTEX
  8
0
  5
3E36
 10
818.891
 20
149.310
 30
-8.78903e-15
  70
    32
  0
VERTEX
  8
0
  5
3E37
 10
818.874
 20
149.318
 30
-8.79066e-15
  70
    32
  0
VERTEX
  8
0
  5
3E38
 10
818.857
 20
149.326
 30
-8.79218e-15
  70
    32
  0
VERTEX
  8
0
  5
3E39
 10
818.841
 20
149.334
 30
-8.79359e-15
  70
    32
  0
VERTEX
  8
0
  5
3E3A
 10
818.824
 20
149.342
 30
-8.79487e-15
  70
    32
  0
VERTEX
  8
0
  5
3E3B
 10
818.808
 20
149.351
 30
-8.79602e-15
  70
    32
  0
VERTEX
  8
0
  5
3E3C
 10
818.791
 20
149.359
 30
-8.79704e-15
  70
    32
  0
VERTEX
  8
0
  5
3E3D
 10
818.775
 20
149.367
 30
-8.79792e-15
  70
    32
  0
VERTEX
  8
0
  5
3E3E
 10
818.758
 20
149.375
 30
-8.79865e-15
  70
    32
  0
VERTEX
  8
0
  5
3E3F
 10
818.741
 20
149.383
 30
-8.79923e-15
  70
    32
  0
VERTEX
  8
0
  5
3E40
 10
818.725
 20
149.392
 30
-8.79966e-15
  70
    32
  0
VERTEX
  8
0
  5
3E41
 10
818.708
 20
149.400
 30
-8.79991e-15
  70
    32
  0
VERTEX
  8
0
  5
3E42
 10
818.692
 20
149.408
 30
-8.80000e-15
  70
    32
  0
SEQEND
  8
0
  5
3E43
  0
POLYLINE
  8
0
  5
3E44
  66
     1
 10
0.000000
 20
0.000000
 30
0.000000
  70
     8
  0
VERTEX
  8
0
  5
3E45
 10
961.359
 20
149.408
 30
-8.80000e-15
  70
    32
  0
VERTEX
  8
0
  5
3E46
 10
961.343
 20
149.400
 30
-8.79991e-15
  70
    32
  0
VERTEX
  8
0
  5
3E47
 10
961.326
 20
149.392
 30
-8.79966e-15
  70
    32
  0
VERTEX
  8
0
  5
3E48
 10
961.310
 20
149.383
 30
-8.79923e-15
  70
    32
  0
VERTEX
  8
0
  5
3E49
 10
961.293
 20
149.375
 30
-8.79865e-15
  70
    32
  0
VERTEX
  8
0
  5
3E4A
 10
961.276
 20
149.367
 30
-8.79792e-15
  70
    32
  0
VERTEX
  8
0
  5
3E4B
 10
961.260
 20
149.359
 30
-8.79704e-15
  70
    32
  0
VERTEX
  8
0
  5
3E4C
 10
961.243
 20
149.351
 30
-8.79602e-15
  70
    32
  0
VERTEX
  8
0
  5
3E4D
 10
961.227
 20
149.342
 30
-8.79487e-15
  70
    32
  0
VERTEX
  8
0
  5
3E4E
 10
961.210
 20
149.334
 30
-8.79359e-15
  70
    32
  0
VERTEX
  8
0
  5
3E4F
 10
961.194
 20
149.326
 30
-8.79218e-15
  70
    32
  0
VERTEX
  8
0
  5
3E50
 10
961.177
 20
149.318
 30
-8.79066e-15
  70
    32
  0
VERTEX
  8
0
  5
3E51
 10
961.160
 20
149.310
 30
-8.78903e-15
  70
    32
  0
VERTEX
  8
0
  5
3E52
 10
961.144
 20
149.302
 30
-8.78730e-15
  70
    32
  0
VERTEX
  8
0
  5
3E53
 10
961.127
 20
149.294
 30
-8.78547e-15
  70
    32
  0
VERTEX
  8
0
  5
3E54
 10
961.111
 20
149.286
 30
-8.78355e-15
  70
    32
  0
VERTEX
  8
0
  5
3E55
 10
961.094
 20
149.278
 30
-8.78154e-15
  70
    32
  0
VERTEX
  8
0
  5
3E56
 10
961.077
 20
149.270
 30
-8.77945e-15
  70
    32
  0
VERTEX
  8
0
  5
3E57
 10
961.061
 20
149.263
 30
-8.77729e-15
  70
    32
  0
VERTEX
  8
0
  5
3E58
 10
961.044
 20
149.255
 30
-8.77506e-15
  70
    32
  0
VERTEX
  8
0
  5
3E59
 10
961.028
 20
149.247
 30
-8.77277e-15
  70
    32
  0
VERTEX
  8
0
  5
3E5A
 10
961.011
 20
149.239
 30
-8.77042e-15
  70
    32
  0
VERTEX
  8
0
  5
3E5B
 10
960.995
 20
149.231
 30
-8.76803e-15
  70
    32
  0
VERTEX
  8
0
  5
3E5C
 10
960.978
 20
149.224
 30
-8.76559e-15
  70
    32
  0
VERTEX
  8
0
  5
3E5D
 10
960.961
 20
149.216
 30
-8.76311e-15
  70
    32
  0
VERTEX
  8
0
  5
3E5E
 10
960.945
 20
149.208
 30
-8.76061e-15
  70
    32
  0
VERTEX
  8
0
  5
3E5F
 10
960.928
 20
149.201
 30
-8.75808e-15
  70
    32
  0
VERTEX
  8
0
  5
3E60
 10
960.912
 20
149.193
 30
-8.75552e-15
  70
    32
  0
VERTEX
  8
0
  5
3E61
 10
960.895
 20
149.185
 30
-8.75296e-15
  70
    32
  0
VERTEX
  8
0
  5
3E62
 10
960.879
 20
149.178
 30
-8.75039e-15
  70
    32
  0
VERTEX
  8
0
  5
3E63
 10
960.862
 20
149.170
 30
-8.74782e-15
  70
    32
  0
VERTEX
  8
0
  5
3E64
 10
960.845
 20
149.163
 30
-8.74525e-15
  70
    32
  0
VERTEX
  8
0
  5
3E65
 10
960.829
 20
149.155
 30
-8.74269e-15
  70
    32
  0
VERTEX
  8
0
  5
3E66
 10
960.812
 20
149.148
 30
-8.74015e-15
  70
    32
  0
VERTEX
  8
0
  5
3E67
 10
960.796
 20
149.141
 30
-8.73764e-15
  70
    32
  0
VERTEX
  8
0
  5
3E68
 10
960.779
 20
149.133
 30
-8.73515e-15
  70
    32
  0
VERTEX
  8
0
  5
3E69
 10
960.763
 20
149.126
 30
-8.73270e-15
  70
    32
  0
VERTEX
  8
0
  5
3E6A
 10
960.746
 20
149.119
 30
-8.73029e-15
  70
    32
  0
VERTEX
  8
0
  5
3E6B
 10
960.730
 20
149.111
 30
-8.72793e-15
  70
    32
  0
VERTEX
  8
0
  5
3E6C
 10
960.713
 20
149.104
 30
-8.72562e-15
  70
    32
  0
VERTEX
  8
0
  5
3E6D
 10
960.696
 20
149.097
 30
-8.72338e-15
  70
    32
  0
VERTEX
  8
0
  5
3E6E
 10
960.680
 20
149.090
 30
-8.72119e-15
  70
    32
  0
VERTEX
  8
0
  5
3E6F
 10
960.663
 20
149.082
 30
-8.71908e-15
  70
    32
  0
VERTEX
  8
0
  5
3E70
 10
960.647
 20
149.075
 30
-8.71705e-15
  70
    32
  0
VERTEX
  8
0
  5
3E71
 10
960.630
 20
149.068
 30
-8.71510e-15
  70
    32
  0
VERTEX
  8
0
  5
3E72
 10
960.614
 20
149.061
 30
-8.71324e-15
  70
    32
  0
VERTEX
  8
0
  5
3E73
 10
960.597
 20
149.054
 30
-8.71148e-15
  70
    32
  0
VERTEX
  8
0
  5
3E74
 10
960.581
 20
149.047
 30
-8.70982e-15
  70
    32
  0
VERTEX
  8
0
  5
3E75
 10
960.564
 20
149.040
 30
-8.70826e-15
  70
    32
  0
VERTEX
  8
0
  5
3E76
 10
960.548
 20
149.033
 30
-8.70682e-15
  70
    32
  0
VERTEX
  8
0
  5
3E77
 10
960.531
 20
149.026
 30
-8.70551e-15
  70
    32
  0
VERTEX
  8
0
  5
3E78
 10
960.515
 20
149.020
 30
-8.70431e-15
  70
    32
  0
VERTEX
  8
0
  5
3E79
 10
960.498
 20
149.013
 30
-8.70325e-15
  70
    32
  0
VERTEX
  8
0
  5
3E7A
 10
960.482
 20
149.006
 30
-8.70233e-15
  70
    32
  0
VERTEX
  8
0
  5
3E7B
 10
960.466
 20
148.999
 30
-8.70155e-15
  70
    32
  0
VERTEX
  8
0
  5
3E7C
 10
960.449
 20
148.992
 30
-8.70093e-15
  70
    32
  0
VERTEX
  8
0
  5
3E7D
 10
960.433
 20
148.986
 30
-8.70046e-15
  70
    32
  0
VERTEX
  8
0
  5
3E7E
 10
960.416
 20
148.979
 30
-8.70015e-15
  70
    32
  0
VERTEX
  8
0
  5
3E7F
 10
960.400
 20
148.972
 30
-8.70001e-15
  70
    32
  0
VERTEX
  8
0
  5
3E80
 10
960.383
 20
148.966
 30
-8.69998e-15
  70
    32
  0
VERTEX
  8
0
  5
3E81
 10
960.367
 20
148.959
 30
-8.69987e-15
  70
    32
  0
VERTEX
  8
0
  5
3E82
 10
960.351
 20
148.953
 30
-8.69969e-15
  70
    32
  0
VERTEX
  8
0
  5
3E83
 10
960.334
 20
148.946
 30
-8.69942e-15
  70
    32
  0
VERTEX
  8
0
  5
3E84
 10
960.318
 20
148.940
 30
-8.69907e-15
  70
    32
  0
VERTEX
  8
0
  5
3E85
 10
960.301
 20
148.933
 30
-8.69864e-15
  70
    32
  0
VERTEX
  8
0
  5
3E86
 10
960.285
 20
148.927
 30
-8.69813e-15
  70
    32
  0
VERTEX
  8
0
  5
3E87
 10
960.269
 20
148.921
 30
-8.69756e-15
  70
    32
  0
VERTEX
  8
0
  5
3E88
 10
960.252
 20
148.914
 30
-8.69691e-15
  70
    32
  0
VERTEX
  8
0
  5
3E89
 10
960.236
 20
148.908
 30
-8.69619e-15
  70
    32
  0
VERTEX
  8
0
  5
3E8A
 10
960.220
 20
148.902
 30
-8.69540e-15
  70
    32
  0
VERTEX
  8
0
  5
3E8B
 10
960.203
 20
148.896
 30
-8.69455e-15
  70
    32
  0
VERTEX
  8
0
  5
3E8C
 10
960.187
 20
148.889
 30
-8.69364e-15
  70
    32
  0
VERTEX
  8
0
  5
3E8D
 10
960.171
 20
148.883
 30
-8.69266e-15
  70
    32
  0
VERTEX
  8
0
  5
3E8E
 10
960.154
 20
148.877
 30
-8.69163e-15
  70
    32
  0
VERTEX
  8
0
  5
3E8F
 10
960.138
 20
148.871
 30
-8.69054e-15
  70
    32
  0
VERTEX
  8
0
  5
3E90
 10
960.122
 20
148.865
 30
-8.68939e-15
  70
    32
  0
VERTEX
  8
0
  5
3E91
 10
960.106
 20
148.859
 30
-8.68819e-15
  70
    32
  0
VERTEX
  8
0
  5
3E92
 10
960.089
 20
148.853
 30
-8.68695e-15
  70
    32
  0
VERTEX
  8
0
  5
3E93
 10
960.073
 20
148.847
 30
-8.68565e-15
  70
    32
  0
VERTEX
  8
0
  5
3E94
 10
960.057
 20
148.841
 30
-8.68431e-15
  70
    32
  0
VERTEX
  8
0
  5
3E95
 10
960.041
 20
148.835
 30
-8.68292e-15
  70
    32
  0
VERTEX
  8
0
  5
3E96
 10
960.024
 20
148.830
 30
-8.68150e-15
  70
    32
  0
VERTEX
  8
0
  5
3E97
 10
960.008
 20
148.824
 30
-8.68003e-15
  70
    32
  0
VERTEX
  8
0
  5
3E98
 10
959.992
 20
148.818
 30
-8.67852e-15
  70
    32
  0
VERTEX
  8
0
  5
3E99
 10
959.976
 20
148.812
 30
-8.67698e-15
  70
    32
  0
VERTEX
  8
0
  5
3E9A
 10
959.960
 20
148.807
 30
-8.67541e-15
  70
    32
  0
VERTEX
  8
0
  5
3E9B
 10
959.943
 20
148.801
 30
-8.67381e-15
  70
    32
  0
VERTEX
  8
0
  5
3E9C
 10
959.927
 20
148.796
 30
-8.67217e-15
  70
    32
  0
VERTEX
  8
0
  5
3E9D
 10
959.911
 20
148.790
 30
-8.67051e-15
  70
    32
  0
VERTEX
  8
0
  5
3E9E
 10
959.895
 20
148.784
 30
-8.66883e-15
  70
    32
  0
VERTEX
  8
0
  5
3E9F
 10
959.879
 20
148.779
 30
-8.66712e-15
  70
    32
  0
VERTEX
  8
0
  5
3EA0
 10
959.863
 20
148.774
 30
-8.66539e-15
  70
    32
  0
VERTEX
  8
0
  5
3EA1
 10
959.847
 20
148.768
 30
-8.66365e-15
  70
    32
  0
VERTEX
  8
0
  5
3EA2
 10
959.831
 20
148.763
 30
-8.66189e-15
  70
    32
  0
VERTEX
  8
0
  5
3EA3
 10
959.815
 20
148.757
 30
-8.66011e-15
  70
    32
  0
VERTEX
  8
0
  5
3EA4
 10
959.799
 20
148.752
 30
-8.65832e-15
  70
    32
  0
VERTEX
  8
0
  5
3EA5
 10
959.783
 20
148.747
 30
-8.65652e-15
  70
    32
  0
VERTEX
  8
0
  5
3EA6
 10
959.767
 20
148.742
 30
-8.65472e-15
  70
    32
  0
VERTEX
  8
0
  5
3EA7
 10
959.751
 20
148.736
 30
-8.65291e-15
  70
    32
  0
VERTEX
  8
0
  5
3EA8
 10
959.735
 20
148.731
 30
-8.65109e-15
  70
    32
  0
VERTEX
  8
0
  5
3EA9
 10
959.719
 20
148.726
 30
-8.64928e-15
  70
    32
  0
VERTEX
  8
0
  5
3EAA
 10
959.703
 20
148.721
 30
-8.64746e-15
  70
    32
  0
VERTEX
  8
0
  5
3EAB
 10
959.687
 20
148.716
 30
-8.64565e-15
  70
    32
  0
VERTEX
  8
0
  5
3EAC
 10
959.671
 20
148.711
 30
-8.64384e-15
  70
    32
  0
VERTEX
  8
0
  5
3EAD
 10
959.655
 20
148.706
 30
-8.64204e-15
  70
    32
  0
VERTEX
  8
0
  5
3EAE
 10
959.639
 20
148.701
 30
-8.64025e-15
  70
    32
  0
VERTEX
  8
0
  5
3EAF
 10
959.623
 20
148.696
 30
-8.63847e-15
  70
    32
  0
VERTEX
  8
0
  5
3EB0
 10
959.607
 20
148.691
 30
-8.63671e-15
  70
    32
  0
VERTEX
  8
0
  5
3EB1
 10
959.591
 20
148.687
 30
-8.63496e-15
  70
    32
  0
VERTEX
  8
0
  5
3EB2
 10
959.575
 20
148.682
 30
-8.63323e-15
  70
    32
  0
VERTEX
  8
0
  5
3EB3
 10
959.560
 20
148.677
 30
-8.63152e-15
  70
    32
  0
VERTEX
  8
0
  5
3EB4
 10
959.544
 20
148.672
 30
-8.62983e-15
  70
    32
  0
VERTEX
  8
0
  5
3EB5
 10
959.528
 20
148.668
 30
-8.62816e-15
  70
    32
  0
VERTEX
  8
0
  5
3EB6
 10
959.512
 20
148.663
 30
-8.62652e-15
  70
    32
  0
VERTEX
  8
0
  5
3EB7
 10
959.496
 20
148.659
 30
-8.62491e-15
  70
    32
  0
VERTEX
  8
0
  5
3EB8
 10
959.481
 20
148.654
 30
-8.62333e-15
  70
    32
  0
VERTEX
  8
0
  5
3EB9
 10
959.465
 20
148.650
 30
-8.62179e-15
  70
    32
  0
VERTEX
  8
0
  5
3EBA
 10
959.449
 20
148.645
 30
-8.62027e-15
  70
    32
  0
VERTEX
  8
0
  5
3EBB
 10
959.434
 20
148.641
 30
-8.61880e-15
  70
    32
  0
VERTEX
  8
0
  5
3EBC
 10
959.418
 20
148.636
 30
-8.61736e-15
  70
    32
  0
VERTEX
  8
0
  5
3EBD
 10
959.402
 20
148.632
 30
-8.61597e-15
  70
    32
  0
VERTEX
  8
0
  5
3EBE
 10
959.387
 20
148.628
 30
-8.61462e-15
  70
    32
  0
VERTEX
  8
0
  5
3EBF
 10
959.371
 20
148.624
 30
-8.61331e-15
  70
    32
  0
VERTEX
  8
0
  5
3EC0
 10
959.355
 20
148.619
 30
-8.61205e-15
  70
    32
  0
VERTEX
  8
0
  5
3EC1
 10
959.340
 20
148.615
 30
-8.61085e-15
  70
    32
  0
VERTEX
  8
0
  5
3EC2
 10
959.324
 20
148.611
 30
-8.60969e-15
  70
    32
  0
VERTEX
  8
0
  5
3EC3
 10
959.309
 20
148.607
 30
-8.60859e-15
  70
    32
  0
VERTEX
  8
0
  5
3EC4
 10
959.293
 20
148.603
 30
-8.60754e-15
  70
    32
  0
VERTEX
  8
0
  5
3EC5
 10
959.278
 20
148.599
 30
-8.60656e-15
  70
    32
  0
VERTEX
  8
0
  5
3EC6
 10
959.262
 20
148.595
 30
-8.60563e-15
  70
    32
  0
VERTEX
  8
0
  5
3EC7
 10
959.247
 20
148.591
 30
-8.60477e-15
  70
    32
  0
VERTEX
  8
0
  5
3EC8
 10
959.231
 20
148.587
 30
-8.60397e-15
  70
    32
  0
VERTEX
  8
0
  5
3EC9
 10
959.216
 20
148.583
 30
-8.60323e-15
  70
    32
  0
VERTEX
  8
0
  5
3ECA
 10
959.200
 20
148.579
 30
-8.60257e-15
  70
    32
  0
VERTEX
  8
0
  5
3ECB
 10
959.185
 20
148.576
 30
-8.60198e-15
  70
    32
  0
VERTEX
  8
0
  5
3ECC
 10
959.170
 20
148.572
 30
-8.60146e-15
  70
    32
  0
VERTEX
  8
0
  5
3ECD
 10
959.154
 20
148.568
 30
-8.60101e-15
  70
    32
  0
VERTEX
  8
0
  5
3ECE
 10
959.139
 20
148.565
 30
-8.60065e-15
  70
    32
  0
VERTEX
  8
0
  5
3ECF
 10
959.124
 20
148.561
 30
-8.60036e-15
  70
    32
  0
VERTEX
  8
0
  5
3ED0
 10
959.108
 20
148.558
 30
-8.60016e-15
  70
    32
  0
VERTEX
  8
0
  5
3ED1
 10
959.093
 20
148.554
 30
-8.60004e-15
  70
    32
  0
VERTEX
  8
0
  5
3ED2
 10
959.078
 20
148.551
 30
-8.60000e-15
  70
    32
  0
VERTEX
  8
0
  5
3ED3
 10
959.063
 20
148.547
 30
-8.60000e-15
  70
    32
  0
VERTEX
  8
0
  5
3ED4
 10
959.047
 20
148.544
 30
-8.60000e-15
  70
    32
  0
VERTEX
  8
0
  5
3ED5
 10
959.032
 20
148.540
 30
-8.60000e-15
  70
    32
  0
VERTEX
  8
0
  5
3ED6
 10
959.017
 20
148.537
 30
-8.60000e-15
  70
    32
  0
VERTEX
  8
0
  5
3ED7
 10
959.002
 20
148.534
 30
-8.60000e-15
  70
    32
  0
VERTEX
  8
0
  5
3ED8
 10
958.987
 20
148.531
 30
-8.60000e-15
  70
    32
  0
VERTEX
  8
0
  5
3ED9
 10
958.972
 20
148.527
 30
-8.60000e-15
  70
    32
  0
VERTEX
  8
0
  5
3EDA
 10
958.957
 20
148.524
 30
-8.60000e-15
  70
    32
  0
VERTEX
  8
0
  5
3EDB
 10
958.942
 20
148.521
 30
-8.60000e-15
  70
    32
  0
VERTEX
  8
0
  5
3EDC
 10
958.927
 20
148.518
 30
-8.60000e-15
  70
    32
  0
VERTEX
  8
0
  5
3EDD
 10
958.912
 20
148.515
 30
-8.60000e-15
  70
    32
  0
VERTEX
  8
0
  5
3EDE
 10
958.897
 20
148.512
 30
-8.60000e-15
  70
    32
  0
VERTEX
  8
0
  5
3EDF
 10
958.882
 20
148.509
 30
-8.60000e-15
  70
    32
  0
VERTEX
  8
0
  5
3EE0
 10
958.867
 20
148.506
 30
-8.60000e-15
  70
    32
  0
VERTEX
  8
0
  5
3EE1
 10
958.852
 20
148.503
 30
-8.60000e-15
  70
    32
  0
VERTEX
  8
0
  5
3EE2
 10
958.837
 20
148.501
 30
-8.60000e-15
  70
    32
  0
VERTEX
  8
0
  5
3EE3
 10
958.822
 20
148.498
 30
-8.60000e-15
  70
    32
  0
VERTEX
  8
0
  5
3EE4
 10
958.807
 20
148.495
 30
-8.60000e-15
  70
    32
  0
VERTEX
  8
0
  5
3EE5
 10
958.792
 20
148.493
 30
-8.60000e-15
  70
    32
  0
VERTEX
  8
0
  5
3EE6
 10
958.778
 20
148.490
 30
-8.60000e-15
  70
    32
  0
VERTEX
  8
0
  5
3EE7
 10
958.763
 20
148.487
 30
-8.60000e-15
  70
    32
  0
VERTEX
  8
0
  5
3EE8
 10
958.748
 20
148.485
 30
-8.60000e-15
  70
    32
  0
VERTEX
  8
0
  5
3EE9
 10
958.733
 20
148.482
 30
-8.60000e-15
  70
    32
  0
VERTEX
  8
0
  5
3EEA
 10
958.719
 20
148.480
 30
-8.60000e-15
  70
    32
  0
VERTEX
  8
0
  5
3EEB
 10
958.704
 20
148.477
 30
-8.60000e-15
  70
    32
  0
VERTEX
  8
0
  5
3EEC
 10
958.689
 20
148.475
 30
-8.60000e-15
  70
    32
  0
VERTEX
  8
0
  5
3EED
 10
958.675
 20
148.473
 30
-8.60000e-15
  70
    32
  0
VERTEX
  8
0
  5
3EEE
 10
958.660
 20
148.470
 30
-8.60000e-15
  70
    32
  0
VERTEX
  8
0
  5
3EEF
 10
958.646
 20
148.468
 30
-8.60000e-15
  70
    32
  0
VERTEX
  8
0
  5
3EF0
 10
958.631
 20
148.466
 30
-8.60000e-15
  70
    32
  0
VERTEX
  8
0
  5
3EF1
 10
958.617
 20
148.464
 30
-8.60000e-15
  70
    32
  0
VERTEX
  8
0
  5
3EF2
 10
958.602
 20
148.462
 30
-8.60000e-15
  70
    32
  0
VERTEX
  8
0
  5
3EF3
 10
958.588
 20
148.459
 30
-8.60000e-15
  70
    32
  0
VERTEX
  8
0
  5
3EF4
 10
958.573
 20
148.457
 30
-8.60000e-15
  70
    32
  0
VERTEX
  8
0
  5
3EF5
 10
958.559
 20
148.455
 30
-8.60000e-15
  70
    32
  0
VERTEX
  8
0
  5
3EF6
 10
958.544
 20
148.453
 30
-8.60000e-15
  70
    32
  0
VERTEX
  8
0
  5
3EF7
 10
958.530
 20
148.452
 30
-8.60000e-15
  70
    32
  0
VERTEX
  8
0
  5
3EF8
 10
958.516
 20
148.450
 30
-8.60000e-15
  70
    32
  0
VERTEX
  8
0
  5
3EF9
 10
958.501
 20
148.448
 30
-8.60000e-15
  70
    32
  0
VERTEX
  8
0
  5
3EFA
 10
958.487
 20
148.446
 30
-8.60000e-15
  70
    32
  0
VERTEX
  8
0
  5
3EFB
 10
958.473
 20
148.444
 30
-8.60000e-15
  70
    32
  0
VERTEX
  8
0
  5
3EFC
 10
958.459
 20
148.443
 30
-8.60000e-15
  70
    32
  0
VERTEX
  8
0
  5
3EFD
 10
958.445
 20
148.441
 30
-8.60000e-15
  70
    32
  0
VERTEX
  8
0
  5
3EFE
 10
958.430
 20
148.439
 30
-8.60000e-15
  70
    32
  0
VERTEX
  8
0
  5
3EFF
 10
958.416
 20
148.438
 30
-8.60000e-15
  70
    32
  0
VERTEX
  8
0
  5
3F00
 10
958.402
 20
148.436
 30
-8.60000e-15
  70
    32
  0
VERTEX
  8
0
  5
3F01
 10
958.388
 20
148.435
 30
-8.60000e-15
  70
    32
  0
VERTEX
  8
0
  5
3F02
 10
958.374
 20
148.433
 30
-8.60000e-15
  70
    32
  0
VERTEX
  8
0
  5
3F03
 10
958.360
 20
148.432
 30
-8.60000e-15
  70
    32
  0
VERTEX
  8
0
  5
3F04
 10
958.346
 20
148.430
 30
-8.60000e-15
  70
    32
  0
VERTEX
  8
0
  5
3F05
 10
958.332
 20
148.429
 30
-8.60000e-15
  70
    32
  0
VERTEX
  8
0
  5
3F06
 10
958.318
 20
148.428
 30
-8.60000e-15
  70
    32
  0
VERTEX
  8
0
  5
3F07
 10
958.304
 20
148.427
 30
-8.60000e-15
  70
    32
  0
VERTEX
  8
0
  5
3F08
 10
958.290
 20
148.425
 30
-8.60000e-15
  70
    32
  0
VERTEX
  8
0
  5
3F09
 10
958.277
 20
148.424
 30
-8.60000e-15
  70
    32
  0
VERTEX
  8
0
  5
3F0A
 10
958.263
 20
148.423
 30
-8.60000e-15
  70
    32
  0
VERTEX
  8
0
  5
3F0B
 10
958.249
 20
148.422
 30
-8.60000e-15
  70
    32
  0
VERTEX
  8
0
  5
3F0C
 10
958.235
 20
148.421
 30
-8.60000e-15
  70
    32
  0
VERTEX
  8
0
  5
3F0D
 10
958.221
 20
148.420
 30
-8.60000e-15
  70
    32
  0
VERTEX
  8
0
  5
3F0E
 10
958.208
 20
148.419
 30
-8.60000e-15
  70
    32
  0
VERTEX
  8
0
  5
3F0F
 10
958.194
 20
148.418
 30
-8.60000e-15
  70
    32
  0
VERTEX
  8
0
  5
3F10
 10
958.180
 20
148.417
 30
-8.60000e-15
  70
    32
  0
VERTEX
  8
0
  5
3F11
 10
958.167
 20
148.416
 30
-8.60000e-15
  70
    32
  0
VERTEX
  8
0
  5
3F12
 10
958.153
 20
148.415
 30
-8.60000e-15
  70
    32
  0
VERTEX
  8
0
  5
3F13
 10
958.140
 20
148.415
 30
-8.60000e-15
  70
    32
  0
VERTEX
  8
0
  5
3F14
 10
958.126
 20
148.414
 30
-8.60000e-15
  70
    32
  0
VERTEX
  8
0
  5
3F15
 10
958.113
 20
148.413
 30
-8.60000e-15
  70
    32
  0
VERTEX
  8
0
  5
3F16
 10
958.099
 20
148.413
 30
-8.60000e-15
  70
    32
  0
VERTEX
  8
0
  5
3F17
 10
958.086
 20
148.412
 30
-8.60000e-15
  70
    32
  0
VERTEX
  8
0
  5
3F18
 10
958.072
 20
148.412
 30
-8.60000e-15
  70
    32
  0
VERTEX
  8
0
  5
3F19
 10
958.059
 20
148.411
 30
-8.60000e-15
  70
    32
  0
VERTEX
  8
0
  5
3F1A
 10
958.046
 20
148.411
 30
-8.60000e-15
  70
    32
  0
VERTEX
  8
0
  5
3F1B
 10
958.032
 20
148.410
 30
-8.60000e-15
  70
    32
  0
VERTEX
  8
0
  5
3F1C
 10
958.019
 20
148.410
 30
-8.60000e-15
  70
    32
  0
VERTEX
  8
0
  5
3F1D
 10
958.006
 20
148.410
 30
-8.60000e-15
  70
    32
  0
VERTEX
  8
0
  5
3F1E
 10
957.993
 20
148.409
 30
-8.60000e-15
  70
    32
  0
VERTEX
  8
0
  5
3F1F
 10
957.980
 20
148.409
 30
-8.60000e-15
  70
    32
  0
VERTEX
  8
0
  5
3F20
 10
957.966
 20
148.409
 30
-8.60000e-15
  70
    32
  0
VERTEX
  8
0
  5
3F21
 10
957.953
 20
148.409
 30
-8.60000e-15
  70
    32
  0
VERTEX
  8
0
  5
3F22
 10
957.940
 20
148.408
 30
-8.60000e-15
  70
    32
  0
VERTEX
  8
0
  5
3F23
 10
957.927
 20
148.408
 30
-8.60000e-15
  70
    32
  0
VERTEX
  8
0
  5
3F24
 10
957.914
 20
148.408
 30
-8.60000e-15
  70
    32
  0
VERTEX
  8
0
  5
3F25
 10
957.901
 20
148.408
 30
-8.60000e-15
  70
    32
  0
VERTEX
  8
0
  5
3F26
 10
957.888
 20
148.408
 30
-8.60000e-15
  70
    32
  0
VERTEX
  8
0
  5
3F27
 10
957.875
 20
148.408
 30
-8.60000e-15
  70
    32
  0
VERTEX
  8
0
  5
3F28
 10
957.862
 20
148.409
 30
-8.60000e-15
  70
    32
  0
VERTEX
  8
0
  5
3F29
 10
957.850
 20
148.409
 30
-8.60000e-15
  70
    32
  0
VERTEX
  8
0
  5
3F2A
 10
957.837
 20
148.409
 30
-8.60000e-15
  70
    32
  0
VERTEX
  8
0
  5
3F2B
 10
957.824
 20
148.409
 30
-8.60000e-15
  70
    32
  0
VERTEX
  8
0
  5
3F2C
 10
957.811
 20
148.410
 30
-8.60000e-15
  70
    32
  0
VERTEX
  8
0
  5
3F2D
 10
957.798
 20
148.410
 30
-8.60000e-15
  70
    32
  0
VERTEX
  8
0
  5
3F2E
 10
957.785
 20
148.410
 30
-8.60000e-15
  70
    32
  0
VERTEX
  8
0
  5
3F2F
 10
957.773
 20
148.411
 30
-8.60000e-15
  70
    32
  0
VERTEX
  8
0
  5
3F30
 10
957.760
 20
148.411
 30
-8.60000e-15
  70
    32
  0
VERTEX
  8
0
  5
3F31
 10
957.747
 20
148.412
 30
-8.60000e-15
  70
    32
  0
VERTEX
  8
0
  5
3F32
 10
957.735
 20
148.412
 30
-8.60000e-15
  70
    32
  0
VERTEX
  8
0
  5
3F33
 10
957.722
 20
148.413
 30
-8.60000e-15
  70
    32
  0
VERTEX
  8
0
  5
3F34
 10
957.709
 20
148.413
 30
-8.60000e-15
  70
    32
  0
VERTEX
  8
0
  5
3F35
 10
957.697
 20
148.414
 30
-8.60000e-15
  70
    32
  0
VERTEX
  8
0
  5
3F36
 10
957.684
 20
148.415
 30
-8.60000e-15
  70
    32
  0
VERTEX
  8
0
  5
3F37
 10
957.671
 20
148.415
 30
-8.60000e-15
  70
    32
  0
VERTEX
  8
0
  5
3F38
 10
957.659
 20
148.416
 30
-8.60000e-15
  70
    32
  0
VERTEX
  8
0
  5
3F39
 10
957.646
 20
148.417
 30
-8.60000e-15
  70
    32
  0
VERTEX
  8
0
  5
3F3A
 10
957.634
 20
148.418
 30
-8.60000e-15
  70
    32
  0
VERTEX
  8
0
  5
3F3B
 10
957.621
 20
148.419
 30
-8.60000e-15
  70
    32
  0
VERTEX
  8
0
  5
3F3C
 10
957.609
 20
148.420
 30
-8.60000e-15
  70
    32
  0
VERTEX
  8
0
  5
3F3D
 10
957.597
 20
148.421
 30
-8.60000e-15
  70
    32
  0
VERTEX
  8
0
  5
3F3E
 10
957.584
 20
148.422
 30
-8.60000e-15
  70
    32
  0
VERTEX
  8
0
  5
3F3F
 10
957.572
 20
148.423
 30
-8.60000e-15
  70
    32
  0
VERTEX
  8
0
  5
3F40
 10
957.559
 20
148.424
 30
-8.60000e-15
  70
    32
  0
VERTEX
  8
0
  5
3F41
 10
957.547
 20
148.425
 30
-8.60000e-15
  70
    32
  0
VERTEX
  8
0
  5
3F42
 10
957.535
 20
148.427
 30
-8.60000e-15
  70
    32
  0
VERTEX
  8
0
  5
3F43
 10
957.522
 20
148.428
 30
-8.60000e-15
  70
    32
  0
VERTEX
  8
0
  5
3F44
 10
957.510
 20
148.429
 30
-8.60000e-15
  70
    32
  0
VERTEX
  8
0
  5
3F45
 10
957.498
 20
148.430
 30
-8.60000e-15
  70
    32
  0
VERTEX
  8
0
  5
3F46
 10
957.486
 20
148.432
 30
-8.60000e-15
  70
    32
  0
VERTEX
  8
0
  5
3F47
 10
957.474
 20
148.433
 30
-8.60000e-15
  70
    32
  0
VERTEX
  8
0
  5
3F48
 10
957.461
 20
148.435
 30
-8.60000e-15
  70
    32
  0
VERTEX
  8
0
  5
3F49
 10
957.449
 20
148.436
 30
-8.60000e-15
  70
    32
  0
VERTEX
  8
0
  5
3F4A
 10
957.437
 20
148.438
 30
-8.60000e-15
  70
    32
  0
VERTEX
  8
0
  5
3F4B
 10
957.425
 20
148.439
 30
-8.60000e-15
  70
    32
  0
VERTEX
  8
0
  5
3F4C
 10
957.413
 20
148.441
 30
-8.60000e-15
  70
    32
  0
VERTEX
  8
0
  5
3F4D
 10
957.401
 20
148.443
 30
-8.60000e-15
  70
    32
  0
VERTEX
  8
0
  5
3F4E
 10
957.389
 20
148.444
 30
-8.60000e-15
  70
    32
  0
VERTEX
  8
0
  5
3F4F
 10
957.377
 20
148.446
 30
-8.60000e-15
  70
    32
  0
VERTEX
  8
0
  5
3F50
 10
957.365
 20
148.448
 30
-8.60000e-15
  70
    32
  0
VERTEX
  8
0
  5
3F51
 10
957.353
 20
148.450
 30
-8.60000e-15
  70
    32
  0
VERTEX
  8
0
  5
3F52
 10
957.341
 20
148.452
 30
-8.60000e-15
  70
    32
  0
VERTEX
  8
0
  5
3F53
 10
957.329
 20
148.453
 30
-8.60000e-15
  70
    32
  0
VERTEX
  8
0
  5
3F54
 10
957.318
 20
148.455
 30
-8.60000e-15
  70
    32
  0
VERTEX
  8
0
  5
3F55
 10
957.306
 20
148.457
 30
-8.60000e-15
  70
    32
  0
VERTEX
  8
0
  5
3F56
 10
957.294
 20
148.459
 30
-8.60000e-15
  70
    32
  0
VERTEX
  8
0
  5
3F57
 10
957.282
 20
148.462
 30
-8.60000e-15
  70
    32
  0
VERTEX
  8
0
  5
3F58
 10
957.270
 20
148.464
 30
-8.60000e-15
  70
    32
  0
VERTEX
  8
0
  5
3F59
 10
957.259
 20
148.466
 30
-8.60000e-15
  70
    32
  0
VERTEX
  8
0
  5
3F5A
 10
957.247
 20
148.468
 30
-8.60000e-15
  70
    32
  0
VERTEX
  8
0
  5
3F5B
 10
957.235
 20
148.470
 30
-8.60000e-15
  70
    32
  0
VERTEX
  8
0
  5
3F5C
 10
957.224
 20
148.473
 30
-8.60000e-15
  70
    32
  0
VERTEX
  8
0
  5
3F5D
 10
957.212
 20
148.475
 30
-8.60000e-15
  70
    32
  0
VERTEX
  8
0
  5
3F5E
 10
957.201
 20
148.477
 30
-8.60000e-15
  70
    32
  0
VERTEX
  8
0
  5
3F5F
 10
957.189
 20
148.480
 30
-8.60000e-15
  70
    32
  0
VERTEX
  8
0
  5
3F60
 10
957.178
 20
148.482
 30
-8.60000e-15
  70
    32
  0
VERTEX
  8
0
  5
3F61
 10
957.166
 20
148.485
 30
-8.60000e-15
  70
    32
  0
VERTEX
  8
0
  5
3F62
 10
957.155
 20
148.487
 30
-8.60000e-15
  70
    32
  0
VERTEX
  8
0
  5
3F63
 10
957.143
 20
148.490
 30
-8.60000e-15
  70
    32
  0
VERTEX
  8
0
  5
3F64
 10
957.132
 20
148.493
 30
-8.60000e-15
  70
    32
  0
VERTEX
  8
0
  5
3F65
 10
957.121
 20
148.495
 30
-8.60000e-15
  70
    32
  0
VERTEX
  8
0
  5
3F66
 10
957.109
 20
148.498
 30
-8.60000e-15
  70
    32
  0
VERTEX
  8
0
  5
3F67
 10
957.098
 20
148.501
 30
-8.60000e-15
  70
    32
  0
VERTEX
  8
0
  5
3F68
 10
957.087
 20
148.503
 30
-8.60000e-15
  70
    32
  0
VERTEX
  8
0
  5
3F69
 10
957.076
 20
148.506
 30
-8.60000e-15
  70
    32
  0
VERTEX
  8
0
  5
3F6A
 10
957.064
 20
148.509
 30
-8.60000e-15
  70
    32
  0
VERTEX
  8
0
  5
3F6B
 10
957.053
 20
148.512
 30
-8.60000e-15
  70
    32
  0
VERTEX
  8
0
  5
3F6C
 10
957.042
 20
148.515
 30
-8.60000e-15
  70
    32
  0
VERTEX
  8
0
  5
3F6D
 10
957.031
 20
148.518
 30
-8.60000e-15
  70
    32
  0
VERTEX
  8
0
  5
3F6E
 10
957.020
 20
148.521
 30
-8.60000e-15
  70
    32
  0
VERTEX
  8
0
  5
3F6F
 10
957.009
 20
148.524
 30
-8.60000e-15
  70
    32
  0
VERTEX
  8
0
  5
3F70
 10
956.998
 20
148.527
 30
-8.60000e-15
  70
    32
  0
VERTEX
  8
0
  5
3F71
 10
956.987
 20
148.531
 30
-8.60000e-15
  70
    32
  0
VERTEX
  8
0
  5
3F72
 10
956.976
 20
148.534
 30
-8.60000e-15
  70
    32
  0
VERTEX
  8
0
  5
3F73
 10
956.965
 20
148.537
 30
-8.60000e-15
  70
    32
  0
VERTEX
  8
0
  5
3F74
 10
956.954
 20
148.540
 30
-8.60000e-15
  70
    32
  0
VERTEX
  8
0
  5
3F75
 10
956.943
 20
148.544
 30
-8.60000e-15
  70
    32
  0
VERTEX
  8
0
  5
3F76
 10
956.932
 20
148.547
 30
-8.60000e-15
  70
    32
  0
VERTEX
  8
0
  5
3F77
 10
956.922
 20
148.551
 30
-8.60000e-15
  70
    32
  0
VERTEX
  8
0
  5
3F78
 10
956.911
 20
148.554
 30
-8.60004e-15
  70
    32
  0
VERTEX
  8
0
  5
3F79
 10
956.900
 20
148.558
 30
-8.60016e-15
  70
    32
  0
VERTEX
  8
0
  5
3F7A
 10
956.890
 20
148.561
 30
-8.60036e-15
  70
    32
  0
VERTEX
  8
0
  5
3F7B
 10
956.879
 20
148.565
 30
-8.60065e-15
  70
    32
  0
VERTEX
  8
0
  5
3F7C
 10
956.868
 20
148.568
 30
-8.60101e-15
  70
    32
  0
VERTEX
  8
0
  5
3F7D
 10
956.858
 20
148.572
 30
-8.60146e-15
  70
    32
  0
VERTEX
  8
0
  5
3F7E
 10
956.847
 20
148.576
 30
-8.60198e-15
  70
    32
  0
VERTEX
  8
0
  5
3F7F
 10
956.837
 20
148.579
 30
-8.60257e-15
  70
    32
  0
VERTEX
  8
0
  5
3F80
 10
956.826
 20
148.583
 30
-8.60323e-15
  70
    32
  0
VERTEX
  8
0
  5
3F81
 10
956.816
 20
148.587
 30
-8.60397e-15
  70
    32
  0
VERTEX
  8
0
  5
3F82
 10
956.805
 20
148.591
 30
-8.60477e-15
  70
    32
  0
VERTEX
  8
0
  5
3F83
 10
956.795
 20
148.595
 30
-8.60563e-15
  70
    32
  0
VERTEX
  8
0
  5
3F84
 10
956.785
 20
148.599
 30
-8.60656e-15
  70
    32
  0
VERTEX
  8
0
  5
3F85
 10
956.774
 20
148.603
 30
-8.60754e-15
  70
    32
  0
VERTEX
  8
0
  5
3F86
 10
956.764
 20
148.607
 30
-8.60859e-15
  70
    32
  0
VERTEX
  8
0
  5
3F87
 10
956.754
 20
148.611
 30
-8.60969e-15
  70
    32
  0
VERTEX
  8
0
  5
3F88
 10
956.743
 20
148.615
 30
-8.61085e-15
  70
    32
  0
VERTEX
  8
0
  5
3F89
 10
956.733
 20
148.619
 30
-8.61205e-15
  70
    32
  0
VERTEX
  8
0
  5
3F8A
 10
956.723
 20
148.624
 30
-8.61331e-15
  70
    32
  0
VERTEX
  8
0
  5
3F8B
 10
956.713
 20
148.628
 30
-8.61462e-15
  70
    32
  0
VERTEX
  8
0
  5
3F8C
 10
956.703
 20
148.632
 30
-8.61597e-15
  70
    32
  0
VERTEX
  8
0
  5
3F8D
 10
956.693
 20
148.636
 30
-8.61736e-15
  70
    32
  0
VERTEX
  8
0
  5
3F8E
 10
956.683
 20
148.641
 30
-8.61880e-15
  70
    32
  0
VERTEX
  8
0
  5
3F8F
 10
956.673
 20
148.645
 30
-8.62027e-15
  70
    32
  0
VERTEX
  8
0
  5
3F90
 10
956.663
 20
148.650
 30
-8.62179e-15
  70
    32
  0
VERTEX
  8
0
  5
3F91
 10
956.653
 20
148.654
 30
-8.62333e-15
  70
    32
  0
VERTEX
  8
0
  5
3F92
 10
956.643
 20
148.659
 30
-8.62491e-15
  70
    32
  0
VERTEX
  8
0
  5
3F93
 10
956.633
 20
148.663
 30
-8.62652e-15
  70
    32
  0
VERTEX
  8
0
  5
3F94
 10
956.624
 20
148.668
 30
-8.62816e-15
  70
    32
  0
VERTEX
  8
0
  5
3F95
 10
956.614
 20
148.672
 30
-8.62983e-15
  70
    32
  0
VERTEX
  8
0
  5
3F96
 10
956.604
 20
148.677
 30
-8.63152e-15
  70
    32
  0
VERTEX
  8
0
  5
3F97
 10
956.594
 20
148.682
 30
-8.63323e-15
  70
    32
  0
VERTEX
  8
0
  5
3F98
 10
956.585
 20
148.687
 30
-8.63496e-15
  70
    32
  0
VERTEX
  8
0
  5
3F99
 10
956.575
 20
148.691
 30
-8.63671e-15
  70
    32
  0
VERTEX
  8
0
  5
3F9A
 10
956.565
 20
148.696
 30
-8.63847e-15
  70
    32
  0
VERTEX
  8
0
  5
3F9B
 10
956.556
 20
148.701
 30
-8.64025e-15
  70
    32
  0
VERTEX
  8
0
  5
3F9C
 10
956.546
 20
148.706
 30
-8.64204e-15
  70
    32
  0
VERTEX
  8
0
  5
3F9D
 10
956.537
 20
148.711
 30
-8.64384e-15
  70
    32
  0
VERTEX
  8
0
  5
3F9E
 10
956.527
 20
148.716
 30
-8.64565e-15
  70
    32
  0
VERTEX
  8
0
  5
3F9F
 10
956.518
 20
148.721
 30
-8.64746e-15
  70
    32
  0
VERTEX
  8
0
  5
3FA0
 10
956.509
 20
148.726
 30
-8.64928e-15
  70
    32
  0
VERTEX
  8
0
  5
3FA1
 10
956.499
 20
148.731
 30
-8.65109e-15
  70
    32
  0
VERTEX
  8
0
  5
3FA2
 10
956.490
 20
148.736
 30
-8.65291e-15
  70
    32
  0
VERTEX
  8
0
  5
3FA3
 10
956.481
 20
148.742
 30
-8.65472e-15
  70
    32
  0
VERTEX
  8
0
  5
3FA4
 10
956.471
 20
148.747
 30
-8.65652e-15
  70
    32
  0
VERTEX
  8
0
  5
3FA5
 10
956.462
 20
148.752
 30
-8.65832e-15
  70
    32
  0
VERTEX
  8
0
  5
3FA6
 10
956.453
 20
148.757
 30
-8.66011e-15
  70
    32
  0
VERTEX
  8
0
  5
3FA7
 10
956.444
 20
148.763
 30
-8.66189e-15
  70
    32
  0
VERTEX
  8
0
  5
3FA8
 10
956.435
 20
148.768
 30
-8.66365e-15
  70
    32
  0
VERTEX
  8
0
  5
3FA9
 10
956.426
 20
148.774
 30
-8.66539e-15
  70
    32
  0
VERTEX
  8
0
  5
3FAA
 10
956.417
 20
148.779
 30
-8.66712e-15
  70
    32
  0
VERTEX
  8
0
  5
3FAB
 10
956.408
 20
148.784
 30
-8.66883e-15
  70
    32
  0
VERTEX
  8
0
  5
3FAC
 10
956.399
 20
148.790
 30
-8.67051e-15
  70
    32
  0
VERTEX
  8
0
  5
3FAD
 10
956.390
 20
148.796
 30
-8.67217e-15
  70
    32
  0
VERTEX
  8
0
  5
3FAE
 10
956.381
 20
148.801
 30
-8.67381e-15
  70
    32
  0
VERTEX
  8
0
  5
3FAF
 10
956.372
 20
148.807
 30
-8.67541e-15
  70
    32
  0
VERTEX
  8
0
  5
3FB0
 10
956.363
 20
148.812
 30
-8.67698e-15
  70
    32
  0
VERTEX
  8
0
  5
3FB1
 10
956.354
 20
148.818
 30
-8.67852e-15
  70
    32
  0
VERTEX
  8
0
  5
3FB2
 10
956.346
 20
148.824
 30
-8.68003e-15
  70
    32
  0
VERTEX
  8
0
  5
3FB3
 10
956.337
 20
148.830
 30
-8.68150e-15
  70
    32
  0
VERTEX
  8
0
  5
3FB4
 10
956.328
 20
148.835
 30
-8.68292e-15
  70
    32
  0
VERTEX
  8
0
  5
3FB5
 10
956.320
 20
148.841
 30
-8.68431e-15
  70
    32
  0
VERTEX
  8
0
  5
3FB6
 10
956.311
 20
148.847
 30
-8.68565e-15
  70
    32
  0
VERTEX
  8
0
  5
3FB7
 10
956.303
 20
148.853
 30
-8.68695e-15
  70
    32
  0
VERTEX
  8
0
  5
3FB8
 10
956.294
 20
148.859
 30
-8.68819e-15
  70
    32
  0
VERTEX
  8
0
  5
3FB9
 10
956.286
 20
148.865
 30
-8.68939e-15
  70
    32
  0
VERTEX
  8
0
  5
3FBA
 10
956.277
 20
148.871
 30
-8.69054e-15
  70
    32
  0
VERTEX
  8
0
  5
3FBB
 10
956.269
 20
148.877
 30
-8.69163e-15
  70
    32
  0
VERTEX
  8
0
  5
3FBC
 10
956.260
 20
148.883
 30
-8.69266e-15
  70
    32
  0
VERTEX
  8
0
  5
3FBD
 10
956.252
 20
148.889
 30
-8.69364e-15
  70
    32
  0
VERTEX
  8
0
  5
3FBE
 10
956.244
 20
148.896
 30
-8.69455e-15
  70
    32
  0
VERTEX
  8
0
  5
3FBF
 10
956.235
 20
148.902
 30
-8.69540e-15
  70
    32
  0
VERTEX
  8
0
  5
3FC0
 10
956.227
 20
148.908
 30
-8.69619e-15
  70
    32
  0
VERTEX
  8
0
  5
3FC1
 10
956.219
 20
148.914
 30
-8.69691e-15
  70
    32
  0
VERTEX
  8
0
  5
3FC2
 10
956.211
 20
148.921
 30
-8.69756e-15
  70
    32
  0
VERTEX
  8
0
  5
3FC3
 10
956.203
 20
148.927
 30
-8.69813e-15
  70
    32
  0
VERTEX
  8
0
  5
3FC4
 10
956.195
 20
148.933
 30
-8.69864e-15
  70
    32
  0
VERTEX
  8
0
  5
3FC5
 10
956.187
 20
148.940
 30
-8.69907e-15
  70
    32
  0
VERTEX
  8
0
  5
3FC6
 10
956.179
 20
148.946
 30
-8.69942e-15
  70
    32
  0
VERTEX
  8
0
  5
3FC7
 10
956.171
 20
148.953
 30
-8.69969e-15
  70
    32
  0
VERTEX
  8
0
  5
3FC8
 10
956.163
 20
148.959
 30
-8.69987e-15
  70
    32
  0
VERTEX
  8
0
  5
3FC9
 10
956.155
 20
148.966
 30
-8.69998e-15
  70
    32
  0
VERTEX
  8
0
  5
3FCA
 10
956.147
 20
148.972
 30
-8.70001e-15
  70
    32
  0
VERTEX
  8
0
  5
3FCB
 10
956.139
 20
148.979
 30
-8.70015e-15
  70
    32
  0
VERTEX
  8
0
  5
3FCC
 10
956.132
 20
148.986
 30
-8.70046e-15
  70
    32
  0
VERTEX
  8
0
  5
3FCD
 10
956.124
 20
148.992
 30
-8.70093e-15
  70
    32
  0
VERTEX
  8
0
  5
3FCE
 10
956.116
 20
148.999
 30
-8.70155e-15
  70
    32
  0
VERTEX
  8
0
  5
3FCF
 10
956.108
 20
149.006
 30
-8.70233e-15
  70
    32
  0
VERTEX
  8
0
  5
3FD0
 10
956.101
 20
149.013
 30
-8.70325e-15
  70
    32
  0
VERTEX
  8
0
  5
3FD1
 10
956.093
 20
149.020
 30
-8.70431e-15
  70
    32
  0
VERTEX
  8
0
  5
3FD2
 10
956.086
 20
149.026
 30
-8.70551e-15
  70
    32
  0
VERTEX
  8
0
  5
3FD3
 10
956.078
 20
149.033
 30
-8.70682e-15
  70
    32
  0
VERTEX
  8
0
  5
3FD4
 10
956.071
 20
149.040
 30
-8.70826e-15
  70
    32
  0
VERTEX
  8
0
  5
3FD5
 10
956.063
 20
149.047
 30
-8.70982e-15
  70
    32
  0
VERTEX
  8
0
  5
3FD6
 10
956.056
 20
149.054
 30
-8.71148e-15
  70
    32
  0
VERTEX
  8
0
  5
3FD7
 10
956.049
 20
149.061
 30
-8.71324e-15
  70
    32
  0
VERTEX
  8
0
  5
3FD8
 10
956.041
 20
149.068
 30
-8.71510e-15
  70
    32
  0
VERTEX
  8
0
  5
3FD9
 10
956.034
 20
149.075
 30
-8.71705e-15
  70
    32
  0
VERTEX
  8
0
  5
3FDA
 10
956.027
 20
149.082
 30
-8.71908e-15
  70
    32
  0
VERTEX
  8
0
  5
3FDB
 10
956.020
 20
149.090
 30
-8.72119e-15
  70
    32
  0
VERTEX
  8
0
  5
3FDC
 10
956.012
 20
149.097
 30
-8.72338e-15
  70
    32
  0
VERTEX
  8
0
  5
3FDD
 10
956.005
 20
149.104
 30
-8.72562e-15
  70
    32
  0
VERTEX
  8
0
  5
3FDE
 10
955.998
 20
149.111
 30
-8.72793e-15
  70
    32
  0
VERTEX
  8
0
  5
3FDF
 10
955.991
 20
149.119
 30
-8.73029e-15
  70
    32
  0
VERTEX
  8
0
  5
3FE0
 10
955.984
 20
149.126
 30
-8.73270e-15
  70
    32
  0
VERTEX
  8
0
  5
3FE1
 10
955.977
 20
149.133
 30
-8.73515e-15
  70
    32
  0
VERTEX
  8
0
  5
3FE2
 10
955.970
 20
149.141
 30
-8.73764e-15
  70
    32
  0
VERTEX
  8
0
  5
3FE3
 10
955.963
 20
149.148
 30
-8.74015e-15
  70
    32
  0
VERTEX
  8
0
  5
3FE4
 10
955.956
 20
149.155
 30
-8.74269e-15
  70
    32
  0
VERTEX
  8
0
  5
3FE5
 10
955.949
 20
149.163
 30
-8.74525e-15
  70
    32
  0
VERTEX
  8
0
  5
3FE6
 10
955.943
 20
149.170
 30
-8.74782e-15
  70
    32
  0
VERTEX
  8
0
  5
3FE7
 10
955.936
 20
149.178
 30
-8.75039e-15
  70
    32
  0
VERTEX
  8
0
  5
3FE8
 10
955.929
 20
149.185
 30
-8.75296e-15
  70
    32
  0
VERTEX
  8
0
  5
3FE9
 10
955.922
 20
149.193
 30
-8.75552e-15
  70
    32
  0
VERTEX
  8
0
  5
3FEA
 10
955.916
 20
149.201
 30
-8.75808e-15
  70
    32
  0
VERTEX
  8
0
  5
3FEB
 10
955.909
 20
149.208
 30
-8.76061e-15
  70
    32
  0
VERTEX
  8
0
  5
3FEC
 10
955.903
 20
149.216
 30
-8.76311e-15
  70
    32
  0
VERTEX
  8
0
  5
3FED
 10
955.896
 20
149.224
 30
-8.76559e-15
  70
    32
  0
VERTEX
  8
0
  5
3FEE
 10
955.890
 20
149.231
 30
-8.76803e-15
  70
    32
  0
VERTEX
  8
0
  5
3FEF
 10
955.883
 20
149.239
 30
-8.77042e-15
  70
    32
  0
VERTEX
  8
0
  5
3FF0
 10
955.877
 20
149.247
 30
-8.77277e-15
  70
    32
  0
VERTEX
  8
0
  5
3FF1
 10
955.870
 20
149.255
 30
-8.77506e-15
  70
    32
  0
VERTEX
  8
0
  5
3FF2
 10
955.864
 20
149.263
 30
-8.77729e-15
  70
    32
  0
VERTEX
  8
0
  5
3FF3
 10
955.858
 20
149.270
 30
-8.77945e-15
  70
    32
  0
VERTEX
  8
0
  5
3FF4
 10
955.851
 20
149.278
 30
-8.78154e-15
  70
    32
  0
VERTEX
  8
0
  5
3FF5
 10
955.845
 20
149.286
 30
-8.78355e-15
  70
    32
  0
VERTEX
  8
0
  5
3FF6
 10
955.839
 20
149.294
 30
-8.78547e-15
  70
    32
  0
VERTEX
  8
0
  5
3FF7
 10
955.833
 20
149.302
 30
-8.78730e-15
  70
    32
  0
VERTEX
  8
0
  5
3FF8
 10
955.827
 20
149.310
 30
-8.78903e-15
  70
    32
  0
VERTEX
  8
0
  5
3FF9
 10
955.821
 20
149.318
 30
-8.79066e-15
  70
    32
  0
VERTEX
  8
0
  5
3FFA
 10
955.814
 20
149.326
 30
-8.79218e-15
  70
    32
  0
VERTEX
  8
0
  5
3FFB
 10
955.808
 20
149.334
 30
-8.79359e-15
  70
    32
  0
VERTEX
  8
0
  5
3FFC
 10
955.802
 20
149.342
 30
-8.79487e-15
  70
    32
  0
VERTEX
  8
0
  5
3FFD
 10
955.797
 20
149.351
 30
-8.79602e-15
  70
    32
  0
VERTEX
  8
0
  5
3FFE
 10
955.791
 20
149.359
 30
-8.79704e-15
  70
    32
  0
VERTEX
  8
0
  5
3FFF
 10
955.785
 20
149.367
 30
-8.79792e-15
  70
    32
  0
VERTEX
  8
0
  5
4000
 10
955.779
 20
149.375
 30
-8.79865e-15
  70
    32
  0
VERTEX
  8
0
  5
4001
 10
955.773
 20
149.383
 30
-8.79923e-15
  70
    32
  0
VERTEX
  8
0
  5
4002
 10
955.767
 20
149.392
 30
-8.79966e-15
  70
    32
  0
VERTEX
  8
0
  5
4003
 10
955.762
 20
149.400
 30
-8.79991e-15
  70
    32
  0
VERTEX
  8
0
  5
4004
 10
955.756
 20
149.408
 30
-8.80000e-15
  70
    32
  0
SEQEND
  8
0
  5
4005
  0
POLYLINE
  8
0
  5
4006
  66
     1
 10
0.000000
 20
0.000000
 30
0.000000
  70
     8
  0
VERTEX
  8
0
  5
4007
 10
986.025
 20
148.408
 30
-8.60000e-15
  70
    32
  0
VERTEX
  8
0
  5
4008
 10
986.026
 20
148.408
 30
-8.60000e-15
  70
    32
  0
VERTEX
  8
0
  5
4009
 10
986.026
 20
148.408
 30
-8.60000e-15
  70
    32
  0
VERTEX
  8
0
  5
400A
 10
986.026
 20
148.409
 30
-8.60000e-15
  70
    32
  0
VERTEX
  8
0
  5
400B
 10
986.026
 20
148.409
 30
-8.60000e-15
  70
    32
  0
VERTEX
  8
0
  5
400C
 10
986.026
 20
148.409
 30
-8.60000e-15
  70
    32
  0
VERTEX
  8
0
  5
400D
 10
986.026
 20
148.409
 30
-8.60000e-15
  70
    32
  0
VERTEX
  8
0
  5
400E
 10
986.026
 20
148.409
 30
-8.60000e-15
  70
    32
  0
VERTEX
  8
0
  5
400F
 10
986.026
 20
148.409
 30
-8.60000e-15
  70
    32
  0
VERTEX
  8
0
  5
4010
 10
986.027
 20
148.410
 30
-8.60000e-15
  70
    32
  0
VERTEX
  8
0
  5
4011
 10
986.027
 20
148.410
 30
-8.60000e-15
  70
    32
  0
VERTEX
  8
0
  5
4012
 10
986.027
 20
148.410
 30
-8.60000e-15
  70
    32
  0
VERTEX
  8
0
  5
4013
 10
986.028
 20
148.411
 30
-8.60000e-15
  70
    32
  0
VERTEX
  8
0
  5
4014
 10
986.028
 20
148.411
 30
-8.60000e-15
  70
    32
  0
VERTEX
  8
0
  5
4015
 10
986.028
 20
148.411
 30
-8.60000e-15
  70
    32
  0
VERTEX
  8
0
  5
4016
 10
986.029
 20
148.412
 30
-8.60000e-15
  70
    32
  0
VERTEX
  8
0
  5
4017
 10
986.029
 20
148.412
 30
-8.60000e-15
  70
    32
  0
VERTEX
  8
0
  5
4018
 10
986.030
 20
148.413
 30
-8.60000e-15
  70
    32
  0
VERTEX
  8
0
  5
4019
 10
986.030
 20
148.414
 30
-8.60000e-15
  70
    32
  0
VERTEX
  8
0
  5
401A
 10
986.031
 20
148.414
 30
-8.60000e-15
  70
    32
  0
VERTEX
  8
0
  5
401B
 10
986.031
 20
148.415
 30
-8.60000e-15
  70
    32
  0
VERTEX
  8
0
  5
401C
 10
986.032
 20
148.415
 30
-8.60000e-15
  70
    32
  0
VERTEX
  8
0
  5
401D
 10
986.033
 20
148.416
 30
-8.60000e-15
  70
    32
  0
VERTEX
  8
0
  5
401E
 10
986.033
 20
148.417
 30
-8.60000e-15
  70
    32
  0
VERTEX
  8
0
  5
401F
 10
986.034
 20
148.418
 30
-8.60000e-15
  70
    32
  0
VERTEX
  8
0
  5
4020
 10
986.035
 20
148.418
 30
-8.60000e-15
  70
    32
  0
VERTEX
  8
0
  5
4021
 10
986.035
 20
148.419
 30
-8.60000e-15
  70
    32
  0
VERTEX
  8
0
  5
4022
 10
986.036
 20
148.420
 30
-8.60000e-15
  70
    32
  0
VERTEX
  8
0
  5
4023
 10
986.037
 20
148.421
 30
-8.60000e-15
  70
    32
  0
VERTEX
  8
0
  5
4024
 10
986.038
 20
148.422
 30
-8.60000e-15
  70
    32
  0
VERTEX
  8
0
  5
4025
 10
986.039
 20
148.423
 30
-8.60000e-15
  70
    32
  0
VERTEX
  8
0
  5
4026
 10
986.040
 20
148.424
 30
-8.60000e-15
  70
    32
  0
VERTEX
  8
0
  5
4027
 10
986.040
 20
148.425
 30
-8.60000e-15
  70
    32
  0
VERTEX
  8
0
  5
4028
 10
986.041
 20
148.426
 30
-8.60000e-15
  70
    32
  0
VERTEX
  8
0
  5
4029
 10
986.042
 20
148.427
 30
-8.60000e-15
  70
    32
  0
VERTEX
  8
0
  5
402A
 10
986.043
 20
148.428
 30
-8.60000e-15
  70
    32
  0
VERTEX
  8
0
  5
402B
 10
986.044
 20
148.429
 30
-8.60000e-15
  70
    32
  0
VERTEX
  8
0
  5
402C
 10
986.046
 20
148.430
 30
-8.60000e-15
  70
    32
  0
VERTEX
  8
0
  5
402D
 10
986.047
 20
148.431
 30
-8.60000e-15
  70
    32
  0
VERTEX
  8
0
  5
402E
 10
986.048
 20
148.433
 30
-8.60000e-15
  70
    32
  0
VERTEX
  8
0
  5
402F
 10
986.049
 20
148.434
 30
-8.60000e-15
  70
    32
  0
VERTEX
  8
0
  5
4030
 10
986.050
 20
148.435
 30
-8.60000e-15
  70
    32
  0
VERTEX
  8
0
  5
4031
 10
986.051
 20
148.437
 30
-8.60000e-15
  70
    32
  0
VERTEX
  8
0
  5
4032
 10
986.053
 20
148.438
 30
-8.60000e-15
  70
    32
  0
VERTEX
  8
0
  5
4033
 10
986.054
 20
148.439
 30
-8.60000e-15
  70
    32
  0
VERTEX
  8
0
  5
4034
 10
986.055
 20
148.441
 30
-8.60000e-15
  70
    32
  0
VERTEX
  8
0
  5
4035
 10
986.056
 20
148.442
 30
-8.60000e-15
  70
    32
  0
VERTEX
  8
0
  5
4036
 10
986.058
 20
148.444
 30
-8.60000e-15
  70
    32
  0
VERTEX
  8
0
  5
4037
 10
986.059
 20
148.445
 30
-8.60000e-15
  70
    32
  0
VERTEX
  8
0
  5
4038
 10
986.061
 20
148.447
 30
-8.60000e-15
  70
    32
  0
VERTEX
  8
0
  5
4039
 10
986.062
 20
148.448
 30
-8.60000e-15
  70
    32
  0
VERTEX
  8
0
  5
403A
 10
986.064
 20
148.450
 30
-8.60000e-15
  70
    32
  0
VERTEX
  8
0
  5
403B
 10
986.065
 20
148.452
 30
-8.60000e-15
  70
    32
  0
VERTEX
  8
0
  5
403C
 10
986.067
 20
148.453
 30
-8.60000e-15
  70
    32
  0
VERTEX
  8
0
  5
403D
 10
986.068
 20
148.455
 30
-8.60000e-15
  70
    32
  0
VERTEX
  8
0
  5
403E
 10
986.070
 20
148.457
 30
-8.60000e-15
  70
    32
  0
VERTEX
  8
0
  5
403F
 10
986.071
 20
148.459
 30
-8.60000e-15
  70
    32
  0
VERTEX
  8
0
  5
4040
 10
986.073
 20
148.460
 30
-8.60000e-15
  70
    32
  0
VERTEX
  8
0
  5
4041
 10
986.075
 20
148.462
 30
-8.60000e-15
  70
    32
  0
VERTEX
  8
0
  5
4042
 10
986.077
 20
148.464
 30
-8.60000e-15
  70
    32
  0
VERTEX
  8
0
  5
4043
 10
986.078
 20
148.466
 30
-8.60000e-15
  70
    32
  0
VERTEX
  8
0
  5
4044
 10
986.080
 20
148.468
 30
-8.60000e-15
  70
    32
  0
VERTEX
  8
0
  5
4045
 10
986.082
 20
148.470
 30
-8.60000e-15
  70
    32
  0
VERTEX
  8
0
  5
4046
 10
986.084
 20
148.472
 30
-8.60000e-15
  70
    32
  0
VERTEX
  8
0
  5
4047
 10
986.086
 20
148.474
 30
-8.60000e-15
  70
    32
  0
VERTEX
  8
0
  5
4048
 10
986.087
 20
148.476
 30
-8.60000e-15
  70
    32
  0
VERTEX
  8
0
  5
4049
 10
986.089
 20
148.478
 30
-8.60000e-15
  70
    32
  0
VERTEX
  8
0
  5
404A
 10
986.091
 20
148.480
 30
-8.60000e-15
  70
    32
  0
VERTEX
  8
0
  5
404B
 10
986.093
 20
148.482
 30
-8.60000e-15
  70
    32
  0
VERTEX
  8
0
  5
404C
 10
986.095
 20
148.485
 30
-8.60000e-15
  70
    32
  0
VERTEX
  8
0
  5
404D
 10
986.097
 20
148.487
 30
-8.60000e-15
  70
    32
  0
VERTEX
  8
0
  5
404E
 10
986.099
 20
148.489
 30
-8.60000e-15
  70
    32
  0
VERTEX
  8
0
  5
404F
 10
986.102
 20
148.491
 30
-8.60000e-15
  70
    32
  0
VERTEX
  8
0
  5
4050
 10
986.104
 20
148.494
 30
-8.60000e-15
  70
    32
  0
VERTEX
  8
0
  5
4051
 10
986.106
 20
148.496
 30
-8.60000e-15
  70
    32
  0
VERTEX
  8
0
  5
4052
 10
986.108
 20
148.499
 30
-8.60000e-15
  70
    32
  0
VERTEX
  8
0
  5
4053
 10
986.110
 20
148.501
 30
-8.60000e-15
  70
    32
  0
VERTEX
  8
0
  5
4054
 10
986.112
 20
148.503
 30
-8.60000e-15
  70
    32
  0
VERTEX
  8
0
  5
4055
 10
986.115
 20
148.506
 30
-8.60000e-15
  70
    32
  0
VERTEX
  8
0
  5
4056
 10
986.117
 20
148.508
 30
-8.60000e-15
  70
    32
  0
VERTEX
  8
0
  5
4057
 10
986.119
 20
148.511
 30
-8.60000e-15
  70
    32
  0
VERTEX
  8
0
  5
4058
 10
986.122
 20
148.514
 30
-8.60000e-15
  70
    32
  0
VERTEX
  8
0
  5
4059
 10
986.124
 20
148.516
 30
-8.60000e-15
  70
    32
  0
VERTEX
  8
0
  5
405A
 10
986.127
 20
148.519
 30
-8.60000e-15
  70
    32
  0
VERTEX
  8
0
  5
405B
 10
986.129
 20
148.522
 30
-8.60000e-15
  70
    32
  0
VERTEX
  8
0
  5
405C
 10
986.132
 20
148.524
 30
-8.60000e-15
  70
    32
  0
VERTEX
  8
0
  5
405D
 10
986.134
 20
148.527
 30
-8.60000e-15
  70
    32
  0
VERTEX
  8
0
  5
405E
 10
986.137
 20
148.530
 30
-8.60000e-15
  70
    32
  0
VERTEX
  8
0
  5
405F
 10
986.139
 20
148.533
 30
-8.60000e-15
  70
    32
  0
VERTEX
  8
0
  5
4060
 10
986.142
 20
148.535
 30
-8.60000e-15
  70
    32
  0
VERTEX
  8
0
  5
4061
 10
986.144
 20
148.538
 30
-8.60000e-15
  70
    32
  0
VERTEX
  8
0
  5
4062
 10
986.147
 20
148.541
 30
-8.60000e-15
  70
    32
  0
VERTEX
  8
0
  5
4063
 10
986.150
 20
148.544
 30
-8.60000e-15
  70
    32
  0
VERTEX
  8
0
  5
4064
 10
986.152
 20
148.547
 30
-8.60000e-15
  70
    32
  0
VERTEX
  8
0
  5
4065
 10
986.155
 20
148.550
 30
-8.60000e-15
  70
    32
  0
VERTEX
  8
0
  5
4066
 10
986.158
 20
148.553
 30
-8.60002e-15
  70
    32
  0
VERTEX
  8
0
  5
4067
 10
986.161
 20
148.556
 30
-8.60010e-15
  70
    32
  0
VERTEX
  8
0
  5
4068
 10
986.164
 20
148.559
 30
-8.60025e-15
  70
    32
  0
VERTEX
  8
0
  5
4069
 10
986.167
 20
148.562
 30
-8.60046e-15
  70
    32
  0
VERTEX
  8
0
  5
406A
 10
986.169
 20
148.566
 30
-8.60074e-15
  70
    32
  0
VERTEX
  8
0
  5
406B
 10
986.172
 20
148.569
 30
-8.60107e-15
  70
    32
  0
VERTEX
  8
0
  5
406C
 10
986.175
 20
148.572
 30
-8.60147e-15
  70
    32
  0
VERTEX
  8
0
  5
406D
 10
986.178
 20
148.575
 30
-8.60192e-15
  70
    32
  0
VERTEX
  8
0
  5
406E
 10
986.181
 20
148.579
 30
-8.60243e-15
  70
    32
  0
VERTEX
  8
0
  5
406F
 10
986.184
 20
148.582
 30
-8.60300e-15
  70
    32
  0
VERTEX
  8
0
  5
4070
 10
986.187
 20
148.585
 30
-8.60361e-15
  70
    32
  0
VERTEX
  8
0
  5
4071
 10
986.191
 20
148.589
 30
-8.60428e-15
  70
    32
  0
VERTEX
  8
0
  5
4072
 10
986.194
 20
148.592
 30
-8.60500e-15
  70
    32
  0
VERTEX
  8
0
  5
4073
 10
986.197
 20
148.596
 30
-8.60577e-15
  70
    32
  0
VERTEX
  8
0
  5
4074
 10
986.200
 20
148.599
 30
-8.60659e-15
  70
    32
  0
VERTEX
  8
0
  5
4075
 10
986.203
 20
148.603
 30
-8.60745e-15
  70
    32
  0
VERTEX
  8
0
  5
4076
 10
986.206
 20
148.606
 30
-8.60836e-15
  70
    32
  0
VERTEX
  8
0
  5
4077
 10
986.210
 20
148.610
 30
-8.60932e-15
  70
    32
  0
VERTEX
  8
0
  5
4078
 10
986.213
 20
148.613
 30
-8.61031e-15
  70
    32
  0
VERTEX
  8
0
  5
4079
 10
986.216
 20
148.617
 30
-8.61134e-15
  70
    32
  0
VERTEX
  8
0
  5
407A
 10
986.220
 20
148.621
 30
-8.61242e-15
  70
    32
  0
VERTEX
  8
0
  5
407B
 10
986.223
 20
148.624
 30
-8.61353e-15
  70
    32
  0
VERTEX
  8
0
  5
407C
 10
986.227
 20
148.628
 30
-8.61468e-15
  70
    32
  0
VERTEX
  8
0
  5
407D
 10
986.230
 20
148.632
 30
-8.61586e-15
  70
    32
  0
VERTEX
  8
0
  5
407E
 10
986.233
 20
148.636
 30
-8.61708e-15
  70
    32
  0
VERTEX
  8
0
  5
407F
 10
986.237
 20
148.639
 30
-8.61833e-15
  70
    32
  0
VERTEX
  8
0
  5
4080
 10
986.240
 20
148.643
 30
-8.61961e-15
  70
    32
  0
VERTEX
  8
0
  5
4081
 10
986.244
 20
148.647
 30
-8.62092e-15
  70
    32
  0
VERTEX
  8
0
  5
4082
 10
986.248
 20
148.651
 30
-8.62225e-15
  70
    32
  0
VERTEX
  8
0
  5
4083
 10
986.251
 20
148.655
 30
-8.62362e-15
  70
    32
  0
VERTEX
  8
0
  5
4084
 10
986.255
 20
148.659
 30
-8.62501e-15
  70
    32
  0
VERTEX
  8
0
  5
4085
 10
986.259
 20
148.663
 30
-8.62642e-15
  70
    32
  0
VERTEX
  8
0
  5
4086
 10
986.262
 20
148.667
 30
-8.62785e-15
  70
    32
  0
VERTEX
  8
0
  5
4087
 10
986.266
 20
148.671
 30
-8.62930e-15
  70
    32
  0
VERTEX
  8
0
  5
4088
 10
986.270
 20
148.675
 30
-8.63078e-15
  70
    32
  0
VERTEX
  8
0
  5
4089
 10
986.274
 20
148.679
 30
-8.63227e-15
  70
    32
  0
VERTEX
  8
0
  5
408A
 10
986.277
 20
148.683
 30
-8.63377e-15
  70
    32
  0
VERTEX
  8
0
  5
408B
 10
986.281
 20
148.688
 30
-8.63530e-15
  70
    32
  0
VERTEX
  8
0
  5
408C
 10
986.285
 20
148.692
 30
-8.63683e-15
  70
    32
  0
VERTEX
  8
0
  5
408D
 10
986.289
 20
148.696
 30
-8.63838e-15
  70
    32
  0
VERTEX
  8
0
  5
408E
 10
986.293
 20
148.700
 30
-8.63994e-15
  70
    32
  0
VERTEX
  8
0
  5
408F
 10
986.297
 20
148.705
 30
-8.64150e-15
  70
    32
  0
VERTEX
  8
0
  5
4090
 10
986.301
 20
148.709
 30
-8.64308e-15
  70
    32
  0
VERTEX
  8
0
  5
4091
 10
986.305
 20
148.713
 30
-8.64466e-15
  70
    32
  0
VERTEX
  8
0
  5
4092
 10
986.309
 20
148.718
 30
-8.64625e-15
  70
    32
  0
VERTEX
  8
0
  5
4093
 10
986.313
 20
148.722
 30
-8.64783e-15
  70
    32
  0
VERTEX
  8
0
  5
4094
 10
986.317
 20
148.727
 30
-8.64943e-15
  70
    32
  0
VERTEX
  8
0
  5
4095
 10
986.321
 20
148.731
 30
-8.65102e-15
  70
    32
  0
VERTEX
  8
0
  5
4096
 10
986.325
 20
148.736
 30
-8.65261e-15
  70
    32
  0
VERTEX
  8
0
  5
4097
 10
986.329
 20
148.740
 30
-8.65420e-15
  70
    32
  0
VERTEX
  8
0
  5
4098
 10
986.334
 20
148.745
 30
-8.65578e-15
  70
    32
  0
VERTEX
  8
0
  5
4099
 10
986.338
 20
148.749
 30
-8.65736e-15
  70
    32
  0
VERTEX
  8
0
  5
409A
 10
986.342
 20
148.754
 30
-8.65893e-15
  70
    32
  0
VERTEX
  8
0
  5
409B
 10
986.346
 20
148.759
 30
-8.66050e-15
  70
    32
  0
VERTEX
  8
0
  5
409C
 10
986.351
 20
148.763
 30
-8.66205e-15
  70
    32
  0
VERTEX
  8
0
  5
409D
 10
986.355
 20
148.768
 30
-8.66360e-15
  70
    32
  0
VERTEX
  8
0
  5
409E
 10
986.359
 20
148.773
 30
-8.66513e-15
  70
    32
  0
VERTEX
  8
0
  5
409F
 10
986.364
 20
148.777
 30
-8.66665e-15
  70
    32
  0
VERTEX
  8
0
  5
40A0
 10
986.368
 20
148.782
 30
-8.66815e-15
  70
    32
  0
VERTEX
  8
0
  5
40A1
 10
986.372
 20
148.787
 30
-8.66963e-15
  70
    32
  0
VERTEX
  8
0
  5
40A2
 10
986.377
 20
148.792
 30
-8.67110e-15
  70
    32
  0
VERTEX
  8
0
  5
40A3
 10
986.381
 20
148.797
 30
-8.67255e-15
  70
    32
  0
VERTEX
  8
0
  5
40A4
 10
986.386
 20
148.802
 30
-8.67398e-15
  70
    32
  0
VERTEX
  8
0
  5
40A5
 10
986.390
 20
148.807
 30
-8.67538e-15
  70
    32
  0
VERTEX
  8
0
  5
40A6
 10
986.395
 20
148.812
 30
-8.67676e-15
  70
    32
  0
VERTEX
  8
0
  5
40A7
 10
986.400
 20
148.817
 30
-8.67812e-15
  70
    32
  0
VERTEX
  8
0
  5
40A8
 10
986.404
 20
148.822
 30
-8.67945e-15
  70
    32
  0
VERTEX
  8
0
  5
40A9
 10
986.409
 20
148.827
 30
-8.68075e-15
  70
    32
  0
VERTEX
  8
0
  5
40AA
 10
986.413
 20
148.832
 30
-8.68202e-15
  70
    32
  0
VERTEX
  8
0
  5
40AB
 10
986.418
 20
148.837
 30
-8.68326e-15
  70
    32
  0
VERTEX
  8
0
  5
40AC
 10
986.423
 20
148.842
 30
-8.68447e-15
  70
    32
  0
VERTEX
  8
0
  5
40AD
 10
986.428
 20
148.847
 30
-8.68564e-15
  70
    32
  0
VERTEX
  8
0
  5
40AE
 10
986.432
 20
148.852
 30
-8.68678e-15
  70
    32
  0
VERTEX
  8
0
  5
40AF
 10
986.437
 20
148.858
 30
-8.68788e-15
  70
    32
  0
VERTEX
  8
0
  5
40B0
 10
986.442
 20
148.863
 30
-8.68895e-15
  70
    32
  0
VERTEX
  8
0
  5
40B1
 10
986.447
 20
148.868
 30
-8.68997e-15
  70
    32
  0
VERTEX
  8
0
  5
40B2
 10
986.452
 20
148.873
 30
-8.69095e-15
  70
    32
  0
VERTEX
  8
0
  5
40B3
 10
986.457
 20
148.879
 30
-8.69189e-15
  70
    32
  0
VERTEX
  8
0
  5
40B4
 10
986.462
 20
148.884
 30
-8.69279e-15
  70
    32
  0
VERTEX
  8
0
  5
40B5
 10
986.466
 20
148.889
 30
-8.69364e-15
  70
    32
  0
VERTEX
  8
0
  5
40B6
 10
986.471
 20
148.895
 30
-8.69445e-15
  70
    32
  0
VERTEX
  8
0
  5
40B7
 10
986.476
 20
148.900
 30
-8.69520e-15
  70
    32
  0
VERTEX
  8
0
  5
40B8
 10
986.481
 20
148.906
 30
-8.69591e-15
  70
    32
  0
VERTEX
  8
0
  5
40B9
 10
986.487
 20
148.911
 30
-8.69656e-15
  70
    32
  0
VERTEX
  8
0
  5
40BA
 10
986.492
 20
148.917
 30
-8.69717e-15
  70
    32
  0
VERTEX
  8
0
  5
40BB
 10
986.497
 20
148.922
 30
-8.69772e-15
  70
    32
  0
VERTEX
  8
0
  5
40BC
 10
986.502
 20
148.928
 30
-8.69821e-15
  70
    32
  0
VERTEX
  8
0
  5
40BD
 10
986.507
 20
148.934
 30
-8.69865e-15
  70
    32
  0
VERTEX
  8
0
  5
40BE
 10
986.512
 20
148.939
 30
-8.69902e-15
  70
    32
  0
VERTEX
  8
0
  5
40BF
 10
986.517
 20
148.945
 30
-8.69934e-15
  70
    32
  0
VERTEX
  8
0
  5
40C0
 10
986.523
 20
148.950
 30
-8.69960e-15
  70
    32
  0
VERTEX
  8
0
  5
40C1
 10
986.528
 20
148.956
 30
-8.69980e-15
  70
    32
  0
VERTEX
  8
0
  5
40C2
 10
986.533
 20
148.962
 30
-8.69993e-15
  70
    32
  0
VERTEX
  8
0
  5
40C3
 10
986.538
 20
148.968
 30
-8.69999e-15
  70
    32
  0
VERTEX
  8
0
  5
40C4
 10
986.544
 20
148.973
 30
-8.70002e-15
  70
    32
  0
VERTEX
  8
0
  5
40C5
 10
986.549
 20
148.979
 30
-8.70015e-15
  70
    32
  0
VERTEX
  8
0
  5
40C6
 10
986.554
 20
148.985
 30
-8.70042e-15
  70
    32
  0
VERTEX
  8
0
  5
40C7
 10
986.560
 20
148.991
 30
-8.70081e-15
  70
    32
  0
VERTEX
  8
0
  5
40C8
 10
986.565
 20
148.997
 30
-8.70132e-15
  70
    32
  0
VERTEX
  8
0
  5
40C9
 10
986.571
 20
149.003
 30
-8.70195e-15
  70
    32
  0
VERTEX
  8
0
  5
40CA
 10
986.576
 20
149.009
 30
-8.70269e-15
  70
    32
  0
VERTEX
  8
0
  5
40CB
 10
986.582
 20
149.015
 30
-8.70354e-15
  70
    32
  0
VERTEX
  8
0
  5
40CC
 10
986.587
 20
149.021
 30
-8.70450e-15
  70
    32
  0
VERTEX
  8
0
  5
40CD
 10
986.593
 20
149.027
 30
-8.70556e-15
  70
    32
  0
VERTEX
  8
0
  5
40CE
 10
986.598
 20
149.033
 30
-8.70671e-15
  70
    32
  0
VERTEX
  8
0
  5
40CF
 10
986.604
 20
149.039
 30
-8.70796e-15
  70
    32
  0
VERTEX
  8
0
  5
40D0
 10
986.609
 20
149.045
 30
-8.70929e-15
  70
    32
  0
VERTEX
  8
0
  5
40D1
 10
986.615
 20
149.051
 30
-8.71071e-15
  70
    32
  0
VERTEX
  8
0
  5
40D2
 10
986.621
 20
149.057
 30
-8.71221e-15
  70
    32
  0
VERTEX
  8
0
  5
40D3
 10
986.626
 20
149.063
 30
-8.71379e-15
  70
    32
  0
VERTEX
  8
0
  5
40D4
 10
986.632
 20
149.069
 30
-8.71544e-15
  70
    32
  0
VERTEX
  8
0
  5
40D5
 10
986.638
 20
149.076
 30
-8.71715e-15
  70
    32
  0
VERTEX
  8
0
  5
40D6
 10
986.643
 20
149.082
 30
-8.71894e-15
  70
    32
  0
VERTEX
  8
0
  5
40D7
 10
986.649
 20
149.088
 30
-8.72078e-15
  70
    32
  0
VERTEX
  8
0
  5
40D8
 10
986.655
 20
149.094
 30
-8.72268e-15
  70
    32
  0
VERTEX
  8
0
  5
40D9
 10
986.661
 20
149.101
 30
-8.72462e-15
  70
    32
  0
VERTEX
  8
0
  5
40DA
 10
986.667
 20
149.107
 30
-8.72662e-15
  70
    32
  0
VERTEX
  8
0
  5
40DB
 10
986.673
 20
149.113
 30
-8.72866e-15
  70
    32
  0
VERTEX
  8
0
  5
40DC
 10
986.678
 20
149.120
 30
-8.73074e-15
  70
    32
  0
VERTEX
  8
0
  5
40DD
 10
986.684
 20
149.126
 30
-8.73286e-15
  70
    32
  0
VERTEX
  8
0
  5
40DE
 10
986.690
 20
149.133
 30
-8.73501e-15
  70
    32
  0
VERTEX
  8
0
  5
40DF
 10
986.696
 20
149.139
 30
-8.73718e-15
  70
    32
  0
VERTEX
  8
0
  5
40E0
 10
986.702
 20
149.146
 30
-8.73938e-15
  70
    32
  0
VERTEX
  8
0
  5
40E1
 10
986.708
 20
149.152
 30
-8.74160e-15
  70
    32
  0
VERTEX
  8
0
  5
40E2
 10
986.714
 20
149.159
 30
-8.74383e-15
  70
    32
  0
VERTEX
  8
0
  5
40E3
 10
986.720
 20
149.165
 30
-8.74608e-15
  70
    32
  0
VERTEX
  8
0
  5
40E4
 10
986.726
 20
149.172
 30
-8.74833e-15
  70
    32
  0
VERTEX
  8
0
  5
40E5
 10
986.732
 20
149.178
 30
-8.75058e-15
  70
    32
  0
VERTEX
  8
0
  5
40E6
 10
986.738
 20
149.185
 30
-8.75284e-15
  70
    32
  0
VERTEX
  8
0
  5
40E7
 10
986.745
 20
149.192
 30
-8.75509e-15
  70
    32
  0
VERTEX
  8
0
  5
40E8
 10
986.751
 20
149.198
 30
-8.75733e-15
  70
    32
  0
VERTEX
  8
0
  5
40E9
 10
986.757
 20
149.205
 30
-8.75955e-15
  70
    32
  0
VERTEX
  8
0
  5
40EA
 10
986.763
 20
149.212
 30
-8.76176e-15
  70
    32
  0
VERTEX
  8
0
  5
40EB
 10
986.769
 20
149.218
 30
-8.76395e-15
  70
    32
  0
VERTEX
  8
0
  5
40EC
 10
986.776
 20
149.225
 30
-8.76611e-15
  70
    32
  0
VERTEX
  8
0
  5
40ED
 10
986.782
 20
149.232
 30
-8.76824e-15
  70
    32
  0
VERTEX
  8
0
  5
40EE
 10
986.788
 20
149.239
 30
-8.77034e-15
  70
    32
  0
VERTEX
  8
0
  5
40EF
 10
986.794
 20
149.246
 30
-8.77240e-15
  70
    32
  0
VERTEX
  8
0
  5
40F0
 10
986.801
 20
149.252
 30
-8.77442e-15
  70
    32
  0
VERTEX
  8
0
  5
40F1
 10
986.807
 20
149.259
 30
-8.77639e-15
  70
    32
  0
VERTEX
  8
0
  5
40F2
 10
986.813
 20
149.266
 30
-8.77832e-15
  70
    32
  0
VERTEX
  8
0
  5
40F3
 10
986.820
 20
149.273
 30
-8.78018e-15
  70
    32
  0
VERTEX
  8
0
  5
40F4
 10
986.826
 20
149.280
 30
-8.78200e-15
  70
    32
  0
VERTEX
  8
0
  5
40F5
 10
986.833
 20
149.287
 30
-8.78374e-15
  70
    32
  0
VERTEX
  8
0
  5
40F6
 10
986.839
 20
149.294
 30
-8.78543e-15
  70
    32
  0
VERTEX
  8
0
  5
40F7
 10
986.845
 20
149.301
 30
-8.78704e-15
  70
    32
  0
VERTEX
  8
0
  5
40F8
 10
986.852
 20
149.308
 30
-8.78858e-15
  70
    32
  0
VERTEX
  8
0
  5
40F9
 10
986.858
 20
149.315
 30
-8.79003e-15
  70
    32
  0
VERTEX
  8
0
  5
40FA
 10
986.865
 20
149.322
 30
-8.79141e-15
  70
    32
  0
VERTEX
  8
0
  5
40FB
 10
986.871
 20
149.329
 30
-8.79270e-15
  70
    32
  0
VERTEX
  8
0
  5
40FC
 10
986.878
 20
149.336
 30
-8.79390e-15
  70
    32
  0
VERTEX
  8
0
  5
40FD
 10
986.885
 20
149.343
 30
-8.79500e-15
  70
    32
  0
VERTEX
  8
0
  5
40FE
 10
986.891
 20
149.351
 30
-8.79601e-15
  70
    32
  0
VERTEX
  8
0
  5
40FF
 10
986.898
 20
149.358
 30
-8.79691e-15
  70
    32
  0
VERTEX
  8
0
  5
4100
 10
986.904
 20
149.365
 30
-8.79771e-15
  70
    32
  0
VERTEX
  8
0
  5
4101
 10
986.911
 20
149.372
 30
-8.79839e-15
  70
    32
  0
VERTEX
  8
0
  5
4102
 10
986.918
 20
149.379
 30
-8.79896e-15
  70
    32
  0
VERTEX
  8
0
  5
4103
 10
986.924
 20
149.387
 30
-8.79941e-15
  70
    32
  0
VERTEX
  8
0
  5
4104
 10
986.931
 20
149.394
 30
-8.79973e-15
  70
    32
  0
VERTEX
  8
0
  5
4105
 10
986.938
 20
149.401
 30
-8.79993e-15
  70
    32
  0
VERTEX
  8
0
  5
4106
 10
986.945
 20
149.408
 30
-8.80000e-15
  70
    32
  0
SEQEND
  8
0
  5
4107
  0
POLYLINE
  8
0
  5
4108
  66
     1
 10
0.000000
 20
0.000000
 30
0.000000
  70
     8
  0
VERTEX
  8
0
  5
4109
 10
893.988
 20
149.408
 30
-8.80000e-15
  70
    32
  0
VERTEX
  8
0
  5
410A
 10
893.972
 20
149.400
 30
-8.79991e-15
  70
    32
  0
VERTEX
  8
0
  5
410B
 10
893.956
 20
149.392
 30
-8.79966e-15
  70
    32
  0
VERTEX
  8
0
  5
410C
 10
893.940
 20
149.383
 30
-8.79923e-15
  70
    32
  0
VERTEX
  8
0
  5
410D
 10
893.925
 20
149.375
 30
-8.79865e-15
  70
    32
  0
VERTEX
  8
0
  5
410E
 10
893.909
 20
149.367
 30
-8.79792e-15
  70
    32
  0
VERTEX
  8
0
  5
410F
 10
893.893
 20
149.359
 30
-8.79704e-15
  70
    32
  0
VERTEX
  8
0
  5
4110
 10
893.877
 20
149.351
 30
-8.79602e-15
  70
    32
  0
VERTEX
  8
0
  5
4111
 10
893.861
 20
149.342
 30
-8.79487e-15
  70
    32
  0
VERTEX
  8
0
  5
4112
 10
893.845
 20
149.334
 30
-8.79359e-15
  70
    32
  0
VERTEX
  8
0
  5
4113
 10
893.829
 20
149.326
 30
-8.79218e-15
  70
    32
  0
VERTEX
  8
0
  5
4114
 10
893.813
 20
149.318
 30
-8.79066e-15
  70
    32
  0
VERTEX
  8
0
  5
4115
 10
893.797
 20
149.310
 30
-8.78903e-15
  70
    32
  0
VERTEX
  8
0
  5
4116
 10
893.781
 20
149.302
 30
-8.78730e-15
  70
    32
  0
VERTEX
  8
0
  5
4117
 10
893.765
 20
149.294
 30
-8.78547e-15
  70
    32
  0
VERTEX
  8
0
  5
4118
 10
893.749
 20
149.286
 30
-8.78355e-15
  70
    32
  0
VERTEX
  8
0
  5
4119
 10
893.733
 20
149.278
 30
-8.78154e-15
  70
    32
  0
VERTEX
  8
0
  5
411A
 10
893.716
 20
149.270
 30
-8.77945e-15
  70
    32
  0
VERTEX
  8
0
  5
411B
 10
893.700
 20
149.263
 30
-8.77729e-15
  70
    32
  0
VERTEX
  8
0
  5
411C
 10
893.684
 20
149.255
 30
-8.77506e-15
  70
    32
  0
VERTEX
  8
0
  5
411D
 10
893.668
 20
149.247
 30
-8.77277e-15
  70
    32
  0
VERTEX
  8
0
  5
411E
 10
893.652
 20
149.239
 30
-8.77042e-15
  70
    32
  0
VERTEX
  8
0
  5
411F
 10
893.635
 20
149.231
 30
-8.76803e-15
  70
    32
  0
VERTEX
  8
0
  5
4120
 10
893.619
 20
149.224
 30
-8.76559e-15
  70
    32
  0
VERTEX
  8
0
  5
4121
 10
893.603
 20
149.216
 30
-8.76311e-15
  70
    32
  0
VERTEX
  8
0
  5
4122
 10
893.586
 20
149.208
 30
-8.76061e-15
  70
    32
  0
VERTEX
  8
0
  5
4123
 10
893.570
 20
149.201
 30
-8.75808e-15
  70
    32
  0
VERTEX
  8
0
  5
4124
 10
893.553
 20
149.193
 30
-8.75552e-15
  70
    32
  0
VERTEX
  8
0
  5
4125
 10
893.537
 20
149.185
 30
-8.75296e-15
  70
    32
  0
VERTEX
  8
0
  5
4126
 10
893.520
 20
149.178
 30
-8.75039e-15
  70
    32
  0
VERTEX
  8
0
  5
4127
 10
893.504
 20
149.170
 30
-8.74782e-15
  70
    32
  0
VERTEX
  8
0
  5
4128
 10
893.487
 20
149.163
 30
-8.74525e-15
  70
    32
  0
VERTEX
  8
0
  5
4129
 10
893.471
 20
149.155
 30
-8.74269e-15
  70
    32
  0
VERTEX
  8
0
  5
412A
 10
893.454
 20
149.148
 30
-8.74015e-15
  70
    32
  0
VERTEX
  8
0
  5
412B
 10
893.438
 20
149.141
 30
-8.73764e-15
  70
    32
  0
VERTEX
  8
0
  5
412C
 10
893.421
 20
149.133
 30
-8.73515e-15
  70
    32
  0
VERTEX
  8
0
  5
412D
 10
893.404
 20
149.126
 30
-8.73270e-15
  70
    32
  0
VERTEX
  8
0
  5
412E
 10
893.388
 20
149.119
 30
-8.73029e-15
  70
    32
  0
VERTEX
  8
0
  5
412F
 10
893.371
 20
149.111
 30
-8.72793e-15
  70
    32
  0
VERTEX
  8
0
  5
4130
 10
893.354
 20
149.104
 30
-8.72562e-15
  70
    32
  0
VERTEX
  8
0
  5
4131
 10
893.338
 20
149.097
 30
-8.72338e-15
  70
    32
  0
VERTEX
  8
0
  5
4132
 10
893.321
 20
149.090
 30
-8.72119e-15
  70
    32
  0
VERTEX
  8
0
  5
4133
 10
893.304
 20
149.082
 30
-8.71908e-15
  70
    32
  0
VERTEX
  8
0
  5
4134
 10
893.287
 20
149.075
 30
-8.71705e-15
  70
    32
  0
VERTEX
  8
0
  5
4135
 10
893.271
 20
149.068
 30
-8.71510e-15
  70
    32
  0
VERTEX
  8
0
  5
4136
 10
893.254
 20
149.061
 30
-8.71324e-15
  70
    32
  0
VERTEX
  8
0
  5
4137
 10
893.237
 20
149.054
 30
-8.71148e-15
  70
    32
  0
VERTEX
  8
0
  5
4138
 10
893.220
 20
149.047
 30
-8.70982e-15
  70
    32
  0
VERTEX
  8
0
  5
4139
 10
893.203
 20
149.040
 30
-8.70826e-15
  70
    32
  0
VERTEX
  8
0
  5
413A
 10
893.186
 20
149.033
 30
-8.70682e-15
  70
    32
  0
VERTEX
  8
0
  5
413B
 10
893.169
 20
149.026
 30
-8.70551e-15
  70
    32
  0
VERTEX
  8
0
  5
413C
 10
893.152
 20
149.020
 30
-8.70431e-15
  70
    32
  0
VERTEX
  8
0
  5
413D
 10
893.135
 20
149.013
 30
-8.70325e-15
  70
    32
  0
VERTEX
  8
0
  5
413E
 10
893.118
 20
149.006
 30
-8.70233e-15
  70
    32
  0
VERTEX
  8
0
  5
413F
 10
893.101
 20
148.999
 30
-8.70155e-15
  70
    32
  0
VERTEX
  8
0
  5
4140
 10
893.084
 20
148.992
 30
-8.70093e-15
  70
    32
  0
VERTEX
  8
0
  5
4141
 10
893.067
 20
148.986
 30
-8.70046e-15
  70
    32
  0
VERTEX
  8
0
  5
4142
 10
893.050
 20
148.979
 30
-8.70015e-15
  70
    32
  0
VERTEX
  8
0
  5
4143
 10
893.033
 20
148.972
 30
-8.70001e-15
  70
    32
  0
VERTEX
  8
0
  5
4144
 10
893.015
 20
148.966
 30
-8.69998e-15
  70
    32
  0
VERTEX
  8
0
  5
4145
 10
892.998
 20
148.959
 30
-8.69987e-15
  70
    32
  0
VERTEX
  8
0
  5
4146
 10
892.981
 20
148.953
 30
-8.69969e-15
  70
    32
  0
VERTEX
  8
0
  5
4147
 10
892.964
 20
148.946
 30
-8.69942e-15
  70
    32
  0
VERTEX
  8
0
  5
4148
 10
892.947
 20
148.940
 30
-8.69907e-15
  70
    32
  0
VERTEX
  8
0
  5
4149
 10
892.929
 20
148.933
 30
-8.69864e-15
  70
    32
  0
VERTEX
  8
0
  5
414A
 10
892.912
 20
148.927
 30
-8.69813e-15
  70
    32
  0
VERTEX
  8
0
  5
414B
 10
892.895
 20
148.921
 30
-8.69756e-15
  70
    32
  0
VERTEX
  8
0
  5
414C
 10
892.877
 20
148.914
 30
-8.69691e-15
  70
    32
  0
VERTEX
  8
0
  5
414D
 10
892.860
 20
148.908
 30
-8.69619e-15
  70
    32
  0
VERTEX
  8
0
  5
414E
 10
892.843
 20
148.902
 30
-8.69540e-15
  70
    32
  0
VERTEX
  8
0
  5
414F
 10
892.825
 20
148.896
 30
-8.69455e-15
  70
    32
  0
VERTEX
  8
0
  5
4150
 10
892.808
 20
148.889
 30
-8.69364e-15
  70
    32
  0
VERTEX
  8
0
  5
4151
 10
892.791
 20
148.883
 30
-8.69266e-15
  70
    32
  0
VERTEX
  8
0
  5
4152
 10
892.773
 20
148.877
 30
-8.69163e-15
  70
    32
  0
VERTEX
  8
0
  5
4153
 10
892.756
 20
148.871
 30
-8.69054e-15
  70
    32
  0
VERTEX
  8
0
  5
4154
 10
892.738
 20
148.865
 30
-8.68939e-15
  70
    32
  0
VERTEX
  8
0
  5
4155
 10
892.721
 20
148.859
 30
-8.68819e-15
  70
    32
  0
VERTEX
  8
0
  5
4156
 10
892.703
 20
148.853
 30
-8.68695e-15
  70
    32
  0
VERTEX
  8
0
  5
4157
 10
892.686
 20
148.847
 30
-8.68565e-15
  70
    32
  0
VERTEX
  8
0
  5
4158
 10
892.668
 20
148.841
 30
-8.68431e-15
  70
    32
  0
VERTEX
  8
0
  5
4159
 10
892.650
 20
148.835
 30
-8.68292e-15
  70
    32
  0
VERTEX
  8
0
  5
415A
 10
892.633
 20
148.830
 30
-8.68150e-15
  70
    32
  0
VERTEX
  8
0
  5
415B
 10
892.615
 20
148.824
 30
-8.68003e-15
  70
    32
  0
VERTEX
  8
0
  5
415C
 10
892.598
 20
148.818
 30
-8.67852e-15
  70
    32
  0
VERTEX
  8
0
  5
415D
 10
892.580
 20
148.812
 30
-8.67698e-15
  70
    32
  0
VERTEX
  8
0
  5
415E
 10
892.562
 20
148.807
 30
-8.67541e-15
  70
    32
  0
VERTEX
  8
0
  5
415F
 10
892.545
 20
148.801
 30
-8.67381e-15
  70
    32
  0
VERTEX
  8
0
  5
4160
 10
892.527
 20
148.796
 30
-8.67217e-15
  70
    32
  0
VERTEX
  8
0
  5
4161
 10
892.509
 20
148.790
 30
-8.67051e-15
  70
    32
  0
VERTEX
  8
0
  5
4162
 10
892.491
 20
148.784
 30
-8.66883e-15
  70
    32
  0
VERTEX
  8
0
  5
4163
 10
892.474
 20
148.779
 30
-8.66712e-15
  70
    32
  0
VERTEX
  8
0
  5
4164
 10
892.456
 20
148.774
 30
-8.66539e-15
  70
    32
  0
VERTEX
  8
0
  5
4165
 10
892.438
 20
148.768
 30
-8.66365e-15
  70
    32
  0
VERTEX
  8
0
  5
4166
 10
892.420
 20
148.763
 30
-8.66189e-15
  70
    32
  0
VERTEX
  8
0
  5
4167
 10
892.403
 20
148.757
 30
-8.66011e-15
  70
    32
  0
VERTEX
  8
0
  5
4168
 10
892.385
 20
148.752
 30
-8.65832e-15
  70
    32
  0
VERTEX
  8
0
  5
4169
 10
892.367
 20
148.747
 30
-8.65652e-15
  70
    32
  0
VERTEX
  8
0
  5
416A
 10
892.349
 20
148.742
 30
-8.65472e-15
  70
    32
  0
VERTEX
  8
0
  5
416B
 10
892.331
 20
148.736
 30
-8.65291e-15
  70
    32
  0
VERTEX
  8
0
  5
416C
 10
892.313
 20
148.731
 30
-8.65109e-15
  70
    32
  0
VERTEX
  8
0
  5
416D
 10
892.295
 20
148.726
 30
-8.64928e-15
  70
    32
  0
VERTEX
  8
0
  5
416E
 10
892.277
 20
148.721
 30
-8.64746e-15
  70
    32
  0
VERTEX
  8
0
  5
416F
 10
892.259
 20
148.716
 30
-8.64565e-15
  70
    32
  0
VERTEX
  8
0
  5
4170
 10
892.241
 20
148.711
 30
-8.64384e-15
  70
    32
  0
VERTEX
  8
0
  5
4171
 10
892.223
 20
148.706
 30
-8.64204e-15
  70
    32
  0
VERTEX
  8
0
  5
4172
 10
892.206
 20
148.701
 30
-8.64025e-15
  70
    32
  0
VERTEX
  8
0
  5
4173
 10
892.188
 20
148.696
 30
-8.63847e-15
  70
    32
  0
VERTEX
  8
0
  5
4174
 10
892.169
 20
148.691
 30
-8.63671e-15
  70
    32
  0
VERTEX
  8
0
  5
4175
 10
892.151
 20
148.687
 30
-8.63496e-15
  70
    32
  0
VERTEX
  8
0
  5
4176
 10
892.133
 20
148.682
 30
-8.63323e-15
  70
    32
  0
VERTEX
  8
0
  5
4177
 10
892.115
 20
148.677
 30
-8.63152e-15
  70
    32
  0
VERTEX
  8
0
  5
4178
 10
892.097
 20
148.672
 30
-8.62983e-15
  70
    32
  0
VERTEX
  8
0
  5
4179
 10
892.079
 20
148.668
 30
-8.62816e-15
  70
    32
  0
VERTEX
  8
0
  5
417A
 10
892.061
 20
148.663
 30
-8.62652e-15
  70
    32
  0
VERTEX
  8
0
  5
417B
 10
892.043
 20
148.659
 30
-8.62491e-15
  70
    32
  0
VERTEX
  8
0
  5
417C
 10
892.025
 20
148.654
 30
-8.62333e-15
  70
    32
  0
VERTEX
  8
0
  5
417D
 10
892.007
 20
148.650
 30
-8.62179e-15
  70
    32
  0
VERTEX
  8
0
  5
417E
 10
891.989
 20
148.645
 30
-8.62027e-15
  70
    32
  0
VERTEX
  8
0
  5
417F
 10
891.971
 20
148.641
 30
-8.61880e-15
  70
    32
  0
VERTEX
  8
0
  5
4180
 10
891.952
 20
148.636
 30
-8.61736e-15
  70
    32
  0
VERTEX
  8
0
  5
4181
 10
891.934
 20
148.632
 30
-8.61597e-15
  70
    32
  0
VERTEX
  8
0
  5
4182
 10
891.916
 20
148.628
 30
-8.61462e-15
  70
    32
  0
VERTEX
  8
0
  5
4183
 10
891.898
 20
148.624
 30
-8.61331e-15
  70
    32
  0
VERTEX
  8
0
  5
4184
 10
891.880
 20
148.619
 30
-8.61205e-15
  70
    32
  0
VERTEX
  8
0
  5
4185
 10
891.861
 20
148.615
 30
-8.61085e-15
  70
    32
  0
VERTEX
  8
0
  5
4186
 10
891.843
 20
148.611
 30
-8.60969e-15
  70
    32
  0
VERTEX
  8
0
  5
4187
 10
891.825
 20
148.607
 30
-8.60859e-15
  70
    32
  0
VERTEX
  8
0
  5
4188
 10
891.807
 20
148.603
 30
-8.60754e-15
  70
    32
  0
VERTEX
  8
0
  5
4189
 10
891.788
 20
148.599
 30
-8.60656e-15
  70
    32
  0
VERTEX
  8
0
  5
418A
 10
891.770
 20
148.595
 30
-8.60563e-15
  70
    32
  0
VERTEX
  8
0
  5
418B
 10
891.752
 20
148.591
 30
-8.60477e-15
  70
    32
  0
VERTEX
  8
0
  5
418C
 10
891.734
 20
148.587
 30
-8.60397e-15
  70
    32
  0
VERTEX
  8
0
  5
418D
 10
891.715
 20
148.583
 30
-8.60323e-15
  70
    32
  0
VERTEX
  8
0
  5
418E
 10
891.697
 20
148.579
 30
-8.60257e-15
  70
    32
  0
VERTEX
  8
0
  5
418F
 10
891.679
 20
148.576
 30
-8.60198e-15
  70
    32
  0
VERTEX
  8
0
  5
4190
 10
891.660
 20
148.572
 30
-8.60146e-15
  70
    32
  0
VERTEX
  8
0
  5
4191
 10
891.642
 20
148.568
 30
-8.60101e-15
  70
    32
  0
VERTEX
  8
0
  5
4192
 10
891.624
 20
148.565
 30
-8.60065e-15
  70
    32
  0
VERTEX
  8
0
  5
4193
 10
891.605
 20
148.561
 30
-8.60036e-15
  70
    32
  0
VERTEX
  8
0
  5
4194
 10
891.587
 20
148.558
 30
-8.60016e-15
  70
    32
  0
VERTEX
  8
0
  5
4195
 10
891.568
 20
148.554
 30
-8.60004e-15
  70
    32
  0
VERTEX
  8
0
  5
4196
 10
891.550
 20
148.551
 30
-8.60000e-15
  70
    32
  0
VERTEX
  8
0
  5
4197
 10
891.532
 20
148.547
 30
-8.60000e-15
  70
    32
  0
VERTEX
  8
0
  5
4198
 10
891.513
 20
148.544
 30
-8.60000e-15
  70
    32
  0
VERTEX
  8
0
  5
4199
 10
891.495
 20
148.540
 30
-8.60000e-15
  70
    32
  0
VERTEX
  8
0
  5
419A
 10
891.476
 20
148.537
 30
-8.60000e-15
  70
    32
  0
VERTEX
  8
0
  5
419B
 10
891.458
 20
148.534
 30
-8.60000e-15
  70
    32
  0
VERTEX
  8
0
  5
419C
 10
891.440
 20
148.531
 30
-8.60000e-15
  70
    32
  0
VERTEX
  8
0
  5
419D
 10
891.421
 20
148.527
 30
-8.60000e-15
  70
    32
  0
VERTEX
  8
0
  5
419E
 10
891.403
 20
148.524
 30
-8.60000e-15
  70
    32
  0
VERTEX
  8
0
  5
419F
 10
891.384
 20
148.521
 30
-8.60000e-15
  70
    32
  0
VERTEX
  8
0
  5
41A0
 10
891.366
 20
148.518
 30
-8.60000e-15
  70
    32
  0
VERTEX
  8
0
  5
41A1
 10
891.347
 20
148.515
 30
-8.60000e-15
  70
    32
  0
VERTEX
  8
0
  5
41A2
 10
891.329
 20
148.512
 30
-8.60000e-15
  70
    32
  0
VERTEX
  8
0
  5
41A3
 10
891.310
 20
148.509
 30
-8.60000e-15
  70
    32
  0
VERTEX
  8
0
  5
41A4
 10
891.292
 20
148.506
 30
-8.60000e-15
  70
    32
  0
VERTEX
  8
0
  5
41A5
 10
891.274
 20
148.503
 30
-8.60000e-15
  70
    32
  0
VERTEX
  8
0
  5
41A6
 10
891.255
 20
148.501
 30
-8.60000e-15
  70
    32
  0
VERTEX
  8
0
  5
41A7
 10
891.237
 20
148.498
 30
-8.60000e-15
  70
    32
  0
VERTEX
  8
0
  5
41A8
 10
891.218
 20
148.495
 30
-8.60000e-15
  70
    32
  0
VERTEX
  8
0
  5
41A9
 10
891.200
 20
148.493
 30
-8.60000e-15
  70
    32
  0
VERTEX
  8
0
  5
41AA
 10
891.181
 20
148.490
 30
-8.60000e-15
  70
    32
  0
VERTEX
  8
0
  5
41AB
 10
891.163
 20
148.487
 30
-8.60000e-15
  70
    32
  0
VERTEX
  8
0
  5
41AC
 10
891.144
 20
148.485
 30
-8.60000e-15
  70
    32
  0
VERTEX
  8
0
  5
41AD
 10
891.126
 20
148.482
 30
-8.60000e-15
  70
    32
  0
VERTEX
  8
0
  5
41AE
 10
891.107
 20
148.480
 30
-8.60000e-15
  70
    32
  0
VERTEX
  8
0
  5
41AF
 10
891.089
 20
148.477
 30
-8.60000e-15
  70
    32
  0
VERTEX
  8
0
  5
41B0
 10
891.070
 20
148.475
 30
-8.60000e-15
  70
    32
  0
VERTEX
  8
0
  5
41B1
 10
891.051
 20
148.473
 30
-8.60000e-15
  70
    32
  0
VERTEX
  8
0
  5
41B2
 10
891.033
 20
148.470
 30
-8.60000e-15
  70
    32
  0
VERTEX
  8
0
  5
41B3
 10
891.014
 20
148.468
 30
-8.60000e-15
  70
    32
  0
VERTEX
  8
0
  5
41B4
 10
890.996
 20
148.466
 30
-8.60000e-15
  70
    32
  0
VERTEX
  8
0
  5
41B5
 10
890.977
 20
148.464
 30
-8.60000e-15
  70
    32
  0
VERTEX
  8
0
  5
41B6
 10
890.959
 20
148.462
 30
-8.60000e-15
  70
    32
  0
VERTEX
  8
0
  5
41B7
 10
890.940
 20
148.459
 30
-8.60000e-15
  70
    32
  0
VERTEX
  8
0
  5
41B8
 10
890.922
 20
148.457
 30
-8.60000e-15
  70
    32
  0
VERTEX
  8
0
  5
41B9
 10
890.903
 20
148.455
 30
-8.60000e-15
  70
    32
  0
VERTEX
  8
0
  5
41BA
 10
890.885
 20
148.453
 30
-8.60000e-15
  70
    32
  0
VERTEX
  8
0
  5
41BB
 10
890.866
 20
148.452
 30
-8.60000e-15
  70
    32
  0
VERTEX
  8
0
  5
41BC
 10
890.848
 20
148.450
 30
-8.60000e-15
  70
    32
  0
VERTEX
  8
0
  5
41BD
 10
890.829
 20
148.448
 30
-8.60000e-15
  70
    32
  0
VERTEX
  8
0
  5
41BE
 10
890.811
 20
148.446
 30
-8.60000e-15
  70
    32
  0
VERTEX
  8
0
  5
41BF
 10
890.792
 20
148.444
 30
-8.60000e-15
  70
    32
  0
VERTEX
  8
0
  5
41C0
 10
890.773
 20
148.443
 30
-8.60000e-15
  70
    32
  0
VERTEX
  8
0
  5
41C1
 10
890.755
 20
148.441
 30
-8.60000e-15
  70
    32
  0
VERTEX
  8
0
  5
41C2
 10
890.736
 20
148.439
 30
-8.60000e-15
  70
    32
  0
VERTEX
  8
0
  5
41C3
 10
890.718
 20
148.438
 30
-8.60000e-15
  70
    32
  0
VERTEX
  8
0
  5
41C4
 10
890.699
 20
148.436
 30
-8.60000e-15
  70
    32
  0
VERTEX
  8
0
  5
41C5
 10
890.681
 20
148.435
 30
-8.60000e-15
  70
    32
  0
VERTEX
  8
0
  5
41C6
 10
890.662
 20
148.433
 30
-8.60000e-15
  70
    32
  0
VERTEX
  8
0
  5
41C7
 10
890.644
 20
148.432
 30
-8.60000e-15
  70
    32
  0
VERTEX
  8
0
  5
41C8
 10
890.625
 20
148.430
 30
-8.60000e-15
  70
    32
  0
VERTEX
  8
0
  5
41C9
 10
890.607
 20
148.429
 30
-8.60000e-15
  70
    32
  0
VERTEX
  8
0
  5
41CA
 10
890.588
 20
148.428
 30
-8.60000e-15
  70
    32
  0
VERTEX
  8
0
  5
41CB
 10
890.570
 20
148.427
 30
-8.60000e-15
  70
    32
  0
VERTEX
  8
0
  5
41CC
 10
890.551
 20
148.425
 30
-8.60000e-15
  70
    32
  0
VERTEX
  8
0
  5
41CD
 10
890.533
 20
148.424
 30
-8.60000e-15
  70
    32
  0
VERTEX
  8
0
  5
41CE
 10
890.514
 20
148.423
 30
-8.60000e-15
  70
    32
  0
VERTEX
  8
0
  5
41CF
 10
890.496
 20
148.422
 30
-8.60000e-15
  70
    32
  0
VERTEX
  8
0
  5
41D0
 10
890.477
 20
148.421
 30
-8.60000e-15
  70
    32
  0
VERTEX
  8
0
  5
41D1
 10
890.459
 20
148.420
 30
-8.60000e-15
  70
    32
  0
VERTEX
  8
0
  5
41D2
 10
890.440
 20
148.419
 30
-8.60000e-15
  70
    32
  0
VERTEX
  8
0
  5
41D3
 10
890.422
 20
148.418
 30
-8.60000e-15
  70
    32
  0
VERTEX
  8
0
  5
41D4
 10
890.403
 20
148.417
 30
-8.60000e-15
  70
    32
  0
VERTEX
  8
0
  5
41D5
 10
890.385
 20
148.416
 30
-8.60000e-15
  70
    32
  0
VERTEX
  8
0
  5
41D6
 10
890.366
 20
148.415
 30
-8.60000e-15
  70
    32
  0
VERTEX
  8
0
  5
41D7
 10
890.348
 20
148.415
 30
-8.60000e-15
  70
    32
  0
VERTEX
  8
0
  5
41D8
 10
890.329
 20
148.414
 30
-8.60000e-15
  70
    32
  0
VERTEX
  8
0
  5
41D9
 10
890.311
 20
148.413
 30
-8.60000e-15
  70
    32
  0
VERTEX
  8
0
  5
41DA
 10
890.292
 20
148.413
 30
-8.60000e-15
  70
    32
  0
VERTEX
  8
0
  5
41DB
 10
890.274
 20
148.412
 30
-8.60000e-15
  70
    32
  0
VERTEX
  8
0
  5
41DC
 10
890.255
 20
148.412
 30
-8.60000e-15
  70
    32
  0
VERTEX
  8
0
  5
41DD
 10
890.237
 20
148.411
 30
-8.60000e-15
  70
    32
  0
VERTEX
  8
0
  5
41DE
 10
890.219
 20
148.411
 30
-8.60000e-15
  70
    32
  0
VERTEX
  8
0
  5
41DF
 10
890.200
 20
148.410
 30
-8.60000e-15
  70
    32
  0
VERTEX
  8
0
  5
41E0
 10
890.182
 20
148.410
 30
-8.60000e-15
  70
    32
  0
VERTEX
  8
0
  5
41E1
 10
890.163
 20
148.410
 30
-8.60000e-15
  70
    32
  0
VERTEX
  8
0
  5
41E2
 10
890.145
 20
148.409
 30
-8.60000e-15
  70
    32
  0
VERTEX
  8
0
  5
41E3
 10
890.127
 20
148.409
 30
-8.60000e-15
  70
    32
  0
VERTEX
  8
0
  5
41E4
 10
890.108
 20
148.409
 30
-8.60000e-15
  70
    32
  0
VERTEX
  8
0
  5
41E5
 10
890.090
 20
148.409
 30
-8.60000e-15
  70
    32
  0
VERTEX
  8
0
  5
41E6
 10
890.071
 20
148.408
 30
-8.60000e-15
  70
    32
  0
VERTEX
  8
0
  5
41E7
 10
890.053
 20
148.408
 30
-8.60000e-15
  70
    32
  0
VERTEX
  8
0
  5
41E8
 10
890.035
 20
148.408
 30
-8.60000e-15
  70
    32
  0
VERTEX
  8
0
  5
41E9
 10
890.016
 20
148.408
 30
-8.60000e-15
  70
    32
  0
VERTEX
  8
0
  5
41EA
 10
889.998
 20
148.408
 30
-8.60000e-15
  70
    32
  0
VERTEX
  8
0
  5
41EB
 10
889.980
 20
148.408
 30
-8.60000e-15
  70
    32
  0
VERTEX
  8
0
  5
41EC
 10
889.961
 20
148.409
 30
-8.60000e-15
  70
    32
  0
VERTEX
  8
0
  5
41ED
 10
889.943
 20
148.409
 30
-8.60000e-15
  70
    32
  0
VERTEX
  8
0
  5
41EE
 10
889.924
 20
148.409
 30
-8.60000e-15
  70
    32
  0
VERTEX
  8
0
  5
41EF
 10
889.906
 20
148.409
 30
-8.60000e-15
  70
    32
  0
VERTEX
  8
0
  5
41F0
 10
889.888
 20
148.410
 30
-8.60000e-15
  70
    32
  0
VERTEX
  8
0
  5
41F1
 10
889.869
 20
148.410
 30
-8.60000e-15
  70
    32
  0
VERTEX
  8
0
  5
41F2
 10
889.851
 20
148.410
 30
-8.60000e-15
  70
    32
  0
VERTEX
  8
0
  5
41F3
 10
889.832
 20
148.411
 30
-8.60000e-15
  70
    32
  0
VERTEX
  8
0
  5
41F4
 10
889.814
 20
148.411
 30
-8.60000e-15
  70
    32
  0
VERTEX
  8
0
  5
41F5
 10
889.796
 20
148.412
 30
-8.60000e-15
  70
    32
  0
VERTEX
  8
0
  5
41F6
 10
889.777
 20
148.412
 30
-8.60000e-15
  70
    32
  0
VERTEX
  8
0
  5
41F7
 10
889.759
 20
148.413
 30
-8.60000e-15
  70
    32
  0
VERTEX
  8
0
  5
41F8
 10
889.740
 20
148.413
 30
-8.60000e-15
  70
    32
  0
VERTEX
  8
0
  5
41F9
 10
889.722
 20
148.414
 30
-8.60000e-15
  70
    32
  0
VERTEX
  8
0
  5
41FA
 10
889.703
 20
148.415
 30
-8.60000e-15
  70
    32
  0
VERTEX
  8
0
  5
41FB
 10
889.685
 20
148.415
 30
-8.60000e-15
  70
    32
  0
VERTEX
  8
0
  5
41FC
 10
889.666
 20
148.416
 30
-8.60000e-15
  70
    32
  0
VERTEX
  8
0
  5
41FD
 10
889.648
 20
148.417
 30
-8.60000e-15
  70
    32
  0
VERTEX
  8
0
  5
41FE
 10
889.629
 20
148.418
 30
-8.60000e-15
  70
    32
  0
VERTEX
  8
0
  5
41FF
 10
889.611
 20
148.419
 30
-8.60000e-15
  70
    32
  0
VERTEX
  8
0
  5
4200
 10
889.592
 20
148.420
 30
-8.60000e-15
  70
    32
  0
VERTEX
  8
0
  5
4201
 10
889.574
 20
148.421
 30
-8.60000e-15
  70
    32
  0
VERTEX
  8
0
  5
4202
 10
889.555
 20
148.422
 30
-8.60000e-15
  70
    32
  0
VERTEX
  8
0
  5
4203
 10
889.537
 20
148.423
 30
-8.60000e-15
  70
    32
  0
VERTEX
  8
0
  5
4204
 10
889.518
 20
148.424
 30
-8.60000e-15
  70
    32
  0
VERTEX
  8
0
  5
4205
 10
889.500
 20
148.425
 30
-8.60000e-15
  70
    32
  0
VERTEX
  8
0
  5
4206
 10
889.481
 20
148.427
 30
-8.60000e-15
  70
    32
  0
VERTEX
  8
0
  5
4207
 10
889.463
 20
148.428
 30
-8.60000e-15
  70
    32
  0
VERTEX
  8
0
  5
4208
 10
889.444
 20
148.429
 30
-8.60000e-15
  70
    32
  0
VERTEX
  8
0
  5
4209
 10
889.426
 20
148.430
 30
-8.60000e-15
  70
    32
  0
VERTEX
  8
0
  5
420A
 10
889.407
 20
148.432
 30
-8.60000e-15
  70
    32
  0
VERTEX
  8
0
  5
420B
 10
889.389
 20
148.433
 30
-8.60000e-15
  70
    32
  0
VERTEX
  8
0
  5
420C
 10
889.370
 20
148.435
 30
-8.60000e-15
  70
    32
  0
VERTEX
  8
0
  5
420D
 10
889.352
 20
148.436
 30
-8.60000e-15
  70
    32
  0
VERTEX
  8
0
  5
420E
 10
889.333
 20
148.438
 30
-8.60000e-15
  70
    32
  0
VERTEX
  8
0
  5
420F
 10
889.315
 20
148.439
 30
-8.60000e-15
  70
    32
  0
VERTEX
  8
0
  5
4210
 10
889.296
 20
148.441
 30
-8.60000e-15
  70
    32
  0
VERTEX
  8
0
  5
4211
 10
889.278
 20
148.443
 30
-8.60000e-15
  70
    32
  0
VERTEX
  8
0
  5
4212
 10
889.259
 20
148.444
 30
-8.60000e-15
  70
    32
  0
VERTEX
  8
0
  5
4213
 10
889.240
 20
148.446
 30
-8.60000e-15
  70
    32
  0
VERTEX
  8
0
  5
4214
 10
889.222
 20
148.448
 30
-8.60000e-15
  70
    32
  0
VERTEX
  8
0
  5
4215
 10
889.203
 20
148.450
 30
-8.60000e-15
  70
    32
  0
VERTEX
  8
0
  5
4216
 10
889.185
 20
148.452
 30
-8.60000e-15
  70
    32
  0
VERTEX
  8
0
  5
4217
 10
889.166
 20
148.453
 30
-8.60000e-15
  70
    32
  0
VERTEX
  8
0
  5
4218
 10
889.148
 20
148.455
 30
-8.60000e-15
  70
    32
  0
VERTEX
  8
0
  5
4219
 10
889.129
 20
148.457
 30
-8.60000e-15
  70
    32
  0
VERTEX
  8
0
  5
421A
 10
889.111
 20
148.459
 30
-8.60000e-15
  70
    32
  0
VERTEX
  8
0
  5
421B
 10
889.092
 20
148.462
 30
-8.60000e-15
  70
    32
  0
VERTEX
  8
0
  5
421C
 10
889.074
 20
148.464
 30
-8.60000e-15
  70
    32
  0
VERTEX
  8
0
  5
421D
 10
889.055
 20
148.466
 30
-8.60000e-15
  70
    32
  0
VERTEX
  8
0
  5
421E
 10
889.037
 20
148.468
 30
-8.60000e-15
  70
    32
  0
VERTEX
  8
0
  5
421F
 10
889.018
 20
148.470
 30
-8.60000e-15
  70
    32
  0
VERTEX
  8
0
  5
4220
 10
889.000
 20
148.473
 30
-8.60000e-15
  70
    32
  0
VERTEX
  8
0
  5
4221
 10
888.981
 20
148.475
 30
-8.60000e-15
  70
    32
  0
VERTEX
  8
0
  5
4222
 10
888.962
 20
148.477
 30
-8.60000e-15
  70
    32
  0
VERTEX
  8
0
  5
4223
 10
888.944
 20
148.480
 30
-8.60000e-15
  70
    32
  0
VERTEX
  8
0
  5
4224
 10
888.925
 20
148.482
 30
-8.60000e-15
  70
    32
  0
VERTEX
  8
0
  5
4225
 10
888.907
 20
148.485
 30
-8.60000e-15
  70
    32
  0
VERTEX
  8
0
  5
4226
 10
888.888
 20
148.487
 30
-8.60000e-15
  70
    32
  0
VERTEX
  8
0
  5
4227
 10
888.870
 20
148.490
 30
-8.60000e-15
  70
    32
  0
VERTEX
  8
0
  5
4228
 10
888.851
 20
148.493
 30
-8.60000e-15
  70
    32
  0
VERTEX
  8
0
  5
4229
 10
888.833
 20
148.495
 30
-8.60000e-15
  70
    32
  0
VERTEX
  8
0
  5
422A
 10
888.814
 20
148.498
 30
-8.60000e-15
  70
    32
  0
VERTEX
  8
0
  5
422B
 10
888.796
 20
148.501
 30
-8.60000e-15
  70
    32
  0
VERTEX
  8
0
  5
422C
 10
888.777
 20
148.503
 30
-8.60000e-15
  70
    32
  0
VERTEX
  8
0
  5
422D
 10
888.759
 20
148.506
 30
-8.60000e-15
  70
    32
  0
VERTEX
  8
0
  5
422E
 10
888.741
 20
148.509
 30
-8.60000e-15
  70
    32
  0
VERTEX
  8
0
  5
422F
 10
888.722
 20
148.512
 30
-8.60000e-15
  70
    32
  0
VERTEX
  8
0
  5
4230
 10
888.704
 20
148.515
 30
-8.60000e-15
  70
    32
  0
VERTEX
  8
0
  5
4231
 10
888.685
 20
148.518
 30
-8.60000e-15
  70
    32
  0
VERTEX
  8
0
  5
4232
 10
888.667
 20
148.521
 30
-8.60000e-15
  70
    32
  0
VERTEX
  8
0
  5
4233
 10
888.648
 20
148.524
 30
-8.60000e-15
  70
    32
  0
VERTEX
  8
0
  5
4234
 10
888.630
 20
148.527
 30
-8.60000e-15
  70
    32
  0
VERTEX
  8
0
  5
4235
 10
888.611
 20
148.531
 30
-8.60000e-15
  70
    32
  0
VERTEX
  8
0
  5
4236
 10
888.593
 20
148.534
 30
-8.60000e-15
  70
    32
  0
VERTEX
  8
0
  5
4237
 10
888.575
 20
148.537
 30
-8.60000e-15
  70
    32
  0
VERTEX
  8
0
  5
4238
 10
888.556
 20
148.540
 30
-8.60000e-15
  70
    32
  0
VERTEX
  8
0
  5
4239
 10
888.538
 20
148.544
 30
-8.60000e-15
  70
    32
  0
VERTEX
  8
0
  5
423A
 10
888.519
 20
148.547
 30
-8.60000e-15
  70
    32
  0
VERTEX
  8
0
  5
423B
 10
888.501
 20
148.551
 30
-8.60000e-15
  70
    32
  0
VERTEX
  8
0
  5
423C
 10
888.483
 20
148.554
 30
-8.60004e-15
  70
    32
  0
VERTEX
  8
0
  5
423D
 10
888.464
 20
148.558
 30
-8.60016e-15
  70
    32
  0
VERTEX
  8
0
  5
423E
 10
888.446
 20
148.561
 30
-8.60036e-15
  70
    32
  0
VERTEX
  8
0
  5
423F
 10
888.427
 20
148.565
 30
-8.60065e-15
  70
    32
  0
VERTEX
  8
0
  5
4240
 10
888.409
 20
148.568
 30
-8.60101e-15
  70
    32
  0
VERTEX
  8
0
  5
4241
 10
888.391
 20
148.572
 30
-8.60146e-15
  70
    32
  0
VERTEX
  8
0
  5
4242
 10
888.372
 20
148.576
 30
-8.60198e-15
  70
    32
  0
VERTEX
  8
0
  5
4243
 10
888.354
 20
148.579
 30
-8.60257e-15
  70
    32
  0
VERTEX
  8
0
  5
4244
 10
888.336
 20
148.583
 30
-8.60323e-15
  70
    32
  0
VERTEX
  8
0
  5
4245
 10
888.317
 20
148.587
 30
-8.60397e-15
  70
    32
  0
VERTEX
  8
0
  5
4246
 10
888.299
 20
148.591
 30
-8.60477e-15
  70
    32
  0
VERTEX
  8
0
  5
4247
 10
888.281
 20
148.595
 30
-8.60563e-15
  70
    32
  0
VERTEX
  8
0
  5
4248
 10
888.263
 20
148.599
 30
-8.60656e-15
  70
    32
  0
VERTEX
  8
0
  5
4249
 10
888.244
 20
148.603
 30
-8.60754e-15
  70
    32
  0
VERTEX
  8
0
  5
424A
 10
888.226
 20
148.607
 30
-8.60859e-15
  70
    32
  0
VERTEX
  8
0
  5
424B
 10
888.208
 20
148.611
 30
-8.60969e-15
  70
    32
  0
VERTEX
  8
0
  5
424C
 10
888.190
 20
148.615
 30
-8.61085e-15
  70
    32
  0
VERTEX
  8
0
  5
424D
 10
888.171
 20
148.619
 30
-8.61205e-15
  70
    32
  0
VERTEX
  8
0
  5
424E
 10
888.153
 20
148.624
 30
-8.61331e-15
  70
    32
  0
VERTEX
  8
0
  5
424F
 10
888.135
 20
148.628
 30
-8.61462e-15
  70
    32
  0
VERTEX
  8
0
  5
4250
 10
888.117
 20
148.632
 30
-8.61597e-15
  70
    32
  0
VERTEX
  8
0
  5
4251
 10
888.099
 20
148.636
 30
-8.61736e-15
  70
    32
  0
VERTEX
  8
0
  5
4252
 10
888.080
 20
148.641
 30
-8.61880e-15
  70
    32
  0
VERTEX
  8
0
  5
4253
 10
888.062
 20
148.645
 30
-8.62027e-15
  70
    32
  0
VERTEX
  8
0
  5
4254
 10
888.044
 20
148.650
 30
-8.62179e-15
  70
    32
  0
VERTEX
  8
0
  5
4255
 10
888.026
 20
148.654
 30
-8.62333e-15
  70
    32
  0
VERTEX
  8
0
  5
4256
 10
888.008
 20
148.659
 30
-8.62491e-15
  70
    32
  0
VERTEX
  8
0
  5
4257
 10
887.990
 20
148.663
 30
-8.62652e-15
  70
    32
  0
VERTEX
  8
0
  5
4258
 10
887.972
 20
148.668
 30
-8.62816e-15
  70
    32
  0
VERTEX
  8
0
  5
4259
 10
887.954
 20
148.672
 30
-8.62983e-15
  70
    32
  0
VERTEX
  8
0
  5
425A
 10
887.936
 20
148.677
 30
-8.63152e-15
  70
    32
  0
VERTEX
  8
0
  5
425B
 10
887.918
 20
148.682
 30
-8.63323e-15
  70
    32
  0
VERTEX
  8
0
  5
425C
 10
887.900
 20
148.687
 30
-8.63496e-15
  70
    32
  0
VERTEX
  8
0
  5
425D
 10
887.881
 20
148.691
 30
-8.63671e-15
  70
    32
  0
VERTEX
  8
0
  5
425E
 10
887.863
 20
148.696
 30
-8.63847e-15
  70
    32
  0
VERTEX
  8
0
  5
425F
 10
887.845
 20
148.701
 30
-8.64025e-15
  70
    32
  0
VERTEX
  8
0
  5
4260
 10
887.828
 20
148.706
 30
-8.64204e-15
  70
    32
  0
VERTEX
  8
0
  5
4261
 10
887.810
 20
148.711
 30
-8.64384e-15
  70
    32
  0
VERTEX
  8
0
  5
4262
 10
887.792
 20
148.716
 30
-8.64565e-15
  70
    32
  0
VERTEX
  8
0
  5
4263
 10
887.774
 20
148.721
 30
-8.64746e-15
  70
    32
  0
VERTEX
  8
0
  5
4264
 10
887.756
 20
148.726
 30
-8.64928e-15
  70
    32
  0
VERTEX
  8
0
  5
4265
 10
887.738
 20
148.731
 30
-8.65109e-15
  70
    32
  0
VERTEX
  8
0
  5
4266
 10
887.720
 20
148.736
 30
-8.65291e-15
  70
    32
  0
VERTEX
  8
0
  5
4267
 10
887.702
 20
148.742
 30
-8.65472e-15
  70
    32
  0
VERTEX
  8
0
  5
4268
 10
887.684
 20
148.747
 30
-8.65652e-15
  70
    32
  0
VERTEX
  8
0
  5
4269
 10
887.666
 20
148.752
 30
-8.65832e-15
  70
    32
  0
VERTEX
  8
0
  5
426A
 10
887.648
 20
148.757
 30
-8.66011e-15
  70
    32
  0
VERTEX
  8
0
  5
426B
 10
887.631
 20
148.763
 30
-8.66189e-15
  70
    32
  0
VERTEX
  8
0
  5
426C
 10
887.613
 20
148.768
 30
-8.66365e-15
  70
    32
  0
VERTEX
  8
0
  5
426D
 10
887.595
 20
148.774
 30
-8.66539e-15
  70
    32
  0
VERTEX
  8
0
  5
426E
 10
887.577
 20
148.779
 30
-8.66712e-15
  70
    32
  0
VERTEX
  8
0
  5
426F
 10
887.560
 20
148.784
 30
-8.66883e-15
  70
    32
  0
VERTEX
  8
0
  5
4270
 10
887.542
 20
148.790
 30
-8.67051e-15
  70
    32
  0
VERTEX
  8
0
  5
4271
 10
887.524
 20
148.796
 30
-8.67217e-15
  70
    32
  0
VERTEX
  8
0
  5
4272
 10
887.506
 20
148.801
 30
-8.67381e-15
  70
    32
  0
VERTEX
  8
0
  5
4273
 10
887.489
 20
148.807
 30
-8.67541e-15
  70
    32
  0
VERTEX
  8
0
  5
4274
 10
887.471
 20
148.812
 30
-8.67698e-15
  70
    32
  0
VERTEX
  8
0
  5
4275
 10
887.453
 20
148.818
 30
-8.67852e-15
  70
    32
  0
VERTEX
  8
0
  5
4276
 10
887.436
 20
148.824
 30
-8.68003e-15
  70
    32
  0
VERTEX
  8
0
  5
4277
 10
887.418
 20
148.830
 30
-8.68150e-15
  70
    32
  0
VERTEX
  8
0
  5
4278
 10
887.401
 20
148.835
 30
-8.68292e-15
  70
    32
  0
VERTEX
  8
0
  5
4279
 10
887.383
 20
148.841
 30
-8.68431e-15
  70
    32
  0
VERTEX
  8
0
  5
427A
 10
887.365
 20
148.847
 30
-8.68565e-15
  70
    32
  0
VERTEX
  8
0
  5
427B
 10
887.348
 20
148.853
 30
-8.68695e-15
  70
    32
  0
VERTEX
  8
0
  5
427C
 10
887.330
 20
148.859
 30
-8.68819e-15
  70
    32
  0
VERTEX
  8
0
  5
427D
 10
887.313
 20
148.865
 30
-8.68939e-15
  70
    32
  0
VERTEX
  8
0
  5
427E
 10
887.295
 20
148.871
 30
-8.69054e-15
  70
    32
  0
VERTEX
  8
0
  5
427F
 10
887.278
 20
148.877
 30
-8.69163e-15
  70
    32
  0
VERTEX
  8
0
  5
4280
 10
887.260
 20
148.883
 30
-8.69266e-15
  70
    32
  0
VERTEX
  8
0
  5
4281
 10
887.243
 20
148.889
 30
-8.69364e-15
  70
    32
  0
VERTEX
  8
0
  5
4282
 10
887.226
 20
148.896
 30
-8.69455e-15
  70
    32
  0
VERTEX
  8
0
  5
4283
 10
887.208
 20
148.902
 30
-8.69540e-15
  70
    32
  0
VERTEX
  8
0
  5
4284
 10
887.191
 20
148.908
 30
-8.69619e-15
  70
    32
  0
VERTEX
  8
0
  5
4285
 10
887.174
 20
148.914
 30
-8.69691e-15
  70
    32
  0
VERTEX
  8
0
  5
4286
 10
887.156
 20
148.921
 30
-8.69756e-15
  70
    32
  0
VERTEX
  8
0
  5
4287
 10
887.139
 20
148.927
 30
-8.69813e-15
  70
    32
  0
VERTEX
  8
0
  5
4288
 10
887.122
 20
148.933
 30
-8.69864e-15
  70
    32
  0
VERTEX
  8
0
  5
4289
 10
887.104
 20
148.940
 30
-8.69907e-15
  70
    32
  0
VERTEX
  8
0
  5
428A
 10
887.087
 20
148.946
 30
-8.69942e-15
  70
    32
  0
VERTEX
  8
0
  5
428B
 10
887.070
 20
148.953
 30
-8.69969e-15
  70
    32
  0
VERTEX
  8
0
  5
428C
 10
887.053
 20
148.959
 30
-8.69987e-15
  70
    32
  0
VERTEX
  8
0
  5
428D
 10
887.036
 20
148.966
 30
-8.69998e-15
  70
    32
  0
VERTEX
  8
0
  5
428E
 10
887.018
 20
148.972
 30
-8.70001e-15
  70
    32
  0
VERTEX
  8
0
  5
428F
 10
887.001
 20
148.979
 30
-8.70015e-15
  70
    32
  0
VERTEX
  8
0
  5
4290
 10
886.984
 20
148.986
 30
-8.70046e-15
  70
    32
  0
VERTEX
  8
0
  5
4291
 10
886.967
 20
148.992
 30
-8.70093e-15
  70
    32
  0
VERTEX
  8
0
  5
4292
 10
886.950
 20
148.999
 30
-8.70155e-15
  70
    32
  0
VERTEX
  8
0
  5
4293
 10
886.933
 20
149.006
 30
-8.70233e-15
  70
    32
  0
VERTEX
  8
0
  5
4294
 10
886.916
 20
149.013
 30
-8.70325e-15
  70
    32
  0
VERTEX
  8
0
  5
4295
 10
886.899
 20
149.020
 30
-8.70431e-15
  70
    32
  0
VERTEX
  8
0
  5
4296
 10
886.882
 20
149.026
 30
-8.70551e-15
  70
    32
  0
VERTEX
  8
0
  5
4297
 10
886.865
 20
149.033
 30
-8.70682e-15
  70
    32
  0
VERTEX
  8
0
  5
4298
 10
886.848
 20
149.040
 30
-8.70826e-15
  70
    32
  0
VERTEX
  8
0
  5
4299
 10
886.831
 20
149.047
 30
-8.70982e-15
  70
    32
  0
VERTEX
  8
0
  5
429A
 10
886.814
 20
149.054
 30
-8.71148e-15
  70
    32
  0
VERTEX
  8
0
  5
429B
 10
886.797
 20
149.061
 30
-8.71324e-15
  70
    32
  0
VERTEX
  8
0
  5
429C
 10
886.780
 20
149.068
 30
-8.71510e-15
  70
    32
  0
VERTEX
  8
0
  5
429D
 10
886.764
 20
149.075
 30
-8.71705e-15
  70
    32
  0
VERTEX
  8
0
  5
429E
 10
886.747
 20
149.082
 30
-8.71908e-15
  70
    32
  0
VERTEX
  8
0
  5
429F
 10
886.730
 20
149.090
 30
-8.72119e-15
  70
    32
  0
VERTEX
  8
0
  5
42A0
 10
886.713
 20
149.097
 30
-8.72338e-15
  70
    32
  0
VERTEX
  8
0
  5
42A1
 10
886.697
 20
149.104
 30
-8.72562e-15
  70
    32
  0
VERTEX
  8
0
  5
42A2
 10
886.680
 20
149.111
 30
-8.72793e-15
  70
    32
  0
VERTEX
  8
0
  5
42A3
 10
886.663
 20
149.119
 30
-8.73029e-15
  70
    32
  0
VERTEX
  8
0
  5
42A4
 10
886.647
 20
149.126
 30
-8.73270e-15
  70
    32
  0
VERTEX
  8
0
  5
42A5
 10
886.630
 20
149.133
 30
-8.73515e-15
  70
    32
  0
VERTEX
  8
0
  5
42A6
 10
886.613
 20
149.141
 30
-8.73764e-15
  70
    32
  0
VERTEX
  8
0
  5
42A7
 10
886.597
 20
149.148
 30
-8.74015e-15
  70
    32
  0
VERTEX
  8
0
  5
42A8
 10
886.580
 20
149.155
 30
-8.74269e-15
  70
    32
  0
VERTEX
  8
0
  5
42A9
 10
886.564
 20
149.163
 30
-8.74525e-15
  70
    32
  0
VERTEX
  8
0
  5
42AA
 10
886.547
 20
149.170
 30
-8.74782e-15
  70
    32
  0
VERTEX
  8
0
  5
42AB
 10
886.531
 20
149.178
 30
-8.75039e-15
  70
    32
  0
VERTEX
  8
0
  5
42AC
 10
886.514
 20
149.185
 30
-8.75296e-15
  70
    32
  0
VERTEX
  8
0
  5
42AD
 10
886.498
 20
149.193
 30
-8.75552e-15
  70
    32
  0
VERTEX
  8
0
  5
42AE
 10
886.481
 20
149.201
 30
-8.75808e-15
  70
    32
  0
VERTEX
  8
0
  5
42AF
 10
886.465
 20
149.208
 30
-8.76061e-15
  70
    32
  0
VERTEX
  8
0
  5
42B0
 10
886.448
 20
149.216
 30
-8.76311e-15
  70
    32
  0
VERTEX
  8
0
  5
42B1
 10
886.432
 20
149.224
 30
-8.76559e-15
  70
    32
  0
VERTEX
  8
0
  5
42B2
 10
886.416
 20
149.231
 30
-8.76803e-15
  70
    32
  0
VERTEX
  8
0
  5
42B3
 10
886.399
 20
149.239
 30
-8.77042e-15
  70
    32
  0
VERTEX
  8
0
  5
42B4
 10
886.383
 20
149.247
 30
-8.77277e-15
  70
    32
  0
VERTEX
  8
0
  5
42B5
 10
886.367
 20
149.255
 30
-8.77506e-15
  70
    32
  0
VERTEX
  8
0
  5
42B6
 10
886.351
 20
149.263
 30
-8.77729e-15
  70
    32
  0
VERTEX
  8
0
  5
42B7
 10
886.335
 20
149.270
 30
-8.77945e-15
  70
    32
  0
VERTEX
  8
0
  5
42B8
 10
886.318
 20
149.278
 30
-8.78154e-15
  70
    32
  0
VERTEX
  8
0
  5
42B9
 10
886.302
 20
149.286
 30
-8.78355e-15
  70
    32
  0
VERTEX
  8
0
  5
42BA
 10
886.286
 20
149.294
 30
-8.78547e-15
  70
    32
  0
VERTEX
  8
0
  5
42BB
 10
886.270
 20
149.302
 30
-8.78730e-15
  70
    32
  0
VERTEX
  8
0
  5
42BC
 10
886.254
 20
149.310
 30
-8.78903e-15
  70
    32
  0
VERTEX
  8
0
  5
42BD
 10
886.238
 20
149.318
 30
-8.79066e-15
  70
    32
  0
VERTEX
  8
0
  5
42BE
 10
886.222
 20
149.326
 30
-8.79218e-15
  70
    32
  0
VERTEX
  8
0
  5
42BF
 10
886.206
 20
149.334
 30
-8.79359e-15
  70
    32
  0
VERTEX
  8
0
  5
42C0
 10
886.190
 20
149.342
 30
-8.79487e-15
  70
    32
  0
VERTEX
  8
0
  5
42C1
 10
886.174
 20
149.351
 30
-8.79602e-15
  70
    32
  0
VERTEX
  8
0
  5
42C2
 10
886.158
 20
149.359
 30
-8.79704e-15
  70
    32
  0
VERTEX
  8
0
  5
42C3
 10
886.142
 20
149.367
 30
-8.79792e-15
  70
    32
  0
VERTEX
  8
0
  5
42C4
 10
886.126
 20
149.375
 30
-8.79865e-15
  70
    32
  0
VERTEX
  8
0
  5
42C5
 10
886.111
 20
149.383
 30
-8.79923e-15
  70
    32
  0
VERTEX
  8
0
  5
42C6
 10
886.095
 20
149.392
 30
-8.79966e-15
  70
    32
  0
VERTEX
  8
0
  5
42C7
 10
886.079
 20
149.400
 30
-8.79991e-15
  70
    32
  0
VERTEX
  8
0
  5
42C8
 10
886.063
 20
149.408
 30
-8.80000e-15
  70
    32
  0
SEQEND
  8
0
  5
42C9
  0
POLYLINE
  8
0
  5
42CA
  66
     1
 10
0.000000
 20
0.000000
 30
0.000000
  70
     8
  0
VERTEX
  8
0
  5
42CB
 10
793.106
 20
149.408
 30
-8.80000e-15
  70
    32
  0
VERTEX
  8
0
  5
42CC
 10
793.113
 20
149.401
 30
-8.79993e-15
  70
    32
  0
VERTEX
  8
0
  5
42CD
 10
793.120
 20
149.394
 30
-8.79973e-15
  70
    32
  0
VERTEX
  8
0
  5
42CE
 10
793.127
 20
149.387
 30
-8.79941e-15
  70
    32
  0
VERTEX
  8
0
  5
42CF
 10
793.133
 20
149.379
 30
-8.79896e-15
  70
    32
  0
VERTEX
  8
0
  5
42D0
 10
793.140
 20
149.372
 30
-8.79839e-15
  70
    32
  0
VERTEX
  8
0
  5
42D1
 10
793.147
 20
149.365
 30
-8.79771e-15
  70
    32
  0
VERTEX
  8
0
  5
42D2
 10
793.153
 20
149.358
 30
-8.79691e-15
  70
    32
  0
VERTEX
  8
0
  5
42D3
 10
793.160
 20
149.351
 30
-8.79601e-15
  70
    32
  0
VERTEX
  8
0
  5
42D4
 10
793.166
 20
149.343
 30
-8.79500e-15
  70
    32
  0
VERTEX
  8
0
  5
42D5
 10
793.173
 20
149.336
 30
-8.79390e-15
  70
    32
  0
VERTEX
  8
0
  5
42D6
 10
793.180
 20
149.329
 30
-8.79270e-15
  70
    32
  0
VERTEX
  8
0
  5
42D7
 10
793.186
 20
149.322
 30
-8.79141e-15
  70
    32
  0
VERTEX
  8
0
  5
42D8
 10
793.193
 20
149.315
 30
-8.79003e-15
  70
    32
  0
VERTEX
  8
0
  5
42D9
 10
793.199
 20
149.308
 30
-8.78858e-15
  70
    32
  0
VERTEX
  8
0
  5
42DA
 10
793.206
 20
149.301
 30
-8.78704e-15
  70
    32
  0
VERTEX
  8
0
  5
42DB
 10
793.212
 20
149.294
 30
-8.78543e-15
  70
    32
  0
VERTEX
  8
0
  5
42DC
 10
793.218
 20
149.287
 30
-8.78374e-15
  70
    32
  0
VERTEX
  8
0
  5
42DD
 10
793.225
 20
149.280
 30
-8.78200e-15
  70
    32
  0
VERTEX
  8
0
  5
42DE
 10
793.231
 20
149.273
 30
-8.78018e-15
  70
    32
  0
VERTEX
  8
0
  5
42DF
 10
793.238
 20
149.266
 30
-8.77832e-15
  70
    32
  0
VERTEX
  8
0
  5
42E0
 10
793.244
 20
149.259
 30
-8.77639e-15
  70
    32
  0
VERTEX
  8
0
  5
42E1
 10
793.250
 20
149.252
 30
-8.77442e-15
  70
    32
  0
VERTEX
  8
0
  5
42E2
 10
793.257
 20
149.246
 30
-8.77240e-15
  70
    32
  0
VERTEX
  8
0
  5
42E3
 10
793.263
 20
149.239
 30
-8.77034e-15
  70
    32
  0
VERTEX
  8
0
  5
42E4
 10
793.269
 20
149.232
 30
-8.76824e-15
  70
    32
  0
VERTEX
  8
0
  5
42E5
 10
793.275
 20
149.225
 30
-8.76611e-15
  70
    32
  0
VERTEX
  8
0
  5
42E6
 10
793.282
 20
149.218
 30
-8.76395e-15
  70
    32
  0
VERTEX
  8
0
  5
42E7
 10
793.288
 20
149.212
 30
-8.76176e-15
  70
    32
  0
VERTEX
  8
0
  5
42E8
 10
793.294
 20
149.205
 30
-8.75955e-15
  70
    32
  0
VERTEX
  8
0
  5
42E9
 10
793.300
 20
149.198
 30
-8.75733e-15
  70
    32
  0
VERTEX
  8
0
  5
42EA
 10
793.306
 20
149.192
 30
-8.75509e-15
  70
    32
  0
VERTEX
  8
0
  5
42EB
 10
793.313
 20
149.185
 30
-8.75284e-15
  70
    32
  0
VERTEX
  8
0
  5
42EC
 10
793.319
 20
149.178
 30
-8.75058e-15
  70
    32
  0
VERTEX
  8
0
  5
42ED
 10
793.325
 20
149.172
 30
-8.74833e-15
  70
    32
  0
VERTEX
  8
0
  5
42EE
 10
793.331
 20
149.165
 30
-8.74608e-15
  70
    32
  0
VERTEX
  8
0
  5
42EF
 10
793.337
 20
149.159
 30
-8.74383e-15
  70
    32
  0
VERTEX
  8
0
  5
42F0
 10
793.343
 20
149.152
 30
-8.74160e-15
  70
    32
  0
VERTEX
  8
0
  5
42F1
 10
793.349
 20
149.146
 30
-8.73938e-15
  70
    32
  0
VERTEX
  8
0
  5
42F2
 10
793.355
 20
149.139
 30
-8.73718e-15
  70
    32
  0
VERTEX
  8
0
  5
42F3
 10
793.361
 20
149.133
 30
-8.73501e-15
  70
    32
  0
VERTEX
  8
0
  5
42F4
 10
793.367
 20
149.126
 30
-8.73286e-15
  70
    32
  0
VERTEX
  8
0
  5
42F5
 10
793.373
 20
149.120
 30
-8.73074e-15
  70
    32
  0
VERTEX
  8
0
  5
42F6
 10
793.378
 20
149.113
 30
-8.72866e-15
  70
    32
  0
VERTEX
  8
0
  5
42F7
 10
793.384
 20
149.107
 30
-8.72662e-15
  70
    32
  0
VERTEX
  8
0
  5
42F8
 10
793.390
 20
149.101
 30
-8.72462e-15
  70
    32
  0
VERTEX
  8
0
  5
42F9
 10
793.396
 20
149.094
 30
-8.72268e-15
  70
    32
  0
VERTEX
  8
0
  5
42FA
 10
793.402
 20
149.088
 30
-8.72078e-15
  70
    32
  0
VERTEX
  8
0
  5
42FB
 10
793.407
 20
149.082
 30
-8.71894e-15
  70
    32
  0
VERTEX
  8
0
  5
42FC
 10
793.413
 20
149.076
 30
-8.71715e-15
  70
    32
  0
VERTEX
  8
0
  5
42FD
 10
793.419
 20
149.069
 30
-8.71544e-15
  70
    32
  0
VERTEX
  8
0
  5
42FE
 10
793.425
 20
149.063
 30
-8.71379e-15
  70
    32
  0
VERTEX
  8
0
  5
42FF
 10
793.430
 20
149.057
 30
-8.71221e-15
  70
    32
  0
VERTEX
  8
0
  5
4300
 10
793.436
 20
149.051
 30
-8.71071e-15
  70
    32
  0
VERTEX
  8
0
  5
4301
 10
793.442
 20
149.045
 30
-8.70929e-15
  70
    32
  0
VERTEX
  8
0
  5
4302
 10
793.447
 20
149.039
 30
-8.70796e-15
  70
    32
  0
VERTEX
  8
0
  5
4303
 10
793.453
 20
149.033
 30
-8.70671e-15
  70
    32
  0
VERTEX
  8
0
  5
4304
 10
793.458
 20
149.027
 30
-8.70556e-15
  70
    32
  0
VERTEX
  8
0
  5
4305
 10
793.464
 20
149.021
 30
-8.70450e-15
  70
    32
  0
VERTEX
  8
0
  5
4306
 10
793.469
 20
149.015
 30
-8.70354e-15
  70
    32
  0
VERTEX
  8
0
  5
4307
 10
793.475
 20
149.009
 30
-8.70269e-15
  70
    32
  0
VERTEX
  8
0
  5
4308
 10
793.480
 20
149.003
 30
-8.70195e-15
  70
    32
  0
VERTEX
  8
0
  5
4309
 10
793.486
 20
148.997
 30
-8.70132e-15
  70
    32
  0
VERTEX
  8
0
  5
430A
 10
793.491
 20
148.991
 30
-8.70081e-15
  70
    32
  0
VERTEX
  8
0
  5
430B
 10
793.497
 20
148.985
 30
-8.70042e-15
  70
    32
  0
VERTEX
  8
0
  5
430C
 10
793.502
 20
148.979
 30
-8.70015e-15
  70
    32
  0
VERTEX
  8
0
  5
430D
 10
793.507
 20
148.973
 30
-8.70002e-15
  70
    32
  0
VERTEX
  8
0
  5
430E
 10
793.513
 20
148.968
 30
-8.69999e-15
  70
    32
  0
VERTEX
  8
0
  5
430F
 10
793.518
 20
148.962
 30
-8.69993e-15
  70
    32
  0
VERTEX
  8
0
  5
4310
 10
793.523
 20
148.956
 30
-8.69980e-15
  70
    32
  0
VERTEX
  8
0
  5
4311
 10
793.528
 20
148.950
 30
-8.69960e-15
  70
    32
  0
VERTEX
  8
0
  5
4312
 10
793.534
 20
148.945
 30
-8.69934e-15
  70
    32
  0
VERTEX
  8
0
  5
4313
 10
793.539
 20
148.939
 30
-8.69902e-15
  70
    32
  0
VERTEX
  8
0
  5
4314
 10
793.544
 20
148.934
 30
-8.69865e-15
  70
    32
  0
VERTEX
  8
0
  5
4315
 10
793.549
 20
148.928
 30
-8.69821e-15
  70
    32
  0
VERTEX
  8
0
  5
4316
 10
793.554
 20
148.922
 30
-8.69772e-15
  70
    32
  0
VERTEX
  8
0
  5
4317
 10
793.559
 20
148.917
 30
-8.69717e-15
  70
    32
  0
VERTEX
  8
0
  5
4318
 10
793.564
 20
148.911
 30
-8.69656e-15
  70
    32
  0
VERTEX
  8
0
  5
4319
 10
793.570
 20
148.906
 30
-8.69591e-15
  70
    32
  0
VERTEX
  8
0
  5
431A
 10
793.575
 20
148.900
 30
-8.69520e-15
  70
    32
  0
VERTEX
  8
0
  5
431B
 10
793.580
 20
148.895
 30
-8.69445e-15
  70
    32
  0
VERTEX
  8
0
  5
431C
 10
793.585
 20
148.889
 30
-8.69364e-15
  70
    32
  0
VERTEX
  8
0
  5
431D
 10
793.589
 20
148.884
 30
-8.69279e-15
  70
    32
  0
VERTEX
  8
0
  5
431E
 10
793.594
 20
148.879
 30
-8.69189e-15
  70
    32
  0
VERTEX
  8
0
  5
431F
 10
793.599
 20
148.873
 30
-8.69095e-15
  70
    32
  0
VERTEX
  8
0
  5
4320
 10
793.604
 20
148.868
 30
-8.68997e-15
  70
    32
  0
VERTEX
  8
0
  5
4321
 10
793.609
 20
148.863
 30
-8.68895e-15
  70
    32
  0
VERTEX
  8
0
  5
4322
 10
793.614
 20
148.858
 30
-8.68788e-15
  70
    32
  0
VERTEX
  8
0
  5
4323
 10
793.619
 20
148.852
 30
-8.68678e-15
  70
    32
  0
VERTEX
  8
0
  5
4324
 10
793.623
 20
148.847
 30
-8.68564e-15
  70
    32
  0
VERTEX
  8
0
  5
4325
 10
793.628
 20
148.842
 30
-8.68447e-15
  70
    32
  0
VERTEX
  8
0
  5
4326
 10
793.633
 20
148.837
 30
-8.68326e-15
  70
    32
  0
VERTEX
  8
0
  5
4327
 10
793.638
 20
148.832
 30
-8.68202e-15
  70
    32
  0
VERTEX
  8
0
  5
4328
 10
793.642
 20
148.827
 30
-8.68075e-15
  70
    32
  0
VERTEX
  8
0
  5
4329
 10
793.647
 20
148.822
 30
-8.67945e-15
  70
    32
  0
VERTEX
  8
0
  5
432A
 10
793.651
 20
148.817
 30
-8.67812e-15
  70
    32
  0
VERTEX
  8
0
  5
432B
 10
793.656
 20
148.812
 30
-8.67676e-15
  70
    32
  0
VERTEX
  8
0
  5
432C
 10
793.661
 20
148.807
 30
-8.67538e-15
  70
    32
  0
VERTEX
  8
0
  5
432D
 10
793.665
 20
148.802
 30
-8.67398e-15
  70
    32
  0
VERTEX
  8
0
  5
432E
 10
793.670
 20
148.797
 30
-8.67255e-15
  70
    32
  0
VERTEX
  8
0
  5
432F
 10
793.674
 20
148.792
 30
-8.67110e-15
  70
    32
  0
VERTEX
  8
0
  5
4330
 10
793.679
 20
148.787
 30
-8.66963e-15
  70
    32
  0
VERTEX
  8
0
  5
4331
 10
793.683
 20
148.782
 30
-8.66815e-15
  70
    32
  0
VERTEX
  8
0
  5
4332
 10
793.687
 20
148.777
 30
-8.66665e-15
  70
    32
  0
VERTEX
  8
0
  5
4333
 10
793.692
 20
148.773
 30
-8.66513e-15
  70
    32
  0
VERTEX
  8
0
  5
4334
 10
793.696
 20
148.768
 30
-8.66360e-15
  70
    32
  0
VERTEX
  8
0
  5
4335
 10
793.700
 20
148.763
 30
-8.66205e-15
  70
    32
  0
VERTEX
  8
0
  5
4336
 10
793.705
 20
148.759
 30
-8.66050e-15
  70
    32
  0
VERTEX
  8
0
  5
4337
 10
793.709
 20
148.754
 30
-8.65893e-15
  70
    32
  0
VERTEX
  8
0
  5
4338
 10
793.713
 20
148.749
 30
-8.65736e-15
  70
    32
  0
VERTEX
  8
0
  5
4339
 10
793.717
 20
148.745
 30
-8.65578e-15
  70
    32
  0
VERTEX
  8
0
  5
433A
 10
793.722
 20
148.740
 30
-8.65420e-15
  70
    32
  0
VERTEX
  8
0
  5
433B
 10
793.726
 20
148.736
 30
-8.65261e-15
  70
    32
  0
VERTEX
  8
0
  5
433C
 10
793.730
 20
148.731
 30
-8.65102e-15
  70
    32
  0
VERTEX
  8
0
  5
433D
 10
793.734
 20
148.727
 30
-8.64943e-15
  70
    32
  0
VERTEX
  8
0
  5
433E
 10
793.738
 20
148.722
 30
-8.64783e-15
  70
    32
  0
VERTEX
  8
0
  5
433F
 10
793.742
 20
148.718
 30
-8.64625e-15
  70
    32
  0
VERTEX
  8
0
  5
4340
 10
793.746
 20
148.713
 30
-8.64466e-15
  70
    32
  0
VERTEX
  8
0
  5
4341
 10
793.750
 20
148.709
 30
-8.64308e-15
  70
    32
  0
VERTEX
  8
0
  5
4342
 10
793.754
 20
148.705
 30
-8.64150e-15
  70
    32
  0
VERTEX
  8
0
  5
4343
 10
793.758
 20
148.700
 30
-8.63994e-15
  70
    32
  0
VERTEX
  8
0
  5
4344
 10
793.762
 20
148.696
 30
-8.63838e-15
  70
    32
  0
VERTEX
  8
0
  5
4345
 10
793.766
 20
148.692
 30
-8.63683e-15
  70
    32
  0
VERTEX
  8
0
  5
4346
 10
793.770
 20
148.688
 30
-8.63530e-15
  70
    32
  0
VERTEX
  8
0
  5
4347
 10
793.774
 20
148.683
 30
-8.63377e-15
  70
    32
  0
VERTEX
  8
0
  5
4348
 10
793.777
 20
148.679
 30
-8.63227e-15
  70
    32
  0
VERTEX
  8
0
  5
4349
 10
793.781
 20
148.675
 30
-8.63078e-15
  70
    32
  0
VERTEX
  8
0
  5
434A
 10
793.785
 20
148.671
 30
-8.62930e-15
  70
    32
  0
VERTEX
  8
0
  5
434B
 10
793.789
 20
148.667
 30
-8.62785e-15
  70
    32
  0
VERTEX
  8
0
  5
434C
 10
793.792
 20
148.663
 30
-8.62642e-15
  70
    32
  0
VERTEX
  8
0
  5
434D
 10
793.796
 20
148.659
 30
-8.62501e-15
  70
    32
  0
VERTEX
  8
0
  5
434E
 10
793.800
 20
148.655
 30
-8.62362e-15
  70
    32
  0
VERTEX
  8
0
  5
434F
 10
793.803
 20
148.651
 30
-8.62225e-15
  70
    32
  0
VERTEX
  8
0
  5
4350
 10
793.807
 20
148.647
 30
-8.62092e-15
  70
    32
  0
VERTEX
  8
0
  5
4351
 10
793.811
 20
148.643
 30
-8.61961e-15
  70
    32
  0
VERTEX
  8
0
  5
4352
 10
793.814
 20
148.639
 30
-8.61833e-15
  70
    32
  0
VERTEX
  8
0
  5
4353
 10
793.818
 20
148.636
 30
-8.61708e-15
  70
    32
  0
VERTEX
  8
0
  5
4354
 10
793.821
 20
148.632
 30
-8.61586e-15
  70
    32
  0
VERTEX
  8
0
  5
4355
 10
793.824
 20
148.628
 30
-8.61468e-15
  70
    32
  0
VERTEX
  8
0
  5
4356
 10
793.828
 20
148.624
 30
-8.61353e-15
  70
    32
  0
VERTEX
  8
0
  5
4357
 10
793.831
 20
148.621
 30
-8.61242e-15
  70
    32
  0
VERTEX
  8
0
  5
4358
 10
793.835
 20
148.617
 30
-8.61134e-15
  70
    32
  0
VERTEX
  8
0
  5
4359
 10
793.838
 20
148.613
 30
-8.61031e-15
  70
    32
  0
VERTEX
  8
0
  5
435A
 10
793.841
 20
148.610
 30
-8.60932e-15
  70
    32
  0
VERTEX
  8
0
  5
435B
 10
793.845
 20
148.606
 30
-8.60836e-15
  70
    32
  0
VERTEX
  8
0
  5
435C
 10
793.848
 20
148.603
 30
-8.60745e-15
  70
    32
  0
VERTEX
  8
0
  5
435D
 10
793.851
 20
148.599
 30
-8.60659e-15
  70
    32
  0
VERTEX
  8
0
  5
435E
 10
793.854
 20
148.596
 30
-8.60577e-15
  70
    32
  0
VERTEX
  8
0
  5
435F
 10
793.857
 20
148.592
 30
-8.60500e-15
  70
    32
  0
VERTEX
  8
0
  5
4360
 10
793.860
 20
148.589
 30
-8.60428e-15
  70
    32
  0
VERTEX
  8
0
  5
4361
 10
793.864
 20
148.585
 30
-8.60361e-15
  70
    32
  0
VERTEX
  8
0
  5
4362
 10
793.867
 20
148.582
 30
-8.60300e-15
  70
    32
  0
VERTEX
  8
0
  5
4363
 10
793.870
 20
148.579
 30
-8.60243e-15
  70
    32
  0
VERTEX
  8
0
  5
4364
 10
793.873
 20
148.575
 30
-8.60192e-15
  70
    32
  0
VERTEX
  8
0
  5
4365
 10
793.876
 20
148.572
 30
-8.60147e-15
  70
    32
  0
VERTEX
  8
0
  5
4366
 10
793.879
 20
148.569
 30
-8.60107e-15
  70
    32
  0
VERTEX
  8
0
  5
4367
 10
793.882
 20
148.566
 30
-8.60074e-15
  70
    32
  0
VERTEX
  8
0
  5
4368
 10
793.884
 20
148.562
 30
-8.60046e-15
  70
    32
  0
VERTEX
  8
0
  5
4369
 10
793.887
 20
148.559
 30
-8.60025e-15
  70
    32
  0
VERTEX
  8
0
  5
436A
 10
793.890
 20
148.556
 30
-8.60010e-15
  70
    32
  0
VERTEX
  8
0
  5
436B
 10
793.893
 20
148.553
 30
-8.60002e-15
  70
    32
  0
VERTEX
  8
0
  5
436C
 10
793.896
 20
148.550
 30
-8.60000e-15
  70
    32
  0
VERTEX
  8
0
  5
436D
 10
793.899
 20
148.547
 30
-8.60000e-15
  70
    32
  0
VERTEX
  8
0
  5
436E
 10
793.901
 20
148.544
 30
-8.60000e-15
  70
    32
  0
VERTEX
  8
0
  5
436F
 10
793.904
 20
148.541
 30
-8.60000e-15
  70
    32
  0
VERTEX
  8
0
  5
4370
 10
793.907
 20
148.538
 30
-8.60000e-15
  70
    32
  0
VERTEX
  8
0
  5
4371
 10
793.909
 20
148.535
 30
-8.60000e-15
  70
    32
  0
VERTEX
  8
0
  5
4372
 10
793.912
 20
148.533
 30
-8.60000e-15
  70
    32
  0
VERTEX
  8
0
  5
4373
 10
793.914
 20
148.530
 30
-8.60000e-15
  70
    32
  0
VERTEX
  8
0
  5
4374
 10
793.917
 20
148.527
 30
-8.60000e-15
  70
    32
  0
VERTEX
  8
0
  5
4375
 10
793.919
 20
148.524
 30
-8.60000e-15
  70
    32
  0
VERTEX
  8
0
  5
4376
 10
793.922
 20
148.522
 30
-8.60000e-15
  70
    32
  0
VERTEX
  8
0
  5
4377
 10
793.924
 20
148.519
 30
-8.60000e-15
  70
    32
  0
VERTEX
  8
0
  5
4378
 10
793.927
 20
148.516
 30
-8.60000e-15
  70
    32
  0
VERTEX
  8
0
  5
4379
 10
793.929
 20
148.514
 30
-8.60000e-15
  70
    32
  0
VERTEX
  8
0
  5
437A
 10
793.932
 20
148.511
 30
-8.60000e-15
  70
    32
  0
VERTEX
  8
0
  5
437B
 10
793.934
 20
148.508
 30
-8.60000e-15
  70
    32
  0
VERTEX
  8
0
  5
437C
 10
793.936
 20
148.506
 30
-8.60000e-15
  70
    32
  0
VERTEX
  8
0
  5
437D
 10
793.939
 20
148.503
 30
-8.60000e-15
  70
    32
  0
VERTEX
  8
0
  5
437E
 10
793.941
 20
148.501
 30
-8.60000e-15
  70
    32
  0
VERTEX
  8
0
  5
437F
 10
793.943
 20
148.499
 30
-8.60000e-15
  70
    32
  0
VERTEX
  8
0
  5
4380
 10
793.945
 20
148.496
 30
-8.60000e-15
  70
    32
  0
VERTEX
  8
0
  5
4381
 10
793.947
 20
148.494
 30
-8.60000e-15
  70
    32
  0
VERTEX
  8
0
  5
4382
 10
793.949
 20
148.491
 30
-8.60000e-15
  70
    32
  0
VERTEX
  8
0
  5
4383
 10
793.952
 20
148.489
 30
-8.60000e-15
  70
    32
  0
VERTEX
  8
0
  5
4384
 10
793.954
 20
148.487
 30
-8.60000e-15
  70
    32
  0
VERTEX
  8
0
  5
4385
 10
793.956
 20
148.485
 30
-8.60000e-15
  70
    32
  0
VERTEX
  8
0
  5
4386
 10
793.958
 20
148.482
 30
-8.60000e-15
  70
    32
  0
VERTEX
  8
0
  5
4387
 10
793.960
 20
148.480
 30
-8.60000e-15
  70
    32
  0
VERTEX
  8
0
  5
4388
 10
793.962
 20
148.478
 30
-8.60000e-15
  70
    32
  0
VERTEX
  8
0
  5
4389
 10
793.964
 20
148.476
 30
-8.60000e-15
  70
    32
  0
VERTEX
  8
0
  5
438A
 10
793.965
 20
148.474
 30
-8.60000e-15
  70
    32
  0
VERTEX
  8
0
  5
438B
 10
793.967
 20
148.472
 30
-8.60000e-15
  70
    32
  0
VERTEX
  8
0
  5
438C
 10
793.969
 20
148.470
 30
-8.60000e-15
  70
    32
  0
VERTEX
  8
0
  5
438D
 10
793.971
 20
148.468
 30
-8.60000e-15
  70
    32
  0
VERTEX
  8
0
  5
438E
 10
793.973
 20
148.466
 30
-8.60000e-15
  70
    32
  0
VERTEX
  8
0
  5
438F
 10
793.974
 20
148.464
 30
-8.60000e-15
  70
    32
  0
VERTEX
  8
0
  5
4390
 10
793.976
 20
148.462
 30
-8.60000e-15
  70
    32
  0
VERTEX
  8
0
  5
4391
 10
793.978
 20
148.460
 30
-8.60000e-15
  70
    32
  0
VERTEX
  8
0
  5
4392
 10
793.980
 20
148.459
 30
-8.60000e-15
  70
    32
  0
VERTEX
  8
0
  5
4393
 10
793.981
 20
148.457
 30
-8.60000e-15
  70
    32
  0
VERTEX
  8
0
  5
4394
 10
793.983
 20
148.455
 30
-8.60000e-15
  70
    32
  0
VERTEX
  8
0
  5
4395
 10
793.984
 20
148.453
 30
-8.60000e-15
  70
    32
  0
VERTEX
  8
0
  5
4396
 10
793.986
 20
148.452
 30
-8.60000e-15
  70
    32
  0
VERTEX
  8
0
  5
4397
 10
793.987
 20
148.450
 30
-8.60000e-15
  70
    32
  0
VERTEX
  8
0
  5
4398
 10
793.989
 20
148.448
 30
-8.60000e-15
  70
    32
  0
VERTEX
  8
0
  5
4399
 10
793.990
 20
148.447
 30
-8.60000e-15
  70
    32
  0
VERTEX
  8
0
  5
439A
 10
793.992
 20
148.445
 30
-8.60000e-15
  70
    32
  0
VERTEX
  8
0
  5
439B
 10
793.993
 20
148.444
 30
-8.60000e-15
  70
    32
  0
VERTEX
  8
0
  5
439C
 10
793.994
 20
148.442
 30
-8.60000e-15
  70
    32
  0
VERTEX
  8
0
  5
439D
 10
793.996
 20
148.441
 30
-8.60000e-15
  70
    32
  0
VERTEX
  8
0
  5
439E
 10
793.997
 20
148.439
 30
-8.60000e-15
  70
    32
  0
VERTEX
  8
0
  5
439F
 10
793.998
 20
148.438
 30
-8.60000e-15
  70
    32
  0
VERTEX
  8
0
  5
43A0
 10
794.000
 20
148.437
 30
-8.60000e-15
  70
    32
  0
VERTEX
  8
0
  5
43A1
 10
794.001
 20
148.435
 30
-8.60000e-15
  70
    32
  0
VERTEX
  8
0
  5
43A2
 10
794.002
 20
148.434
 30
-8.60000e-15
  70
    32
  0
VERTEX
  8
0
  5
43A3
 10
794.003
 20
148.433
 30
-8.60000e-15
  70
    32
  0
VERTEX
  8
0
  5
43A4
 10
794.004
 20
148.431
 30
-8.60000e-15
  70
    32
  0
VERTEX
  8
0
  5
43A5
 10
794.005
 20
148.430
 30
-8.60000e-15
  70
    32
  0
VERTEX
  8
0
  5
43A6
 10
794.007
 20
148.429
 30
-8.60000e-15
  70
    32
  0
VERTEX
  8
0
  5
43A7
 10
794.008
 20
148.428
 30
-8.60000e-15
  70
    32
  0
VERTEX
  8
0
  5
43A8
 10
794.009
 20
148.427
 30
-8.60000e-15
  70
    32
  0
VERTEX
  8
0
  5
43A9
 10
794.010
 20
148.426
 30
-8.60000e-15
  70
    32
  0
VERTEX
  8
0
  5
43AA
 10
794.011
 20
148.425
 30
-8.60000e-15
  70
    32
  0
VERTEX
  8
0
  5
43AB
 10
794.011
 20
148.424
 30
-8.60000e-15
  70
    32
  0
VERTEX
  8
0
  5
43AC
 10
794.012
 20
148.423
 30
-8.60000e-15
  70
    32
  0
VERTEX
  8
0
  5
43AD
 10
794.013
 20
148.422
 30
-8.60000e-15
  70
    32
  0
VERTEX
  8
0
  5
43AE
 10
794.014
 20
148.421
 30
-8.60000e-15
  70
    32
  0
VERTEX
  8
0
  5
43AF
 10
794.015
 20
148.420
 30
-8.60000e-15
  70
    32
  0
VERTEX
  8
0
  5
43B0
 10
794.016
 20
148.419
 30
-8.60000e-15
  70
    32
  0
VERTEX
  8
0
  5
43B1
 10
794.016
 20
148.418
 30
-8.60000e-15
  70
    32
  0
VERTEX
  8
0
  5
43B2
 10
794.017
 20
148.418
 30
-8.60000e-15
  70
    32
  0
VERTEX
  8
0
  5
43B3
 10
794.018
 20
148.417
 30
-8.60000e-15
  70
    32
  0
VERTEX
  8
0
  5
43B4
 10
794.018
 20
148.416
 30
-8.60000e-15
  70
    32
  0
VERTEX
  8
0
  5
43B5
 10
794.019
 20
148.415
 30
-8.60000e-15
  70
    32
  0
VERTEX
  8
0
  5
43B6
 10
794.020
 20
148.415
 30
-8.60000e-15
  70
    32
  0
VERTEX
  8
0
  5
43B7
 10
794.020
 20
148.414
 30
-8.60000e-15
  70
    32
  0
VERTEX
  8
0
  5
43B8
 10
794.021
 20
148.414
 30
-8.60000e-15
  70
    32
  0
VERTEX
  8
0
  5
43B9
 10
794.021
 20
148.413
 30
-8.60000e-15
  70
    32
  0
VERTEX
  8
0
  5
43BA
 10
794.022
 20
148.412
 30
-8.60000e-15
  70
    32
  0
VERTEX
  8
0
  5
43BB
 10
794.022
 20
148.412
 30
-8.60000e-15
  70
    32
  0
VERTEX
  8
0
  5
43BC
 10
794.023
 20
148.411
 30
-8.60000e-15
  70
    32
  0
VERTEX
  8
0
  5
43BD
 10
794.023
 20
148.411
 30
-8.60000e-15
  70
    32
  0
VERTEX
  8
0
  5
43BE
 10
794.023
 20
148.411
 30
-8.60000e-15
  70
    32
  0
VERTEX
  8
0
  5
43BF
 10
794.024
 20
148.410
 30
-8.60000e-15
  70
    32
  0
VERTEX
  8
0
  5
43C0
 10
794.024
 20
148.410
 30
-8.60000e-15
  70
    32
  0
VERTEX
  8
0
  5
43C1
 10
794.024
 20
148.410
 30
-8.60000e-15
  70
    32
  0
VERTEX
  8
0
  5
43C2
 10
794.025
 20
148.409
 30
-8.60000e-15
  70
    32
  0
VERTEX
  8
0
  5
43C3
 10
794.025
 20
148.409
 30
-8.60000e-15
  70
    32
  0
VERTEX
  8
0
  5
43C4
 10
794.025
 20
148.409
 30
-8.60000e-15
  70
    32
  0
VERTEX
  8
0
  5
43C5
 10
794.025
 20
148.409
 30
-8.60000e-15
  70
    32
  0
VERTEX
  8
0
  5
43C6
 10
794.025
 20
148.409
 30
-8.60000e-15
  70
    32
  0
VERTEX
  8
0
  5
43C7
 10
794.025
 20
148.409
 30
-8.60000e-15
  70
    32
  0
VERTEX
  8
0
  5
43C8
 10
794.025
 20
148.408
 30
-8.60000e-15
  70
    32
  0
VERTEX
  8
0
  5
43C9
 10
794.025
 20
148.408
 30
-8.60000e-15
  70
    32
  0
VERTEX
  8
0
  5
43CA
 10
794.025
 20
148.408
 30
-8.60000e-15
  70
    32
  0
SEQEND
  8
0
  5
43CB
  0
LINE
  5
3BFA
  8
0
 10
796.0254955608701266
 20
146.4083572593982865
 30
-0.0000000000000081
 11
984.0254955608701266
 21
146.4083572593980875
 31
-0.0000000000000081
210
0.0
220
1.0
230
-0.0000000000000002
  0
LINE
  5
3BFB
  8
0
 10
820.1754955608699902
 20
189.4083572593982012
 30
-0.0000000000000177
 11
959.8754955608701493
 21
189.4083572593978886
 31
-0.0000000000000177
210
0.0
220
1.0
230
-0.0000000000000002
  0
LINE
  5
3BFC
  8
0
 10
820.1754955608702176
 20
201.4083572593982865
 30
-0.0000000000000204
 11
959.8754955608701493
 21
201.4083572593980023
 31
-0.0000000000000204
210
0.0
220
1.0
230
-0.0000000000000002
  0
LINE
  5
3BFD
  8
0
 10
765.0254955608701266
 20
168.4083572593985139
 30
-0.000000000000013
 11
1015.0254955608700129
 21
168.4083572593980875
 31
-0.000000000000013
210
0.0
220
1.0
230
-0.0000000000000002
  0
LINE
  5
3BFE
  8
0
 10
765.0254955608701266
 20
149.4083572593984002
 30
-0.0000000000000088
 11
1015.0254955608700129
 21
149.4083572593980875
 31
-0.0000000000000088
210
0.0
220
1.0
230
-0.0000000000000002
  0
LINE
  5
3BFF
  8
0
 10
796.0254955608701266
 20
146.4083572593982865
 30
-0.0000000000000081
 11
794.0254955608701266
 21
148.4083572593982865
 31
-0.0000000000000086
210
0.0
220
1.0
230
-0.0000000000000002
  0
LINE
  5
3C00
  8
0
 10
984.0254955608701266
 20
146.4083572593980875
 30
-0.0000000000000081
 11
986.0254955608700129
 21
148.4083572593980875
 31
-0.0000000000000086
210
0.0
220
1.0
230
-0.0000000000000002
  0
LINE
  5
3C01
  8
0
 10
959.8754955608701493
 20
201.4083572593980023
 30
-0.0000000000000204
 11
959.8754955608701493
 21
189.4083572593978886
 31
-0.0000000000000177
210
0.0
220
1.0
230
-0.0000000000000002
  0
LINE
  5
3C02
  8
0
 10
820.1754955608702176
 20
201.4083572593982865
 30
-0.0000000000000204
 11
820.1754955608702176
 21
189.4083572593982012
 31
-0.0000000000000177
210
0.0
220
1.0
230
-0.0000000000000002
  0
LINE
  5
3C03
  8
0
 10
959.8754955608701493
 20
189.4083572593978886
 30
-0.0000000000000177
 11
966.0440473400625478
 21
173.5139293620923127
 31
-0.0000000000000142
210
0.0
220
1.0
230
-0.0000000000000002
  0
LINE
  5
3C04
  8
0
 10
820.1754955608699902
 20
189.4083572593982012
 30
-0.0000000000000177
 11
814.006943781677478
 21
173.5139293620925116
 31
-0.0000000000000142
210
0.0
220
1.0
230
-0.0000000000000002
  0
ARC
  5
3C05
  8
0
 10
-806.5489087088652695
 20
176.4083572593982012
 30
-0.0000000000000244
 40
7.9999999999999138
210
0.0
220
-0.0000000000000002
230
-1.0
 50
201.2109957240523102
 51
270.0
  0
ARC
  5
3C06
  8
0
 10
-973.50208241287487
 20
176.4083572593980023
 30
-0.0000000000000244
 40
7.9999999999998863
210
0.0
220
-0.0000000000000002
230
-1.0
 50
270.0
 51
338.7890042759476046
  0
LINE
  5
3C07
  8
0
 10
1015.0254955608700129
 20
168.4083572593980875
 30
-0.000000000000013
 11
1015.0254955608700129
 21
149.4083572593980875
 31
-0.0000000000000088
210
0.0
220
1.0
230
-0.0000000000000002
  0
LINE
  5
3C08
  8
0
 10
765.0254955608701266
 20
168.4083572593984002
 30
-0.000000000000013
 11
765.0254955608701266
 21
149.4083572593984002
 31
-0.0000000000000088
210
0.0
220
1.0
230
-0.0000000000000002
  0
LINE
  5
3C09
  8
0
  6
VERDECKT
 62
     1
 10
819.5328202310558936
 20
300.351811605046521
 30
-0.0000000000000423
 11
960.5181708906847007
 21
300.351811605046521
 31
-0.0000000000000423
210
0.0
220
1.0
230
-0.0000000000000002
  0
LINE
  5
3C0A
  8
0
  6
VERDECKT
 62
     1
 10
954.0254955608702403
 20
218.9083572593978886
 30
-0.0000000000000242
 11
954.0254955608702403
 21
201.4083572593980875
 31
-0.0000000000000204
210
0.0
220
1.0
230
-0.0000000000000002
  0
LINE
  5
3C0B
  8
0
  6
VERDECKT
 62
     1
 10
826.025495560870354
 20
218.9083572593980023
 30
-0.0000000000000242
 11
826.025495560870354
 21
201.4083572593980875
 31
-0.0000000000000204
210
0.0
220
1.0
230
-0.0000000000000002
  0
ARC
  5
3C0C
  8
0
  6
VERDECKT
 62
     1
 10
-813.5254955608708087
 20
218.9083572593978886
 30
-0.0000000000000244
 40
12.4999999999997797
210
0.0
220
-0.0000000000000002
230
-1.0
 50
145.2280559680503131
 51
180.0
  0
ARC
  5
3C0D
  8
0
  6
VERDECKT
 62
     1
 10
-966.5254955608700129
 20
218.9083572593978886
 30
-0.0000000000000244
 40
12.4999999999998792
210
0.0
220
-0.0000000000000002
230
-1.0
 50
0.0
 51
34.7719440319490403
  0
ARC
  5
3C0E
  8
0
  6
VERDECKT
 62
     1
 10
-836.5254955608710361
 20
234.877076682069287
 30
-0.0000000000000244
 40
15.5000000000004601
210
0.0
220
-0.0000000000000002
230
-1.0
 50
325.2280559680526153
 51
0.0
  0
ARC
  5
3C0F
  8
0
  6
VERDECKT
 62
     1
 10
-943.5254955608697855
 20
234.8770766820692018
 30
-0.0000000000000244
 40
15.5000000000003393
210
0.0
220
-0.0000000000000002
230
-1.0
 50
180.0
 51
214.7719440319480952
  0
LINE
  5
3C10
  8
0
  6
VERDECKT
 62
     1
 10
959.0254955608701266
 20
248.4083572593980023
 30
-0.0000000000000308
 11
959.0254955608701266
 21
234.8770766820690881
 31
-0.0000000000000278
210
0.0
220
1.0
230
-0.0000000000000002
  0
LINE
  5
3C11
  8
0
  6
VERDECKT
 62
     1
 10
821.0254955608704677
 20
248.4083572593980875
 30
-0.0000000000000308
 11
821.0254955608704677
 21
234.8770766820692018
 31
-0.0000000000000278
210
0.0
220
1.0
230
-0.0000000000000002
  0
ARC
  5
3C12
  8
0
  6
VERDECKT
 62
     1
 10
-800.5294926870171821
 20
248.409243662899911
 30
-0.0000000000000244
 40
20.4960028930207088
210
0.0
220
-0.0000000000000002
230
-1.0
 50
154.9903637569096873
 51
180.0024779065402925
  0
ARC
  5
3C13
  8
0
  6
VERDECKT
 62
     1
 10
-979.5214984347218206
 20
248.4092436628999963
 30
-0.0000000000000244
 40
20.4960028930191207
210
0.0
220
-0.0000000000000002
230
-1.0
 50
359.9975220934588265
 51
25.0096362430909807
  0
ARC
  5
3C14
  8
0
  6
VERDECKT
 62
     1
 10
-844.0226824557961436
 20
268.6993572593987096
 30
-0.0000000000000244
 40
27.4971868949256795
210
0.0
220
-0.0000000000000002
230
-1.0
 50
334.9903637569096873
 51
359.9999999999984084
  0
ARC
  5
3C15
  8
0
  6
VERDECKT
 62
     1
 10
-936.0283086659445644
 20
268.6993572593985959
 30
-0.0000000000000244
 40
27.4971868949256795
210
0.0
220
-0.0000000000000002
230
-1.0
 50
180.0000000000015916
 51
205.0096362430901991
  0
LINE
  5
3C16
  8
0
  6
VERDECKT
 62
     1
 10
963.5254955608701266
 20
287.8059798149337212
 30
-0.0000000000000395
 11
963.5254955608701266
 21
268.6993572593980275
 31
-0.0000000000000353
210
0.0
220
1.0
230
-0.0000000000000002
  0
LINE
  5
3C17
  8
0
  6
VERDECKT
 62
     1
 10
816.5254955608704677
 20
287.8059798149337212
 30
-0.0000000000000395
 11
816.5254955608704677
 21
268.6993572593980275
 31
-0.0000000000000353
210
0.0
220
1.0
230
-0.0000000000000002
  0
ARC
  5
3C18
  8
0
  6
VERDECKT
 62
     1
 10
-844.0254955608784257
 20
287.8059798149321864
 30
-0.0000000000000244
 40
27.5000000000077307
210
0.0
220
-0.0000000000000002
230
-1.0
 50
0.0000000000032569
 51
24.9999999999964011
  0
ARC
  5
3C19
  8
0
  6
VERDECKT
 62
     1
 10
-936.0254955608628507
 20
287.8059798149323001
 30
-0.0000000000000244
 40
27.5000000000072689
210
0.0
220
-0.0000000000000002
230
-1.0
 50
155.0000000000028137
 51
179.9999999999967031
  0
LINE
  5
3C1A
  8
0
  6
VERDECKT
 62
     1
 10
960.5181708906847007
 20
300.351811605046521
 30
-0.0000000000000423
 11
960.9489597043778986
 21
299.4279820128031133
 31
-0.0000000000000421
210
0.0
220
1.0
230
-0.0000000000000002
  0
LINE
  5
3C1B
  8
0
  6
VERDECKT
 62
     1
 10
819.5328202310558936
 20
300.351811605046521
 30
-0.0000000000000423
 11
819.1020314173626957
 21
299.4279820128031133
 31
-0.0000000000000421
210
0.0
220
1.0
230
-0.0000000000000002
  0
LINE
  5
3C1C
  8
0
  6
VERDECKT
 62
     1
 10
819.5328202310558936
 20
300.351811605046521
 30
-0.0000000000000423
 11
817.2670507634641126
 21
301.4083572593980875
 31
-0.0000000000000426
210
0.0
220
1.0
230
-0.0000000000000002
  0
LINE
  5
3C1D
  8
0
  6
VERDECKT
 62
     1
 10
960.5181708906847007
 20
300.351811605046521
 30
-0.0000000000000423
 11
962.783940358276709
 21
301.4083572593980875
 31
-0.0000000000000426
210
0.0
220
1.0
230
-0.0000000000000002
  0
LINE
  5
3C1E
  8
0
  6
VERDECKT
 62
     1
 10
806.7792835362826054
 20
149.4083572593980875
 30
-0.0000000000000088
 11
806.7792835362826054
 21
168.4083572593980875
 31
-0.000000000000013
210
0.0
220
1.0
230
-0.0000000000000002
  0
LINE
  5
3C1F
  8
0
  6
VERDECKT
 62
     1
 10
824.7792835362826054
 20
149.4083572593980875
 30
-0.0000000000000088
 11
824.7792835362826054
 21
168.4083572593980875
 31
-0.000000000000013
210
0.0
220
1.0
230
-0.0000000000000002
  0
LINE
  5
3C20
  8
0
  6
VERDECKT
 62
     1
 10
973.2717075854576478
 20
168.4083572593980875
 30
-0.000000000000013
 11
973.2717075854576478
 21
149.4083572593982012
 31
-0.0000000000000088
210
0.0
220
1.0
230
-0.0000000000000002
  0
LINE
  5
3C21
  8
0
  6
VERDECKT
 62
     1
 10
955.2717075854576478
 20
168.4083572593982012
 30
-0.000000000000013
 11
955.2717075854576478
 21
149.4083572593982012
 31
-0.0000000000000088
210
0.0
220
1.0
230
-0.0000000000000002
  0
LINE
  5
3C22
  8
0
  6
VERDECKT
 62
     1
 10
1004.0254955608700129
 20
168.4083572593980875
 30
-0.000000000000013
 11
1004.0254955608700129
 21
149.4083572593980875
 31
-0.0000000000000088
210
0.0
220
1.0
230
-0.0000000000000002
  0
LINE
  5
3C23
  8
0
  6
VERDECKT
 62
     1
 10
986.0254955608700129
 20
168.4083572593980875
 30
-0.000000000000013
 11
986.0254955608700129
 21
148.4083572593980875
 31
-0.0000000000000086
210
0.0
220
1.0
230
-0.0000000000000002
  0
LINE
  5
3C24
  8
0
  6
VERDECKT
 62
     1
 10
881.0254955608701266
 20
149.4083572593984002
 30
-0.0000000000000088
 11
881.0254955608701266
 21
168.4083572593984002
 31
-0.000000000000013
210
0.0
220
1.0
230
-0.0000000000000002
  0
LINE
  5
3C25
  8
0
  6
VERDECKT
 62
     1
 10
899.0254955608701266
 20
149.4083572593984002
 30
-0.0000000000000088
 11
899.0254955608701266
 21
168.4083572593984002
 31
-0.000000000000013
210
0.0
220
1.0
230
-0.0000000000000002
  0
LINE
  5
3C26
  8
0
  6
VERDECKT
 62
     1
 10
776.0254955608701266
 20
149.4083572593980875
 30
-0.0000000000000088
 11
776.0254955608701266
 21
168.4083572593980875
 31
-0.000000000000013
210
0.0
220
1.0
230
-0.0000000000000002
  0
LINE
  5
3C27
  8
0
  6
VERDECKT
 62
     1
 10
794.0254955608701266
 20
148.4083572593982865
 30
-0.0000000000000086
 11
794.0254955608701266
 21
168.4083572593980875
 31
-0.000000000000013
210
0.0
220
1.0
230
-0.0000000000000002
  0
LINE
  5
3C28
  8
0
  6
VERDECKT
 62
     1
 10
955.8754955608701493
 20
201.4083572593980875
 30
-0.0000000000000204
 11
955.8754955608701493
 21
146.4083572593980875
 31
-0.0000000000000081
210
0.0
220
1.0
230
-0.0000000000000002
  0
LINE
  5
3C29
  8
0
  6
VERDECKT
 62
     1
 10
824.1754955608701039
 20
201.4083572593982865
 30
-0.0000000000000204
 11
824.1754955608701039
 21
146.4083572593982865
 31
-0.0000000000000081
210
0.0
220
1.0
230
-0.0000000000000002
  0
ENDBLK
  5
3C2B
  8
0
  0
ENDSEC
  0
SECTION
  2
ENTITIES
  0
TEXT
  5
8F
  8
VOLL
 10
78.076754716981128
 20
31.025947764705851
 30
0.0
 40
1.8
  1

  7
GREEKS
  0
INSERT
  5
FA4
  8
ADSK_ASSOC_ENTITY_BACKUPS
  2
*S3
 10
0.0
 20
0.0
 30
0.0
  0
INSERT
  5
3BDF
  8
STEMPEL
  2
A$CF7E748E1
 10
285.712815254239672
 20
-57.3755743463049726
 30
-59.8164272858218879
  0
INSERT
  5
3C2C
  8
STEMPEL
  2
A$C80D2EBF8
 10
97.1985849521316823
 20
151.2588047070198058
 30
-59.8164272858217174
  0
VIEWPORT
  5
702
 67
     1
  8
0
 10
100.1662219519621004
 20
142.8409631911844997
 30
0.0
 40
533.9969448798291296
 41
299.1239570917758783
 68
     1
 69
     1
1001
ACAD
1000
MVIEW
1002
{
1070
    16
1010
0.0
1020
0.0
1030
0.0
1010
0.0
1020
0.0
1030
1.0
1040
0.0
1040
299.1239570917758783
1040
100.1662219519621004
1040
142.8409631911844997
1040
50.0
1040
0.0
1040
0.0
1070
     0
1070
  1500
1070
     1
1070
     1
1070
     0
1070
     0
1070
     0
1070
     0
1040
0.0
1040
0.0
1040
0.0
1040
10.0
1040
10.0
1040
10.0
1040
10.0
1070
     0
1002
{
1002
}
1002
}
1001
GENIUS_GENOBJ-N-SDF_13
1002
{
1000
OWNER
1000
GEN
1002
}
1001
GENIUS_GENODEF_13
1002
{
1000
HIER
1070
     0
1002
}
1002
{
1000
MANEDIT
1070
     0
1002
}
1002
{
1000
NOSEL
1070
     0
1002
}
1002
{
1000
BEHIND
1070
     0
1002
}
1002
{
1000
OTHER
1070
     0
1002
}
1002
{
1000
REACTOR
1002
}
1001
GENIUS_GENSCREG_15
1000
PF
1040
1.0
1000
DF
1040
1.0
1000
MIN
1011
-122.5750372276848026
1021
0.0
1031
0.0
1021
44.9775351219234594
1031
0.0
1000
MAX
1011
383.7535769434712734
1021
0.0
1031
0.0
1021
267.7503228254332726
1031
0.0
1000
FLAGS
1070
     4
  0
ENDSEC
  0
EOF
