  0
SECTION
  2
HEADER
  9
$ACADVER
  1
AC1009
  9
$INSBASE
 10
0.0
 20
0.0
 30
0.0
  9
$EXTMIN
 10
874.8887372105075428
 20
-95.8766853026412349
 30
-32.3147420898448701
  9
$EXTMAX
 10
1124.8900041480060281
 20
352.1038160005185773
 30
-32.3147420898448203
  9
$LIMMIN
 10
0.0
 20
0.0
  9
$LIMMAX
 10
419.9999999999998863
 20
594.0
  9
$ORTHOMODE
 70
     1
  9
$REGENMODE
 70
     1
  9
$FILLMODE
 70
     1
  9
$QTEXTMODE
 70
     0
  9
$MIRRTEXT
 70
     1
  9
$DRAGMODE
 70
     2
  9
$LTSCALE
 40
10.0
  9
$OSMODE
 70
  2495
  9
$ATTMODE
 70
     1
  9
$TEXTSIZE
 40
3.5
  9
$TRACEWID
 40
0.5
  9
$TEXTSTYLE
  7
STANDARD
  9
$CLAYER
  8
STEMPEL
  9
$CELTYPE
  6
BYLAYER
  9
$CECOLOR
 62
   256
  9
$DIMSCALE
 40
1.0
  9
$DIMASZ
 40
3.5
  9
$DIMEXO
 40
1.0
  9
$DIMDLI
 40
7.0
  9
$DIMRND
 40
0.0
  9
$DIMDLE
 40
0.0
  9
$DIMEXE
 40
1.0
  9
$DIMTP
 40
0.0
  9
$DIMTM
 40
0.0
  9
$DIMTXT
 40
3.5
  9
$DIMCEN
 40
1.5
  9
$DIMTSZ
 40
0.0
  9
$DIMTOL
 70
     0
  9
$DIMLIM
 70
     0
  9
$DIMTIH
 70
     0
  9
$DIMTOH
 70
     0
  9
$DIMSE1
 70
     0
  9
$DIMSE2
 70
     0
  9
$DIMTAD
 70
     1
  9
$DIMZIN
 70
     8
  9
$DIMBLK
  1

  9
$DIMASO
 70
     1
  9
$DIMSHO
 70
     0
  9
$DIMPOST
  1

  9
$DIMAPOST
  1

  9
$DIMALT
 70
     0
  9
$DIMALTD
 70
     2
  9
$DIMALTF
 40
25.3999999999999986
  9
$DIMLFAC
 40
2.0
  9
$DIMTOFL
 70
     1
  9
$DIMTVP
 40
0.0
  9
$DIMTIX
 70
     0
  9
$DIMSOXD
 70
     0
  9
$DIMSAH
 70
     0
  9
$DIMBLK1
  1

  9
$DIMBLK2
  1

  9
$DIMSTYLE
  2
STANDARD
  9
$DIMCLRD
 70
     0
  9
$DIMCLRE
 70
     0
  9
$DIMCLRT
 70
     1
  9
$DIMTFAC
 40
0.5142857142857143
  9
$DIMGAP
 40
1.5
  9
$LUNITS
 70
     2
  9
$LUPREC
 70
     2
  9
$SKETCHINC
 40
1.0
  9
$FILLETRAD
 40
0.0
  9
$AUNITS
 70
     0
  9
$AUPREC
 70
     0
  9
$MENU
  1
ACAD
  9
$ELEVATION
 40
0.0
  9
$PELEVATION
 40
0.0
  9
$THICKNESS
 40
0.0
  9
$LIMCHECK
 70
     0
  9
$BLIPMODE
 70
     0
  9
$CHAMFERA
 40
0.0
  9
$CHAMFERB
 40
0.0
  9
$SKPOLY
 70
     0
  9
$TDCREATE
 40
2455397.8646990740671754
  9
$TDUPDATE
 40
2459627.4840624998323619
  9
$TDINDWG
 40
0.5063599421
  9
$TDUSRTIMER
 40
0.5063599421
  9
$USRTIMER
 70
     1
  9
$ANGBASE
 50
0.0
  9
$ANGDIR
 70
     0
  9
$PDMODE
 70
     0
  9
$PDSIZE
 40
0.0
  9
$PLINEWID
 40
0.0
  9
$COORDS
 70
     1
  9
$SPLFRAME
 70
     0
  9
$SPLINETYPE
 70
     6
  9
$SPLINESEGS
 70
     8
  9
$ATTDIA
 70
     1
  9
$ATTREQ
 70
     1
  9
$HANDLING
 70
     1
  9
$HANDSEED
  5
4585
  9
$SURFTAB1
 70
     6
  9
$SURFTAB2
 70
     6
  9
$SURFTYPE
 70
     6
  9
$SURFU
 70
     6
  9
$SURFV
 70
     6
  9
$UCSNAME
  2

  9
$UCSORG
 10
0.0
 20
0.0
 30
0.0
  9
$UCSXDIR
 10
1.0
 20
0.0
 30
0.0
  9
$UCSYDIR
 10
0.0
 20
1.0
 30
0.0
  9
$PUCSNAME
  2

  9
$PUCSORG
 10
0.0
 20
0.0
 30
0.0
  9
$PUCSXDIR
 10
1.0
 20
0.0
 30
0.0
  9
$PUCSYDIR
 10
0.0
 20
1.0
 30
0.0
  9
$USERI1
 70
     0
  9
$USERI2
 70
     0
  9
$USERI3
 70
     0
  9
$USERI4
 70
     0
  9
$USERI5
 70
     0
  9
$USERR1
 40
0.0
  9
$USERR2
 40
0.0
  9
$USERR3
 40
0.0
  9
$USERR4
 40
0.0
  9
$USERR5
 40
0.0
  9
$WORLDVIEW
 70
     1
  9
$SHADEDGE
 70
     3
  9
$SHADEDIF
 70
    70
  9
$TILEMODE
 70
     1
  9
$MAXACTVP
 70
    16
  9
$PLIMCHECK
 70
     0
  9
$PEXTMIN
 10
1.0000000000000000E+20
 20
1.0000000000000000E+20
 30
1.0000000000000000E+20
  9
$PEXTMAX
 10
-1.0000000000000000E+20
 20
-1.0000000000000000E+20
 30
-1.0000000000000000E+20
  9
$PLIMMIN
 10
-4.8337780480378854
 20
-5.6590368088155003
  9
$PLIMMAX
 10
205.1662219519620862
 20
291.3409631911845281
  9
$UNITMODE
 70
     0
  9
$VISRETAIN
 70
     0
  9
$PLINEGEN
 70
     0
  9
$PSLTSCALE
 70
     0
  0
ENDSEC
  0
SECTION
  2
TABLES
  0
TABLE
  2
VPORT
 70
     1
  0
VPORT
  2
*ACTIVE
 70
     0
 10
0.0
 20
0.0
 11
1.0
 21
1.0
 12
2.538935644231116
 22
-68.3742779378911649
 13
0.0
 23
0.0
 14
1.0
 24
1.0
 15
10.0
 25
10.0
 16
-0.0000000000002274
 26
0.0
 36
1003.9015859827129589
 17
997.3504350350254981
 27
196.4878432868297864
 37
-16.157371044922499
 40
451.1841759251133226
 41
1.7852028639618129
 42
50.0
 43
0.0
 44
0.0
 50
0.0
 51
0.0
 71
     0
 72
  1500
 73
     1
 74
     0
 75
     0
 76
     0
 77
     0
 78
     0
  0
ENDTAB
  0
TABLE
  2
LTYPE
 70
     7
  0
LTYPE
  2
CONTINUOUS
 70
     0
  3
Solid line
 72
    65
 73
     0
 40
0.0
  0
LTYPE
  2
PHANTOM2
 70
     0
  3
Phantom (.5x) ___ _ _ ___ _ _ ___ _ _ ___ _ _
 72
    65
 73
     6
 40
1.25
 49
0.625
 49
-0.125
 49
0.125
 49
-0.125
 49
0.125
 49
-0.125
  0
LTYPE
  2
AUSGEZOGEN
 70
     0
  3
Ausgezogene Linie
 72
    65
 73
     0
 40
0.0
  0
LTYPE
  2
VERDECKT
 70
     0
  3
Verdeckt __ __ __ __ __ __ __ __ __ __ __ __ __
 72
    65
 73
     2
 40
0.375
 49
0.25
 49
-0.125
  0
ENDTAB
  0
TABLE
  2
LAYER
 70
    14
  0
LAYER
  2
0
 70
     0
 62
     7
  6
CONTINUOUS
  0
LAYER
  2
VOLL
 70
     0
 62
     1
  6
CONTINUOUS
  0
LAYER
  2
STEMPEL
 70
     0
 62
     3
  6
CONTINUOUS
  0
LAYER
  2
DEFPOINTS
 70
     0
 62
     7
  6
CONTINUOUS
  0
LAYER
  2
ADSK_ASSOC_ENTITY_BACKUPS
 70
     1
 62
    -7
  6
CONTINUOUS
  0
ENDTAB
  0
TABLE
  2
STYLE
 70
     4
  0
STYLE
  2
STANDARD
 70
     0
 40
0.0
 41
0.8
 50
0.0
 71
     0
 42
3.5
  3
simplex.shx
  4

  0
STYLE
  2
GREEKS
 70
     0
 40
0.0
 41
0.8
 50
0.0
 71
     0
 42
2.5
  3
SIMPLEX.shx
  4

  0
ENDTAB
  0
TABLE
  2
VIEW
 70
     1
  0
ENDTAB
  0
TABLE
  2
UCS
 70
     0
  0
ENDTAB
  0
TABLE
  2
APPID
 70
    34
  0
APPID
  2
ACAD
 70
     0
  0
APPID
  2
ACAD_EXEMPT_FROM_CAD_STANDARDS
 70
     0
  0
APPID
  2
ACAD_NAV_VCDISPLAY
 70
     0
  0
APPID
  2
ACAECLAYERSTANDARD
 70
     0
  0
APPID
  2
ACCMTRANSPARENCY
 70
     0
  0
APPID
  2
ACAD_PSEXT
 70
     0
  0
APPID
  2
GRADIENTCOLOR1ACI
 70
     0
  0
APPID
  2
GRADIENTCOLOR2ACI
 70
     0
  0
APPID
  2
ACAD_MLEADERVER
 70
     0
  0
APPID
  2
ACAD_OBJECT_CHANGE_GUID
 70
     0
  0
APPID
  2
MCAD_NO_VIS
 70
     0
  0
APPID
  2
ACAD_TEMP_GRAPHIC
 70
     0
  0
APPID
  2
ACATTRIBSERVICES
 70
     0
  0
APPID
  2
DESIGNERASSEMBLIES
 70
     0
  0
APPID
  2
ACAD_DSTYLE_DIMJAG
 70
     0
  0
APPID
  2
ACAD_DSTYLE_DIMBREAK
 70
     0
  0
APPID
  2
GENIUS_GENSCREG_15
 70
     0
  0
APPID
  2
GENIUS_GENOBJ-N-SDF_13
 70
     0
  0
APPID
  2
GENIUS_GENODEF_13
 70
     0
  0
APPID
  2
RAK
 70
     0
  0
APPID
  2
ACAUTHENVIRON
 70
     0
  0
APPID
  2
ACDBDYNAMICBLOCKTRUENAME
 70
     0
  0
APPID
  2
ACDBDYNAMICBLOCKGUID
 70
     0
  0
APPID
  2
ACSYNERGY
 70
     0
  0
APPID
  2
SYNERGY_BODY_TBR_ID
 70
     0
  0
APPID
  2
ACAD_VIEW_EDGE_ID
 70
     0
  0
APPID
  2
ACSYNERGYSKETCH
 70
     0
  0
APPID
  2
ACAD_STEPID
 70
     0
  0
APPID
  2
ACAD_MODELDOC_XFORM
 70
     0
  0
APPID
  2
GENIUS_GENDTOL_13
 70
     0
  0
APPID
  2
ACAD_DSTYLE_DIMINSPECT
 70
     0
  0
APPID
  2
ACADANNOMONITORALERTICONDI
 70
     0
  0
APPID
  2
ACAD_DSTYLE_DIMTALN
 70
     0
  0
APPID
  2
AcDbAttr
 70
     0
  0
ENDTAB
  0
TABLE
  2
DIMSTYLE
 70
     3
  0
DIMSTYLE
  2
STANDARD
 70
     0
  3

  4

  5

  6

  7

 40
1.0
 41
0.18
 42
0.0625
 43
0.38
 44
0.18
 45
0.0
 46
0.0
 47
0.0
 48
0.0
140
0.18
141
0.09
142
0.0
143
25.3999999999999986
144
1.0
145
0.0
146
1.0
147
0.09
 71
     0
 72
     0
 73
     1
 74
     1
 75
     0
 76
     0
 77
     0
 78
     0
170
     0
171
     2
172
     0
173
     0
174
     0
175
     0
176
     0
177
     0
178
     0
  0
ENDTAB
  0
ENDSEC
  0
SECTION
  2
BLOCKS
  0
BLOCK
  8
0
  2
$MODEL_SPACE
 70
     0
 10
0.0
 20
0.0
 30
0.0
  3
$MODEL_SPACE
  1

  0
ENDBLK
  5
36
  8
0
  0
BLOCK
 67
     1
  8
0
  2
$PAPER_SPACE
 70
     0
 10
0.0
 20
0.0
 30
0.0
  3
$PAPER_SPACE
  1

  0
ENDBLK
  5
34
 67
     1
  8
0
  0
BLOCK
  8
0
  2
*S3
 70
     1
 10
0.0
 20
0.0
 30
0.0
  3
*S3
  1

  0
ENDBLK
  5
FA2
  8
0
  0
BLOCK
  8
0
  2
A$CCCB157BB
 70
     0
 10
0.0
 20
0.0
 30
0.0
  3
A$CCCB157BB
  1

  0
CIRCLE
  5
3D7A
  8
0
 10
627.2650532341746157
 20
80.7888562305006843
 30
-0.0000000000001421
 40
9.0
  0
CIRCLE
  5
3D7B
  8
0
 10
775.7574772833495445
 20
80.7888562305006843
 30
-0.0000000000001776
 40
9.0
  0
CIRCLE
  5
3D7C
  8
0
 10
775.7574772833495445
 20
229.2812802796755989
 30
-0.0000000000001776
 40
9.0
  0
CIRCLE
  5
3D7D
  8
0
 10
627.2650532341746157
 20
229.2812802796755989
 30
-0.0000000000001421
 40
9.0
  0
CIRCLE
  5
3D7E
  8
0
 10
701.5112652587621369
 20
260.0350682550881061
 30
-0.0000000000001634
 40
9.0
  0
CIRCLE
  5
3D7F
  8
0
 10
806.5112652587622506
 20
155.0350682550881061
 30
-0.0000000000001847
 40
9.0
  0
CIRCLE
  5
3D80
  8
0
 10
701.5112652587621369
 20
50.0350682550881416
 30
-0.0000000000001634
 40
9.0
  0
CIRCLE
  5
3D81
  8
0
 10
596.5112652587621369
 20
155.0350682550881061
 30
-0.000000000000135
 40
9.0
  0
CIRCLE
  5
3D82
  8
0
 10
701.5112652587621369
 20
155.0350682550881061
 30
-0.0000000000001634
 40
125.0
  0
CIRCLE
  5
3D83
  8
0
 10
701.5112652587622506
 20
155.0350682550881061
 30
-0.0000000000001705
 40
69.0
  0
CIRCLE
  5
3D84
  8
0
 10
701.5112652587622506
 20
155.0350682550881061
 30
-0.0000000000001705
 40
70.3941402638517104
  0
CIRCLE
  5
3D85
  8
0
 10
701.5112652587622506
 20
155.0350682550881061
 30
-0.0000000000001705
 40
72.2067558379251153
  0
CIRCLE
  5
3D86
  8
0
 10
701.5112652587622506
 20
155.0350682550881061
 30
-0.0000000000001705
 40
75.4999999999999716
  0
CIRCLE
  5
3D87
  8
0
 10
701.5112652587622506
 20
155.0350682550881061
 30
-0.0000000000001563
 40
64.5
  0
ARC
  5
3D88
  8
0
  6
VERDECKT
 62
     1
 10
701.511265258762478
 20
155.035068255088305
 30
-0.0000000000001634
 40
97.0000000000003553
 50
182.3409750488000043
 51
222.6590249511999957
  0
ARC
  5
3D89
  8
0
  6
VERDECKT
 62
     1
 10
701.511265258762478
 20
155.0350682550879071
 30
-0.0000000000001634
 40
97.0000000000003979
 50
137.3409750488000043
 51
177.6590249511999104
  0
ARC
  5
3D8A
  8
0
  6
VERDECKT
 62
     1
 10
701.5112652587622506
 20
155.0350682550877934
 30
-0.0000000000001634
 40
97.0000000000003268
 50
92.3409750488000469
 51
132.6590249511999957
  0
ARC
  5
3D8B
  8
0
  6
VERDECKT
 62
     1
 10
701.5112652587621369
 20
155.0350682550879924
 30
-0.0000000000001634
 40
97.0000000000000853
 50
47.3409750487999617
 51
87.6590249512000952
  0
ARC
  5
3D8C
  8
0
  6
VERDECKT
 62
     1
 10
701.5112652587615685
 20
155.0350682550879071
 30
-0.0000000000001634
 40
97.0000000000006111
 50
2.34097504880011
 51
42.6590249511998607
  0
ARC
  5
3D8D
  8
0
  6
VERDECKT
 62
     1
 10
701.5112652587614548
 20
155.0350682550883903
 30
-0.0000000000001634
 40
97.0000000000007248
 50
317.3409750488000896
 51
357.6590249511999104
  0
ARC
  5
3D8E
  8
0
  6
VERDECKT
 62
     1
 10
701.5112652587622506
 20
155.0350682550877934
 30
-0.0000000000001634
 40
96.9999999999996732
 50
272.340975048799919
 51
312.6590249512001947
  0
ARC
  5
3D8F
  8
0
  6
VERDECKT
 62
     1
 10
701.5112652587617958
 20
155.0350682550875945
 30
-0.0000000000001634
 40
96.9999999999995453
 50
227.3409750487998906
 51
267.6590249512001947
  0
CIRCLE
  5
3D90
  8
0
  6
VERDECKT
 62
     1
 10
701.5112652587621369
 20
155.0350682550881061
 30
-0.0000000000001634
 40
94.0
  0
CIRCLE
  5
3D91
  8
0
  6
VERDECKT
 62
     1
 10
701.5112652587622506
 20
155.0350682550881061
 30
-0.0000000000001563
 40
69.8500000000000512
  0
CIRCLE
  5
3D92
  8
0
  6
VERDECKT
 62
     1
 10
701.5112652587622506
 20
155.0350682550881061
 30
-0.0000000000001563
 40
65.8500000000000512
  0
CIRCLE
  5
3D93
  8
0
  6
VERDECKT
 62
     1
 10
701.5112652587622506
 20
155.0350682550881061
 30
-0.0000000000001705
 40
73.5
  0
CIRCLE
  5
3D94
  8
0
  6
VERDECKT
 62
     1
 10
701.5112652587622506
 20
155.0350682550881061
 30
-0.0000000000001705
 40
71.0
  0
CIRCLE
  5
3D95
  8
0
  6
VERDECKT
 62
     1
 10
701.5112652587622506
 20
155.0350682550881061
 30
-0.0000000000001563
 40
66.5
  0
ENDBLK
  5
3D97
  8
0
  0
BLOCK
  8
0
  2
A$C45DCA3C8
 70
     0
 10
0.0
 20
0.0
 30
0.0
  3
A$C45DCA3C8
  1

  0
POLYLINE
  8
0
  5
3E3B
  66
     1
 10
0.000000
 20
0.000000
 30
0.000000
  70
     8
  0
VERTEX
  8
0
  5
3E3C
 10
635.781
 20
39.6503
 30
-8.80000e-15
  70
    32
  0
VERTEX
  8
0
  5
3E3D
 10
635.775
 20
39.6420
 30
-8.79991e-15
  70
    32
  0
VERTEX
  8
0
  5
3E3E
 10
635.769
 20
39.6337
 30
-8.79966e-15
  70
    32
  0
VERTEX
  8
0
  5
3E3F
 10
635.764
 20
39.6254
 30
-8.79923e-15
  70
    32
  0
VERTEX
  8
0
  5
3E40
 10
635.758
 20
39.6172
 30
-8.79865e-15
  70
    32
  0
VERTEX
  8
0
  5
3E41
 10
635.752
 20
39.6090
 30
-8.79792e-15
  70
    32
  0
VERTEX
  8
0
  5
3E42
 10
635.746
 20
39.6008
 30
-8.79704e-15
  70
    32
  0
VERTEX
  8
0
  5
3E43
 10
635.740
 20
39.5926
 30
-8.79602e-15
  70
    32
  0
VERTEX
  8
0
  5
3E44
 10
635.734
 20
39.5845
 30
-8.79487e-15
  70
    32
  0
VERTEX
  8
0
  5
3E45
 10
635.728
 20
39.5763
 30
-8.79359e-15
  70
    32
  0
VERTEX
  8
0
  5
3E46
 10
635.722
 20
39.5682
 30
-8.79218e-15
  70
    32
  0
VERTEX
  8
0
  5
3E47
 10
635.716
 20
39.5602
 30
-8.79066e-15
  70
    32
  0
VERTEX
  8
0
  5
3E48
 10
635.710
 20
39.5521
 30
-8.78903e-15
  70
    32
  0
VERTEX
  8
0
  5
3E49
 10
635.704
 20
39.5441
 30
-8.78730e-15
  70
    32
  0
VERTEX
  8
0
  5
3E4A
 10
635.698
 20
39.5362
 30
-8.78547e-15
  70
    32
  0
VERTEX
  8
0
  5
3E4B
 10
635.692
 20
39.5282
 30
-8.78355e-15
  70
    32
  0
VERTEX
  8
0
  5
3E4C
 10
635.685
 20
39.5203
 30
-8.78154e-15
  70
    32
  0
VERTEX
  8
0
  5
3E4D
 10
635.679
 20
39.5124
 30
-8.77945e-15
  70
    32
  0
VERTEX
  8
0
  5
3E4E
 10
635.673
 20
39.5045
 30
-8.77729e-15
  70
    32
  0
VERTEX
  8
0
  5
3E4F
 10
635.666
 20
39.4967
 30
-8.77506e-15
  70
    32
  0
VERTEX
  8
0
  5
3E50
 10
635.660
 20
39.4888
 30
-8.77277e-15
  70
    32
  0
VERTEX
  8
0
  5
3E51
 10
635.654
 20
39.4811
 30
-8.77042e-15
  70
    32
  0
VERTEX
  8
0
  5
3E52
 10
635.647
 20
39.4733
 30
-8.76803e-15
  70
    32
  0
VERTEX
  8
0
  5
3E53
 10
635.641
 20
39.4656
 30
-8.76559e-15
  70
    32
  0
VERTEX
  8
0
  5
3E54
 10
635.634
 20
39.4579
 30
-8.76311e-15
  70
    32
  0
VERTEX
  8
0
  5
3E55
 10
635.628
 20
39.4502
 30
-8.76061e-15
  70
    32
  0
VERTEX
  8
0
  5
3E56
 10
635.621
 20
39.4426
 30
-8.75808e-15
  70
    32
  0
VERTEX
  8
0
  5
3E57
 10
635.614
 20
39.4350
 30
-8.75552e-15
  70
    32
  0
VERTEX
  8
0
  5
3E58
 10
635.608
 20
39.4274
 30
-8.75296e-15
  70
    32
  0
VERTEX
  8
0
  5
3E59
 10
635.601
 20
39.4198
 30
-8.75039e-15
  70
    32
  0
VERTEX
  8
0
  5
3E5A
 10
635.594
 20
39.4123
 30
-8.74782e-15
  70
    32
  0
VERTEX
  8
0
  5
3E5B
 10
635.587
 20
39.4048
 30
-8.74525e-15
  70
    32
  0
VERTEX
  8
0
  5
3E5C
 10
635.580
 20
39.3973
 30
-8.74269e-15
  70
    32
  0
VERTEX
  8
0
  5
3E5D
 10
635.574
 20
39.3899
 30
-8.74015e-15
  70
    32
  0
VERTEX
  8
0
  5
3E5E
 10
635.567
 20
39.3825
 30
-8.73764e-15
  70
    32
  0
VERTEX
  8
0
  5
3E5F
 10
635.560
 20
39.3751
 30
-8.73515e-15
  70
    32
  0
VERTEX
  8
0
  5
3E60
 10
635.553
 20
39.3678
 30
-8.73270e-15
  70
    32
  0
VERTEX
  8
0
  5
3E61
 10
635.546
 20
39.3605
 30
-8.73029e-15
  70
    32
  0
VERTEX
  8
0
  5
3E62
 10
635.539
 20
39.3532
 30
-8.72793e-15
  70
    32
  0
VERTEX
  8
0
  5
3E63
 10
635.532
 20
39.3460
 30
-8.72562e-15
  70
    32
  0
VERTEX
  8
0
  5
3E64
 10
635.524
 20
39.3388
 30
-8.72338e-15
  70
    32
  0
VERTEX
  8
0
  5
3E65
 10
635.517
 20
39.3316
 30
-8.72119e-15
  70
    32
  0
VERTEX
  8
0
  5
3E66
 10
635.510
 20
39.3244
 30
-8.71908e-15
  70
    32
  0
VERTEX
  8
0
  5
3E67
 10
635.503
 20
39.3173
 30
-8.71705e-15
  70
    32
  0
VERTEX
  8
0
  5
3E68
 10
635.496
 20
39.3102
 30
-8.71510e-15
  70
    32
  0
VERTEX
  8
0
  5
3E69
 10
635.488
 20
39.3032
 30
-8.71324e-15
  70
    32
  0
VERTEX
  8
0
  5
3E6A
 10
635.481
 20
39.2961
 30
-8.71148e-15
  70
    32
  0
VERTEX
  8
0
  5
3E6B
 10
635.473
 20
39.2891
 30
-8.70982e-15
  70
    32
  0
VERTEX
  8
0
  5
3E6C
 10
635.466
 20
39.2822
 30
-8.70826e-15
  70
    32
  0
VERTEX
  8
0
  5
3E6D
 10
635.459
 20
39.2753
 30
-8.70682e-15
  70
    32
  0
VERTEX
  8
0
  5
3E6E
 10
635.451
 20
39.2684
 30
-8.70551e-15
  70
    32
  0
VERTEX
  8
0
  5
3E6F
 10
635.443
 20
39.2615
 30
-8.70431e-15
  70
    32
  0
VERTEX
  8
0
  5
3E70
 10
635.436
 20
39.2547
 30
-8.70325e-15
  70
    32
  0
VERTEX
  8
0
  5
3E71
 10
635.428
 20
39.2479
 30
-8.70233e-15
  70
    32
  0
VERTEX
  8
0
  5
3E72
 10
635.421
 20
39.2411
 30
-8.70155e-15
  70
    32
  0
VERTEX
  8
0
  5
3E73
 10
635.413
 20
39.2344
 30
-8.70093e-15
  70
    32
  0
VERTEX
  8
0
  5
3E74
 10
635.405
 20
39.2277
 30
-8.70046e-15
  70
    32
  0
VERTEX
  8
0
  5
3E75
 10
635.397
 20
39.2210
 30
-8.70015e-15
  70
    32
  0
VERTEX
  8
0
  5
3E76
 10
635.390
 20
39.2144
 30
-8.70001e-15
  70
    32
  0
VERTEX
  8
0
  5
3E77
 10
635.382
 20
39.2078
 30
-8.69998e-15
  70
    32
  0
VERTEX
  8
0
  5
3E78
 10
635.374
 20
39.2013
 30
-8.69987e-15
  70
    32
  0
VERTEX
  8
0
  5
3E79
 10
635.366
 20
39.1948
 30
-8.69969e-15
  70
    32
  0
VERTEX
  8
0
  5
3E7A
 10
635.358
 20
39.1883
 30
-8.69942e-15
  70
    32
  0
VERTEX
  8
0
  5
3E7B
 10
635.350
 20
39.1818
 30
-8.69907e-15
  70
    32
  0
VERTEX
  8
0
  5
3E7C
 10
635.342
 20
39.1754
 30
-8.69864e-15
  70
    32
  0
VERTEX
  8
0
  5
3E7D
 10
635.334
 20
39.1690
 30
-8.69813e-15
  70
    32
  0
VERTEX
  8
0
  5
3E7E
 10
635.326
 20
39.1627
 30
-8.69756e-15
  70
    32
  0
VERTEX
  8
0
  5
3E7F
 10
635.318
 20
39.1563
 30
-8.69691e-15
  70
    32
  0
VERTEX
  8
0
  5
3E80
 10
635.309
 20
39.1501
 30
-8.69619e-15
  70
    32
  0
VERTEX
  8
0
  5
3E81
 10
635.301
 20
39.1438
 30
-8.69540e-15
  70
    32
  0
VERTEX
  8
0
  5
3E82
 10
635.293
 20
39.1376
 30
-8.69455e-15
  70
    32
  0
VERTEX
  8
0
  5
3E83
 10
635.285
 20
39.1314
 30
-8.69364e-15
  70
    32
  0
VERTEX
  8
0
  5
3E84
 10
635.276
 20
39.1253
 30
-8.69266e-15
  70
    32
  0
VERTEX
  8
0
  5
3E85
 10
635.268
 20
39.1192
 30
-8.69163e-15
  70
    32
  0
VERTEX
  8
0
  5
3E86
 10
635.260
 20
39.1131
 30
-8.69054e-15
  70
    32
  0
VERTEX
  8
0
  5
3E87
 10
635.251
 20
39.1071
 30
-8.68939e-15
  70
    32
  0
VERTEX
  8
0
  5
3E88
 10
635.243
 20
39.1011
 30
-8.68819e-15
  70
    32
  0
VERTEX
  8
0
  5
3E89
 10
635.234
 20
39.0951
 30
-8.68695e-15
  70
    32
  0
VERTEX
  8
0
  5
3E8A
 10
635.226
 20
39.0892
 30
-8.68565e-15
  70
    32
  0
VERTEX
  8
0
  5
3E8B
 10
635.217
 20
39.0833
 30
-8.68431e-15
  70
    32
  0
VERTEX
  8
0
  5
3E8C
 10
635.208
 20
39.0775
 30
-8.68292e-15
  70
    32
  0
VERTEX
  8
0
  5
3E8D
 10
635.200
 20
39.0717
 30
-8.68150e-15
  70
    32
  0
VERTEX
  8
0
  5
3E8E
 10
635.191
 20
39.0659
 30
-8.68003e-15
  70
    32
  0
VERTEX
  8
0
  5
3E8F
 10
635.182
 20
39.0601
 30
-8.67852e-15
  70
    32
  0
VERTEX
  8
0
  5
3E90
 10
635.174
 20
39.0544
 30
-8.67698e-15
  70
    32
  0
VERTEX
  8
0
  5
3E91
 10
635.165
 20
39.0488
 30
-8.67541e-15
  70
    32
  0
VERTEX
  8
0
  5
3E92
 10
635.156
 20
39.0431
 30
-8.67381e-15
  70
    32
  0
VERTEX
  8
0
  5
3E93
 10
635.147
 20
39.0375
 30
-8.67217e-15
  70
    32
  0
VERTEX
  8
0
  5
3E94
 10
635.138
 20
39.0320
 30
-8.67051e-15
  70
    32
  0
VERTEX
  8
0
  5
3E95
 10
635.129
 20
39.0264
 30
-8.66883e-15
  70
    32
  0
VERTEX
  8
0
  5
3E96
 10
635.120
 20
39.0210
 30
-8.66712e-15
  70
    32
  0
VERTEX
  8
0
  5
3E97
 10
635.111
 20
39.0155
 30
-8.66539e-15
  70
    32
  0
VERTEX
  8
0
  5
3E98
 10
635.102
 20
39.0101
 30
-8.66365e-15
  70
    32
  0
VERTEX
  8
0
  5
3E99
 10
635.093
 20
39.0047
 30
-8.66189e-15
  70
    32
  0
VERTEX
  8
0
  5
3E9A
 10
635.084
 20
38.9994
 30
-8.66011e-15
  70
    32
  0
VERTEX
  8
0
  5
3E9B
 10
635.075
 20
38.9941
 30
-8.65832e-15
  70
    32
  0
VERTEX
  8
0
  5
3E9C
 10
635.065
 20
38.9888
 30
-8.65652e-15
  70
    32
  0
VERTEX
  8
0
  5
3E9D
 10
635.056
 20
38.9836
 30
-8.65472e-15
  70
    32
  0
VERTEX
  8
0
  5
3E9E
 10
635.047
 20
38.9784
 30
-8.65291e-15
  70
    32
  0
VERTEX
  8
0
  5
3E9F
 10
635.038
 20
38.9733
 30
-8.65109e-15
  70
    32
  0
VERTEX
  8
0
  5
3EA0
 10
635.028
 20
38.9682
 30
-8.64928e-15
  70
    32
  0
VERTEX
  8
0
  5
3EA1
 10
635.019
 20
38.9631
 30
-8.64746e-15
  70
    32
  0
VERTEX
  8
0
  5
3EA2
 10
635.009
 20
38.9581
 30
-8.64565e-15
  70
    32
  0
VERTEX
  8
0
  5
3EA3
 10
635.000
 20
38.9531
 30
-8.64384e-15
  70
    32
  0
VERTEX
  8
0
  5
3EA4
 10
634.990
 20
38.9481
 30
-8.64204e-15
  70
    32
  0
VERTEX
  8
0
  5
3EA5
 10
634.981
 20
38.9432
 30
-8.64025e-15
  70
    32
  0
VERTEX
  8
0
  5
3EA6
 10
634.971
 20
38.9383
 30
-8.63847e-15
  70
    32
  0
VERTEX
  8
0
  5
3EA7
 10
634.962
 20
38.9335
 30
-8.63671e-15
  70
    32
  0
VERTEX
  8
0
  5
3EA8
 10
634.952
 20
38.9287
 30
-8.63496e-15
  70
    32
  0
VERTEX
  8
0
  5
3EA9
 10
634.942
 20
38.9239
 30
-8.63323e-15
  70
    32
  0
VERTEX
  8
0
  5
3EAA
 10
634.933
 20
38.9192
 30
-8.63152e-15
  70
    32
  0
VERTEX
  8
0
  5
3EAB
 10
634.923
 20
38.9145
 30
-8.62983e-15
  70
    32
  0
VERTEX
  8
0
  5
3EAC
 10
634.913
 20
38.9098
 30
-8.62816e-15
  70
    32
  0
VERTEX
  8
0
  5
3EAD
 10
634.903
 20
38.9052
 30
-8.62652e-15
  70
    32
  0
VERTEX
  8
0
  5
3EAE
 10
634.894
 20
38.9007
 30
-8.62491e-15
  70
    32
  0
VERTEX
  8
0
  5
3EAF
 10
634.884
 20
38.8961
 30
-8.62333e-15
  70
    32
  0
VERTEX
  8
0
  5
3EB0
 10
634.874
 20
38.8916
 30
-8.62179e-15
  70
    32
  0
VERTEX
  8
0
  5
3EB1
 10
634.864
 20
38.8872
 30
-8.62027e-15
  70
    32
  0
VERTEX
  8
0
  5
3EB2
 10
634.854
 20
38.8828
 30
-8.61880e-15
  70
    32
  0
VERTEX
  8
0
  5
3EB3
 10
634.844
 20
38.8784
 30
-8.61736e-15
  70
    32
  0
VERTEX
  8
0
  5
3EB4
 10
634.834
 20
38.8741
 30
-8.61597e-15
  70
    32
  0
VERTEX
  8
0
  5
3EB5
 10
634.824
 20
38.8698
 30
-8.61462e-15
  70
    32
  0
VERTEX
  8
0
  5
3EB6
 10
634.814
 20
38.8655
 30
-8.61331e-15
  70
    32
  0
VERTEX
  8
0
  5
3EB7
 10
634.803
 20
38.8613
 30
-8.61205e-15
  70
    32
  0
VERTEX
  8
0
  5
3EB8
 10
634.793
 20
38.8572
 30
-8.61085e-15
  70
    32
  0
VERTEX
  8
0
  5
3EB9
 10
634.783
 20
38.8530
 30
-8.60969e-15
  70
    32
  0
VERTEX
  8
0
  5
3EBA
 10
634.773
 20
38.8489
 30
-8.60859e-15
  70
    32
  0
VERTEX
  8
0
  5
3EBB
 10
634.763
 20
38.8449
 30
-8.60754e-15
  70
    32
  0
VERTEX
  8
0
  5
3EBC
 10
634.752
 20
38.8409
 30
-8.60656e-15
  70
    32
  0
VERTEX
  8
0
  5
3EBD
 10
634.742
 20
38.8369
 30
-8.60563e-15
  70
    32
  0
VERTEX
  8
0
  5
3EBE
 10
634.732
 20
38.8330
 30
-8.60477e-15
  70
    32
  0
VERTEX
  8
0
  5
3EBF
 10
634.721
 20
38.8291
 30
-8.60397e-15
  70
    32
  0
VERTEX
  8
0
  5
3EC0
 10
634.711
 20
38.8253
 30
-8.60323e-15
  70
    32
  0
VERTEX
  8
0
  5
3EC1
 10
634.700
 20
38.8214
 30
-8.60257e-15
  70
    32
  0
VERTEX
  8
0
  5
3EC2
 10
634.690
 20
38.8177
 30
-8.60198e-15
  70
    32
  0
VERTEX
  8
0
  5
3EC3
 10
634.679
 20
38.8140
 30
-8.60146e-15
  70
    32
  0
VERTEX
  8
0
  5
3EC4
 10
634.668
 20
38.8103
 30
-8.60101e-15
  70
    32
  0
VERTEX
  8
0
  5
3EC5
 10
634.658
 20
38.8066
 30
-8.60065e-15
  70
    32
  0
VERTEX
  8
0
  5
3EC6
 10
634.647
 20
38.8030
 30
-8.60036e-15
  70
    32
  0
VERTEX
  8
0
  5
3EC7
 10
634.637
 20
38.7995
 30
-8.60016e-15
  70
    32
  0
VERTEX
  8
0
  5
3EC8
 10
634.626
 20
38.7960
 30
-8.60004e-15
  70
    32
  0
VERTEX
  8
0
  5
3EC9
 10
634.615
 20
38.7925
 30
-8.60000e-15
  70
    32
  0
VERTEX
  8
0
  5
3ECA
 10
634.604
 20
38.7891
 30
-8.60000e-15
  70
    32
  0
VERTEX
  8
0
  5
3ECB
 10
634.593
 20
38.7857
 30
-8.60000e-15
  70
    32
  0
VERTEX
  8
0
  5
3ECC
 10
634.583
 20
38.7823
 30
-8.60000e-15
  70
    32
  0
VERTEX
  8
0
  5
3ECD
 10
634.572
 20
38.7790
 30
-8.60000e-15
  70
    32
  0
VERTEX
  8
0
  5
3ECE
 10
634.561
 20
38.7758
 30
-8.60000e-15
  70
    32
  0
VERTEX
  8
0
  5
3ECF
 10
634.550
 20
38.7726
 30
-8.60000e-15
  70
    32
  0
VERTEX
  8
0
  5
3ED0
 10
634.539
 20
38.7694
 30
-8.60000e-15
  70
    32
  0
VERTEX
  8
0
  5
3ED1
 10
634.528
 20
38.7662
 30
-8.60000e-15
  70
    32
  0
VERTEX
  8
0
  5
3ED2
 10
634.517
 20
38.7631
 30
-8.60000e-15
  70
    32
  0
VERTEX
  8
0
  5
3ED3
 10
634.506
 20
38.7601
 30
-8.60000e-15
  70
    32
  0
VERTEX
  8
0
  5
3ED4
 10
634.495
 20
38.7571
 30
-8.60000e-15
  70
    32
  0
VERTEX
  8
0
  5
3ED5
 10
634.484
 20
38.7541
 30
-8.60000e-15
  70
    32
  0
VERTEX
  8
0
  5
3ED6
 10
634.472
 20
38.7512
 30
-8.60000e-15
  70
    32
  0
VERTEX
  8
0
  5
3ED7
 10
634.461
 20
38.7483
 30
-8.60000e-15
  70
    32
  0
VERTEX
  8
0
  5
3ED8
 10
634.450
 20
38.7455
 30
-8.60000e-15
  70
    32
  0
VERTEX
  8
0
  5
3ED9
 10
634.439
 20
38.7427
 30
-8.60000e-15
  70
    32
  0
VERTEX
  8
0
  5
3EDA
 10
634.427
 20
38.7399
 30
-8.60000e-15
  70
    32
  0
VERTEX
  8
0
  5
3EDB
 10
634.416
 20
38.7372
 30
-8.60000e-15
  70
    32
  0
VERTEX
  8
0
  5
3EDC
 10
634.405
 20
38.7345
 30
-8.60000e-15
  70
    32
  0
VERTEX
  8
0
  5
3EDD
 10
634.393
 20
38.7319
 30
-8.60000e-15
  70
    32
  0
VERTEX
  8
0
  5
3EDE
 10
634.382
 20
38.7293
 30
-8.60000e-15
  70
    32
  0
VERTEX
  8
0
  5
3EDF
 10
634.371
 20
38.7267
 30
-8.60000e-15
  70
    32
  0
VERTEX
  8
0
  5
3EE0
 10
634.359
 20
38.7242
 30
-8.60000e-15
  70
    32
  0
VERTEX
  8
0
  5
3EE1
 10
634.348
 20
38.7218
 30
-8.60000e-15
  70
    32
  0
VERTEX
  8
0
  5
3EE2
 10
634.336
 20
38.7193
 30
-8.60000e-15
  70
    32
  0
VERTEX
  8
0
  5
3EE3
 10
634.325
 20
38.7170
 30
-8.60000e-15
  70
    32
  0
VERTEX
  8
0
  5
3EE4
 10
634.313
 20
38.7146
 30
-8.60000e-15
  70
    32
  0
VERTEX
  8
0
  5
3EE5
 10
634.301
 20
38.7123
 30
-8.60000e-15
  70
    32
  0
VERTEX
  8
0
  5
3EE6
 10
634.290
 20
38.7101
 30
-8.60000e-15
  70
    32
  0
VERTEX
  8
0
  5
3EE7
 10
634.278
 20
38.7079
 30
-8.60000e-15
  70
    32
  0
VERTEX
  8
0
  5
3EE8
 10
634.266
 20
38.7057
 30
-8.60000e-15
  70
    32
  0
VERTEX
  8
0
  5
3EE9
 10
634.255
 20
38.7036
 30
-8.60000e-15
  70
    32
  0
VERTEX
  8
0
  5
3EEA
 10
634.243
 20
38.7015
 30
-8.60000e-15
  70
    32
  0
VERTEX
  8
0
  5
3EEB
 10
634.231
 20
38.6994
 30
-8.60000e-15
  70
    32
  0
VERTEX
  8
0
  5
3EEC
 10
634.219
 20
38.6974
 30
-8.60000e-15
  70
    32
  0
VERTEX
  8
0
  5
3EED
 10
634.207
 20
38.6955
 30
-8.60000e-15
  70
    32
  0
VERTEX
  8
0
  5
3EEE
 10
634.196
 20
38.6935
 30
-8.60000e-15
  70
    32
  0
VERTEX
  8
0
  5
3EEF
 10
634.184
 20
38.6917
 30
-8.60000e-15
  70
    32
  0
VERTEX
  8
0
  5
3EF0
 10
634.172
 20
38.6898
 30
-8.60000e-15
  70
    32
  0
VERTEX
  8
0
  5
3EF1
 10
634.160
 20
38.6880
 30
-8.60000e-15
  70
    32
  0
VERTEX
  8
0
  5
3EF2
 10
634.148
 20
38.6863
 30
-8.60000e-15
  70
    32
  0
VERTEX
  8
0
  5
3EF3
 10
634.136
 20
38.6846
 30
-8.60000e-15
  70
    32
  0
VERTEX
  8
0
  5
3EF4
 10
634.124
 20
38.6829
 30
-8.60000e-15
  70
    32
  0
VERTEX
  8
0
  5
3EF5
 10
634.112
 20
38.6813
 30
-8.60000e-15
  70
    32
  0
VERTEX
  8
0
  5
3EF6
 10
634.100
 20
38.6797
 30
-8.60000e-15
  70
    32
  0
VERTEX
  8
0
  5
3EF7
 10
634.088
 20
38.6781
 30
-8.60000e-15
  70
    32
  0
VERTEX
  8
0
  5
3EF8
 10
634.075
 20
38.6766
 30
-8.60000e-15
  70
    32
  0
VERTEX
  8
0
  5
3EF9
 10
634.063
 20
38.6752
 30
-8.60000e-15
  70
    32
  0
VERTEX
  8
0
  5
3EFA
 10
634.051
 20
38.6737
 30
-8.60000e-15
  70
    32
  0
VERTEX
  8
0
  5
3EFB
 10
634.039
 20
38.6724
 30
-8.60000e-15
  70
    32
  0
VERTEX
  8
0
  5
3EFC
 10
634.027
 20
38.6710
 30
-8.60000e-15
  70
    32
  0
VERTEX
  8
0
  5
3EFD
 10
634.014
 20
38.6697
 30
-8.60000e-15
  70
    32
  0
VERTEX
  8
0
  5
3EFE
 10
634.002
 20
38.6685
 30
-8.60000e-15
  70
    32
  0
VERTEX
  8
0
  5
3EFF
 10
633.990
 20
38.6673
 30
-8.60000e-15
  70
    32
  0
VERTEX
  8
0
  5
3F00
 10
633.977
 20
38.6661
 30
-8.60000e-15
  70
    32
  0
VERTEX
  8
0
  5
3F01
 10
633.965
 20
38.6650
 30
-8.60000e-15
  70
    32
  0
VERTEX
  8
0
  5
3F02
 10
633.953
 20
38.6639
 30
-8.60000e-15
  70
    32
  0
VERTEX
  8
0
  5
3F03
 10
633.940
 20
38.6629
 30
-8.60000e-15
  70
    32
  0
VERTEX
  8
0
  5
3F04
 10
633.928
 20
38.6619
 30
-8.60000e-15
  70
    32
  0
VERTEX
  8
0
  5
3F05
 10
633.915
 20
38.6609
 30
-8.60000e-15
  70
    32
  0
VERTEX
  8
0
  5
3F06
 10
633.903
 20
38.6600
 30
-8.60000e-15
  70
    32
  0
VERTEX
  8
0
  5
3F07
 10
633.890
 20
38.6591
 30
-8.60000e-15
  70
    32
  0
VERTEX
  8
0
  5
3F08
 10
633.878
 20
38.6583
 30
-8.60000e-15
  70
    32
  0
VERTEX
  8
0
  5
3F09
 10
633.865
 20
38.6575
 30
-8.60000e-15
  70
    32
  0
VERTEX
  8
0
  5
3F0A
 10
633.853
 20
38.6567
 30
-8.60000e-15
  70
    32
  0
VERTEX
  8
0
  5
3F0B
 10
633.840
 20
38.6560
 30
-8.60000e-15
  70
    32
  0
VERTEX
  8
0
  5
3F0C
 10
633.827
 20
38.6554
 30
-8.60000e-15
  70
    32
  0
VERTEX
  8
0
  5
3F0D
 10
633.815
 20
38.6547
 30
-8.60000e-15
  70
    32
  0
VERTEX
  8
0
  5
3F0E
 10
633.802
 20
38.6541
 30
-8.60000e-15
  70
    32
  0
VERTEX
  8
0
  5
3F0F
 10
633.789
 20
38.6536
 30
-8.60000e-15
  70
    32
  0
VERTEX
  8
0
  5
3F10
 10
633.777
 20
38.6531
 30
-8.60000e-15
  70
    32
  0
VERTEX
  8
0
  5
3F11
 10
633.764
 20
38.6526
 30
-8.60000e-15
  70
    32
  0
VERTEX
  8
0
  5
3F12
 10
633.751
 20
38.6522
 30
-8.60000e-15
  70
    32
  0
VERTEX
  8
0
  5
3F13
 10
633.739
 20
38.6519
 30
-8.60000e-15
  70
    32
  0
VERTEX
  8
0
  5
3F14
 10
633.726
 20
38.6515
 30
-8.60000e-15
  70
    32
  0
VERTEX
  8
0
  5
3F15
 10
633.713
 20
38.6512
 30
-8.60000e-15
  70
    32
  0
VERTEX
  8
0
  5
3F16
 10
633.700
 20
38.6510
 30
-8.60000e-15
  70
    32
  0
VERTEX
  8
0
  5
3F17
 10
633.687
 20
38.6508
 30
-8.60000e-15
  70
    32
  0
VERTEX
  8
0
  5
3F18
 10
633.674
 20
38.6506
 30
-8.60000e-15
  70
    32
  0
VERTEX
  8
0
  5
3F19
 10
633.661
 20
38.6505
 30
-8.60000e-15
  70
    32
  0
VERTEX
  8
0
  5
3F1A
 10
633.648
 20
38.6504
 30
-8.60000e-15
  70
    32
  0
VERTEX
  8
0
  5
3F1B
 10
633.635
 20
38.6504
 30
-8.60000e-15
  70
    32
  0
VERTEX
  8
0
  5
3F1C
 10
633.623
 20
38.6504
 30
-8.60000e-15
  70
    32
  0
VERTEX
  8
0
  5
3F1D
 10
633.610
 20
38.6504
 30
-8.60000e-15
  70
    32
  0
VERTEX
  8
0
  5
3F1E
 10
633.596
 20
38.6505
 30
-8.60000e-15
  70
    32
  0
VERTEX
  8
0
  5
3F1F
 10
633.583
 20
38.6506
 30
-8.60000e-15
  70
    32
  0
VERTEX
  8
0
  5
3F20
 10
633.570
 20
38.6508
 30
-8.60000e-15
  70
    32
  0
VERTEX
  8
0
  5
3F21
 10
633.557
 20
38.6510
 30
-8.60000e-15
  70
    32
  0
VERTEX
  8
0
  5
3F22
 10
633.544
 20
38.6512
 30
-8.60000e-15
  70
    32
  0
VERTEX
  8
0
  5
3F23
 10
633.531
 20
38.6515
 30
-8.60000e-15
  70
    32
  0
VERTEX
  8
0
  5
3F24
 10
633.518
 20
38.6519
 30
-8.60000e-15
  70
    32
  0
VERTEX
  8
0
  5
3F25
 10
633.504
 20
38.6522
 30
-8.60000e-15
  70
    32
  0
VERTEX
  8
0
  5
3F26
 10
633.491
 20
38.6526
 30
-8.60000e-15
  70
    32
  0
VERTEX
  8
0
  5
3F27
 10
633.478
 20
38.6531
 30
-8.60000e-15
  70
    32
  0
VERTEX
  8
0
  5
3F28
 10
633.464
 20
38.6536
 30
-8.60000e-15
  70
    32
  0
VERTEX
  8
0
  5
3F29
 10
633.451
 20
38.6541
 30
-8.60000e-15
  70
    32
  0
VERTEX
  8
0
  5
3F2A
 10
633.438
 20
38.6547
 30
-8.60000e-15
  70
    32
  0
VERTEX
  8
0
  5
3F2B
 10
633.424
 20
38.6554
 30
-8.60000e-15
  70
    32
  0
VERTEX
  8
0
  5
3F2C
 10
633.411
 20
38.6560
 30
-8.60000e-15
  70
    32
  0
VERTEX
  8
0
  5
3F2D
 10
633.397
 20
38.6567
 30
-8.60000e-15
  70
    32
  0
VERTEX
  8
0
  5
3F2E
 10
633.384
 20
38.6575
 30
-8.60000e-15
  70
    32
  0
VERTEX
  8
0
  5
3F2F
 10
633.370
 20
38.6583
 30
-8.60000e-15
  70
    32
  0
VERTEX
  8
0
  5
3F30
 10
633.356
 20
38.6591
 30
-8.60000e-15
  70
    32
  0
VERTEX
  8
0
  5
3F31
 10
633.343
 20
38.6600
 30
-8.60000e-15
  70
    32
  0
VERTEX
  8
0
  5
3F32
 10
633.329
 20
38.6609
 30
-8.60000e-15
  70
    32
  0
VERTEX
  8
0
  5
3F33
 10
633.315
 20
38.6619
 30
-8.60000e-15
  70
    32
  0
VERTEX
  8
0
  5
3F34
 10
633.302
 20
38.6629
 30
-8.60000e-15
  70
    32
  0
VERTEX
  8
0
  5
3F35
 10
633.288
 20
38.6639
 30
-8.60000e-15
  70
    32
  0
VERTEX
  8
0
  5
3F36
 10
633.274
 20
38.6650
 30
-8.60000e-15
  70
    32
  0
VERTEX
  8
0
  5
3F37
 10
633.260
 20
38.6661
 30
-8.60000e-15
  70
    32
  0
VERTEX
  8
0
  5
3F38
 10
633.246
 20
38.6673
 30
-8.60000e-15
  70
    32
  0
VERTEX
  8
0
  5
3F39
 10
633.233
 20
38.6685
 30
-8.60000e-15
  70
    32
  0
VERTEX
  8
0
  5
3F3A
 10
633.219
 20
38.6697
 30
-8.60000e-15
  70
    32
  0
VERTEX
  8
0
  5
3F3B
 10
633.205
 20
38.6710
 30
-8.60000e-15
  70
    32
  0
VERTEX
  8
0
  5
3F3C
 10
633.191
 20
38.6724
 30
-8.60000e-15
  70
    32
  0
VERTEX
  8
0
  5
3F3D
 10
633.177
 20
38.6737
 30
-8.60000e-15
  70
    32
  0
VERTEX
  8
0
  5
3F3E
 10
633.163
 20
38.6752
 30
-8.60000e-15
  70
    32
  0
VERTEX
  8
0
  5
3F3F
 10
633.149
 20
38.6766
 30
-8.60000e-15
  70
    32
  0
VERTEX
  8
0
  5
3F40
 10
633.135
 20
38.6781
 30
-8.60000e-15
  70
    32
  0
VERTEX
  8
0
  5
3F41
 10
633.120
 20
38.6797
 30
-8.60000e-15
  70
    32
  0
VERTEX
  8
0
  5
3F42
 10
633.106
 20
38.6813
 30
-8.60000e-15
  70
    32
  0
VERTEX
  8
0
  5
3F43
 10
633.092
 20
38.6829
 30
-8.60000e-15
  70
    32
  0
VERTEX
  8
0
  5
3F44
 10
633.078
 20
38.6846
 30
-8.60000e-15
  70
    32
  0
VERTEX
  8
0
  5
3F45
 10
633.064
 20
38.6863
 30
-8.60000e-15
  70
    32
  0
VERTEX
  8
0
  5
3F46
 10
633.050
 20
38.6880
 30
-8.60000e-15
  70
    32
  0
VERTEX
  8
0
  5
3F47
 10
633.035
 20
38.6898
 30
-8.60000e-15
  70
    32
  0
VERTEX
  8
0
  5
3F48
 10
633.021
 20
38.6917
 30
-8.60000e-15
  70
    32
  0
VERTEX
  8
0
  5
3F49
 10
633.007
 20
38.6935
 30
-8.60000e-15
  70
    32
  0
VERTEX
  8
0
  5
3F4A
 10
632.992
 20
38.6955
 30
-8.60000e-15
  70
    32
  0
VERTEX
  8
0
  5
3F4B
 10
632.978
 20
38.6974
 30
-8.60000e-15
  70
    32
  0
VERTEX
  8
0
  5
3F4C
 10
632.964
 20
38.6994
 30
-8.60000e-15
  70
    32
  0
VERTEX
  8
0
  5
3F4D
 10
632.949
 20
38.7015
 30
-8.60000e-15
  70
    32
  0
VERTEX
  8
0
  5
3F4E
 10
632.935
 20
38.7036
 30
-8.60000e-15
  70
    32
  0
VERTEX
  8
0
  5
3F4F
 10
632.920
 20
38.7057
 30
-8.60000e-15
  70
    32
  0
VERTEX
  8
0
  5
3F50
 10
632.906
 20
38.7079
 30
-8.60000e-15
  70
    32
  0
VERTEX
  8
0
  5
3F51
 10
632.891
 20
38.7101
 30
-8.60000e-15
  70
    32
  0
VERTEX
  8
0
  5
3F52
 10
632.877
 20
38.7123
 30
-8.60000e-15
  70
    32
  0
VERTEX
  8
0
  5
3F53
 10
632.862
 20
38.7146
 30
-8.60000e-15
  70
    32
  0
VERTEX
  8
0
  5
3F54
 10
632.847
 20
38.7170
 30
-8.60000e-15
  70
    32
  0
VERTEX
  8
0
  5
3F55
 10
632.833
 20
38.7193
 30
-8.60000e-15
  70
    32
  0
VERTEX
  8
0
  5
3F56
 10
632.818
 20
38.7218
 30
-8.60000e-15
  70
    32
  0
VERTEX
  8
0
  5
3F57
 10
632.803
 20
38.7242
 30
-8.60000e-15
  70
    32
  0
VERTEX
  8
0
  5
3F58
 10
632.789
 20
38.7267
 30
-8.60000e-15
  70
    32
  0
VERTEX
  8
0
  5
3F59
 10
632.774
 20
38.7293
 30
-8.60000e-15
  70
    32
  0
VERTEX
  8
0
  5
3F5A
 10
632.759
 20
38.7319
 30
-8.60000e-15
  70
    32
  0
VERTEX
  8
0
  5
3F5B
 10
632.744
 20
38.7345
 30
-8.60000e-15
  70
    32
  0
VERTEX
  8
0
  5
3F5C
 10
632.730
 20
38.7372
 30
-8.60000e-15
  70
    32
  0
VERTEX
  8
0
  5
3F5D
 10
632.715
 20
38.7399
 30
-8.60000e-15
  70
    32
  0
VERTEX
  8
0
  5
3F5E
 10
632.700
 20
38.7427
 30
-8.60000e-15
  70
    32
  0
VERTEX
  8
0
  5
3F5F
 10
632.685
 20
38.7455
 30
-8.60000e-15
  70
    32
  0
VERTEX
  8
0
  5
3F60
 10
632.670
 20
38.7483
 30
-8.60000e-15
  70
    32
  0
VERTEX
  8
0
  5
3F61
 10
632.655
 20
38.7512
 30
-8.60000e-15
  70
    32
  0
VERTEX
  8
0
  5
3F62
 10
632.640
 20
38.7541
 30
-8.60000e-15
  70
    32
  0
VERTEX
  8
0
  5
3F63
 10
632.625
 20
38.7571
 30
-8.60000e-15
  70
    32
  0
VERTEX
  8
0
  5
3F64
 10
632.610
 20
38.7601
 30
-8.60000e-15
  70
    32
  0
VERTEX
  8
0
  5
3F65
 10
632.595
 20
38.7631
 30
-8.60000e-15
  70
    32
  0
VERTEX
  8
0
  5
3F66
 10
632.580
 20
38.7662
 30
-8.60000e-15
  70
    32
  0
VERTEX
  8
0
  5
3F67
 10
632.565
 20
38.7694
 30
-8.60000e-15
  70
    32
  0
VERTEX
  8
0
  5
3F68
 10
632.550
 20
38.7726
 30
-8.60000e-15
  70
    32
  0
VERTEX
  8
0
  5
3F69
 10
632.535
 20
38.7758
 30
-8.60000e-15
  70
    32
  0
VERTEX
  8
0
  5
3F6A
 10
632.520
 20
38.7790
 30
-8.60000e-15
  70
    32
  0
VERTEX
  8
0
  5
3F6B
 10
632.505
 20
38.7823
 30
-8.60000e-15
  70
    32
  0
VERTEX
  8
0
  5
3F6C
 10
632.489
 20
38.7857
 30
-8.60000e-15
  70
    32
  0
VERTEX
  8
0
  5
3F6D
 10
632.474
 20
38.7891
 30
-8.60000e-15
  70
    32
  0
VERTEX
  8
0
  5
3F6E
 10
632.459
 20
38.7925
 30
-8.60000e-15
  70
    32
  0
VERTEX
  8
0
  5
3F6F
 10
632.444
 20
38.7960
 30
-8.60004e-15
  70
    32
  0
VERTEX
  8
0
  5
3F70
 10
632.428
 20
38.7995
 30
-8.60016e-15
  70
    32
  0
VERTEX
  8
0
  5
3F71
 10
632.413
 20
38.8030
 30
-8.60036e-15
  70
    32
  0
VERTEX
  8
0
  5
3F72
 10
632.398
 20
38.8066
 30
-8.60065e-15
  70
    32
  0
VERTEX
  8
0
  5
3F73
 10
632.383
 20
38.8103
 30
-8.60101e-15
  70
    32
  0
VERTEX
  8
0
  5
3F74
 10
632.367
 20
38.8140
 30
-8.60146e-15
  70
    32
  0
VERTEX
  8
0
  5
3F75
 10
632.352
 20
38.8177
 30
-8.60198e-15
  70
    32
  0
VERTEX
  8
0
  5
3F76
 10
632.336
 20
38.8214
 30
-8.60257e-15
  70
    32
  0
VERTEX
  8
0
  5
3F77
 10
632.321
 20
38.8253
 30
-8.60323e-15
  70
    32
  0
VERTEX
  8
0
  5
3F78
 10
632.306
 20
38.8291
 30
-8.60397e-15
  70
    32
  0
VERTEX
  8
0
  5
3F79
 10
632.290
 20
38.8330
 30
-8.60477e-15
  70
    32
  0
VERTEX
  8
0
  5
3F7A
 10
632.275
 20
38.8369
 30
-8.60563e-15
  70
    32
  0
VERTEX
  8
0
  5
3F7B
 10
632.259
 20
38.8409
 30
-8.60656e-15
  70
    32
  0
VERTEX
  8
0
  5
3F7C
 10
632.244
 20
38.8449
 30
-8.60754e-15
  70
    32
  0
VERTEX
  8
0
  5
3F7D
 10
632.228
 20
38.8489
 30
-8.60859e-15
  70
    32
  0
VERTEX
  8
0
  5
3F7E
 10
632.213
 20
38.8530
 30
-8.60969e-15
  70
    32
  0
VERTEX
  8
0
  5
3F7F
 10
632.197
 20
38.8572
 30
-8.61085e-15
  70
    32
  0
VERTEX
  8
0
  5
3F80
 10
632.181
 20
38.8613
 30
-8.61205e-15
  70
    32
  0
VERTEX
  8
0
  5
3F81
 10
632.166
 20
38.8655
 30
-8.61331e-15
  70
    32
  0
VERTEX
  8
0
  5
3F82
 10
632.150
 20
38.8698
 30
-8.61462e-15
  70
    32
  0
VERTEX
  8
0
  5
3F83
 10
632.135
 20
38.8741
 30
-8.61597e-15
  70
    32
  0
VERTEX
  8
0
  5
3F84
 10
632.119
 20
38.8784
 30
-8.61736e-15
  70
    32
  0
VERTEX
  8
0
  5
3F85
 10
632.103
 20
38.8828
 30
-8.61880e-15
  70
    32
  0
VERTEX
  8
0
  5
3F86
 10
632.088
 20
38.8872
 30
-8.62027e-15
  70
    32
  0
VERTEX
  8
0
  5
3F87
 10
632.072
 20
38.8916
 30
-8.62179e-15
  70
    32
  0
VERTEX
  8
0
  5
3F88
 10
632.056
 20
38.8961
 30
-8.62333e-15
  70
    32
  0
VERTEX
  8
0
  5
3F89
 10
632.040
 20
38.9007
 30
-8.62491e-15
  70
    32
  0
VERTEX
  8
0
  5
3F8A
 10
632.025
 20
38.9052
 30
-8.62652e-15
  70
    32
  0
VERTEX
  8
0
  5
3F8B
 10
632.009
 20
38.9098
 30
-8.62816e-15
  70
    32
  0
VERTEX
  8
0
  5
3F8C
 10
631.993
 20
38.9145
 30
-8.62983e-15
  70
    32
  0
VERTEX
  8
0
  5
3F8D
 10
631.977
 20
38.9192
 30
-8.63152e-15
  70
    32
  0
VERTEX
  8
0
  5
3F8E
 10
631.961
 20
38.9239
 30
-8.63323e-15
  70
    32
  0
VERTEX
  8
0
  5
3F8F
 10
631.946
 20
38.9287
 30
-8.63496e-15
  70
    32
  0
VERTEX
  8
0
  5
3F90
 10
631.930
 20
38.9335
 30
-8.63671e-15
  70
    32
  0
VERTEX
  8
0
  5
3F91
 10
631.914
 20
38.9383
 30
-8.63847e-15
  70
    32
  0
VERTEX
  8
0
  5
3F92
 10
631.898
 20
38.9432
 30
-8.64025e-15
  70
    32
  0
VERTEX
  8
0
  5
3F93
 10
631.882
 20
38.9481
 30
-8.64204e-15
  70
    32
  0
VERTEX
  8
0
  5
3F94
 10
631.866
 20
38.9531
 30
-8.64384e-15
  70
    32
  0
VERTEX
  8
0
  5
3F95
 10
631.850
 20
38.9581
 30
-8.64565e-15
  70
    32
  0
VERTEX
  8
0
  5
3F96
 10
631.834
 20
38.9631
 30
-8.64746e-15
  70
    32
  0
VERTEX
  8
0
  5
3F97
 10
631.818
 20
38.9682
 30
-8.64928e-15
  70
    32
  0
VERTEX
  8
0
  5
3F98
 10
631.802
 20
38.9733
 30
-8.65109e-15
  70
    32
  0
VERTEX
  8
0
  5
3F99
 10
631.786
 20
38.9784
 30
-8.65291e-15
  70
    32
  0
VERTEX
  8
0
  5
3F9A
 10
631.770
 20
38.9836
 30
-8.65472e-15
  70
    32
  0
VERTEX
  8
0
  5
3F9B
 10
631.754
 20
38.9888
 30
-8.65652e-15
  70
    32
  0
VERTEX
  8
0
  5
3F9C
 10
631.738
 20
38.9941
 30
-8.65832e-15
  70
    32
  0
VERTEX
  8
0
  5
3F9D
 10
631.722
 20
38.9994
 30
-8.66011e-15
  70
    32
  0
VERTEX
  8
0
  5
3F9E
 10
631.706
 20
39.0047
 30
-8.66189e-15
  70
    32
  0
VERTEX
  8
0
  5
3F9F
 10
631.690
 20
39.0101
 30
-8.66365e-15
  70
    32
  0
VERTEX
  8
0
  5
3FA0
 10
631.674
 20
39.0155
 30
-8.66539e-15
  70
    32
  0
VERTEX
  8
0
  5
3FA1
 10
631.658
 20
39.0210
 30
-8.66712e-15
  70
    32
  0
VERTEX
  8
0
  5
3FA2
 10
631.642
 20
39.0264
 30
-8.66883e-15
  70
    32
  0
VERTEX
  8
0
  5
3FA3
 10
631.626
 20
39.0320
 30
-8.67051e-15
  70
    32
  0
VERTEX
  8
0
  5
3FA4
 10
631.609
 20
39.0375
 30
-8.67217e-15
  70
    32
  0
VERTEX
  8
0
  5
3FA5
 10
631.593
 20
39.0431
 30
-8.67381e-15
  70
    32
  0
VERTEX
  8
0
  5
3FA6
 10
631.577
 20
39.0488
 30
-8.67541e-15
  70
    32
  0
VERTEX
  8
0
  5
3FA7
 10
631.561
 20
39.0544
 30
-8.67698e-15
  70
    32
  0
VERTEX
  8
0
  5
3FA8
 10
631.545
 20
39.0601
 30
-8.67852e-15
  70
    32
  0
VERTEX
  8
0
  5
3FA9
 10
631.529
 20
39.0659
 30
-8.68003e-15
  70
    32
  0
VERTEX
  8
0
  5
3FAA
 10
631.512
 20
39.0717
 30
-8.68150e-15
  70
    32
  0
VERTEX
  8
0
  5
3FAB
 10
631.496
 20
39.0775
 30
-8.68292e-15
  70
    32
  0
VERTEX
  8
0
  5
3FAC
 10
631.480
 20
39.0833
 30
-8.68431e-15
  70
    32
  0
VERTEX
  8
0
  5
3FAD
 10
631.464
 20
39.0892
 30
-8.68565e-15
  70
    32
  0
VERTEX
  8
0
  5
3FAE
 10
631.447
 20
39.0951
 30
-8.68695e-15
  70
    32
  0
VERTEX
  8
0
  5
3FAF
 10
631.431
 20
39.1011
 30
-8.68819e-15
  70
    32
  0
VERTEX
  8
0
  5
3FB0
 10
631.415
 20
39.1071
 30
-8.68939e-15
  70
    32
  0
VERTEX
  8
0
  5
3FB1
 10
631.399
 20
39.1131
 30
-8.69054e-15
  70
    32
  0
VERTEX
  8
0
  5
3FB2
 10
631.382
 20
39.1192
 30
-8.69163e-15
  70
    32
  0
VERTEX
  8
0
  5
3FB3
 10
631.366
 20
39.1253
 30
-8.69266e-15
  70
    32
  0
VERTEX
  8
0
  5
3FB4
 10
631.350
 20
39.1314
 30
-8.69364e-15
  70
    32
  0
VERTEX
  8
0
  5
3FB5
 10
631.333
 20
39.1376
 30
-8.69455e-15
  70
    32
  0
VERTEX
  8
0
  5
3FB6
 10
631.317
 20
39.1438
 30
-8.69540e-15
  70
    32
  0
VERTEX
  8
0
  5
3FB7
 10
631.301
 20
39.1501
 30
-8.69619e-15
  70
    32
  0
VERTEX
  8
0
  5
3FB8
 10
631.284
 20
39.1563
 30
-8.69691e-15
  70
    32
  0
VERTEX
  8
0
  5
3FB9
 10
631.268
 20
39.1627
 30
-8.69756e-15
  70
    32
  0
VERTEX
  8
0
  5
3FBA
 10
631.252
 20
39.1690
 30
-8.69813e-15
  70
    32
  0
VERTEX
  8
0
  5
3FBB
 10
631.235
 20
39.1754
 30
-8.69864e-15
  70
    32
  0
VERTEX
  8
0
  5
3FBC
 10
631.219
 20
39.1818
 30
-8.69907e-15
  70
    32
  0
VERTEX
  8
0
  5
3FBD
 10
631.203
 20
39.1883
 30
-8.69942e-15
  70
    32
  0
VERTEX
  8
0
  5
3FBE
 10
631.186
 20
39.1948
 30
-8.69969e-15
  70
    32
  0
VERTEX
  8
0
  5
3FBF
 10
631.170
 20
39.2013
 30
-8.69987e-15
  70
    32
  0
VERTEX
  8
0
  5
3FC0
 10
631.153
 20
39.2078
 30
-8.69998e-15
  70
    32
  0
VERTEX
  8
0
  5
3FC1
 10
631.137
 20
39.2144
 30
-8.70001e-15
  70
    32
  0
VERTEX
  8
0
  5
3FC2
 10
631.120
 20
39.2210
 30
-8.70015e-15
  70
    32
  0
VERTEX
  8
0
  5
3FC3
 10
631.104
 20
39.2277
 30
-8.70046e-15
  70
    32
  0
VERTEX
  8
0
  5
3FC4
 10
631.088
 20
39.2344
 30
-8.70093e-15
  70
    32
  0
VERTEX
  8
0
  5
3FC5
 10
631.071
 20
39.2411
 30
-8.70155e-15
  70
    32
  0
VERTEX
  8
0
  5
3FC6
 10
631.055
 20
39.2479
 30
-8.70233e-15
  70
    32
  0
VERTEX
  8
0
  5
3FC7
 10
631.038
 20
39.2547
 30
-8.70325e-15
  70
    32
  0
VERTEX
  8
0
  5
3FC8
 10
631.022
 20
39.2615
 30
-8.70431e-15
  70
    32
  0
VERTEX
  8
0
  5
3FC9
 10
631.005
 20
39.2684
 30
-8.70551e-15
  70
    32
  0
VERTEX
  8
0
  5
3FCA
 10
630.989
 20
39.2753
 30
-8.70682e-15
  70
    32
  0
VERTEX
  8
0
  5
3FCB
 10
630.972
 20
39.2822
 30
-8.70826e-15
  70
    32
  0
VERTEX
  8
0
  5
3FCC
 10
630.956
 20
39.2891
 30
-8.70982e-15
  70
    32
  0
VERTEX
  8
0
  5
3FCD
 10
630.939
 20
39.2961
 30
-8.71148e-15
  70
    32
  0
VERTEX
  8
0
  5
3FCE
 10
630.923
 20
39.3032
 30
-8.71324e-15
  70
    32
  0
VERTEX
  8
0
  5
3FCF
 10
630.906
 20
39.3102
 30
-8.71510e-15
  70
    32
  0
VERTEX
  8
0
  5
3FD0
 10
630.890
 20
39.3173
 30
-8.71705e-15
  70
    32
  0
VERTEX
  8
0
  5
3FD1
 10
630.873
 20
39.3244
 30
-8.71908e-15
  70
    32
  0
VERTEX
  8
0
  5
3FD2
 10
630.857
 20
39.3316
 30
-8.72119e-15
  70
    32
  0
VERTEX
  8
0
  5
3FD3
 10
630.840
 20
39.3388
 30
-8.72338e-15
  70
    32
  0
VERTEX
  8
0
  5
3FD4
 10
630.824
 20
39.3460
 30
-8.72562e-15
  70
    32
  0
VERTEX
  8
0
  5
3FD5
 10
630.807
 20
39.3532
 30
-8.72793e-15
  70
    32
  0
VERTEX
  8
0
  5
3FD6
 10
630.791
 20
39.3605
 30
-8.73029e-15
  70
    32
  0
VERTEX
  8
0
  5
3FD7
 10
630.774
 20
39.3678
 30
-8.73270e-15
  70
    32
  0
VERTEX
  8
0
  5
3FD8
 10
630.758
 20
39.3751
 30
-8.73515e-15
  70
    32
  0
VERTEX
  8
0
  5
3FD9
 10
630.741
 20
39.3825
 30
-8.73764e-15
  70
    32
  0
VERTEX
  8
0
  5
3FDA
 10
630.724
 20
39.3899
 30
-8.74015e-15
  70
    32
  0
VERTEX
  8
0
  5
3FDB
 10
630.708
 20
39.3973
 30
-8.74269e-15
  70
    32
  0
VERTEX
  8
0
  5
3FDC
 10
630.691
 20
39.4048
 30
-8.74525e-15
  70
    32
  0
VERTEX
  8
0
  5
3FDD
 10
630.675
 20
39.4123
 30
-8.74782e-15
  70
    32
  0
VERTEX
  8
0
  5
3FDE
 10
630.658
 20
39.4198
 30
-8.75039e-15
  70
    32
  0
VERTEX
  8
0
  5
3FDF
 10
630.642
 20
39.4274
 30
-8.75296e-15
  70
    32
  0
VERTEX
  8
0
  5
3FE0
 10
630.625
 20
39.4350
 30
-8.75552e-15
  70
    32
  0
VERTEX
  8
0
  5
3FE1
 10
630.609
 20
39.4426
 30
-8.75808e-15
  70
    32
  0
VERTEX
  8
0
  5
3FE2
 10
630.592
 20
39.4502
 30
-8.76061e-15
  70
    32
  0
VERTEX
  8
0
  5
3FE3
 10
630.575
 20
39.4579
 30
-8.76311e-15
  70
    32
  0
VERTEX
  8
0
  5
3FE4
 10
630.559
 20
39.4656
 30
-8.76559e-15
  70
    32
  0
VERTEX
  8
0
  5
3FE5
 10
630.542
 20
39.4733
 30
-8.76803e-15
  70
    32
  0
VERTEX
  8
0
  5
3FE6
 10
630.526
 20
39.4811
 30
-8.77042e-15
  70
    32
  0
VERTEX
  8
0
  5
3FE7
 10
630.509
 20
39.4888
 30
-8.77277e-15
  70
    32
  0
VERTEX
  8
0
  5
3FE8
 10
630.492
 20
39.4967
 30
-8.77506e-15
  70
    32
  0
VERTEX
  8
0
  5
3FE9
 10
630.476
 20
39.5045
 30
-8.77729e-15
  70
    32
  0
VERTEX
  8
0
  5
3FEA
 10
630.459
 20
39.5124
 30
-8.77945e-15
  70
    32
  0
VERTEX
  8
0
  5
3FEB
 10
630.443
 20
39.5203
 30
-8.78154e-15
  70
    32
  0
VERTEX
  8
0
  5
3FEC
 10
630.426
 20
39.5282
 30
-8.78355e-15
  70
    32
  0
VERTEX
  8
0
  5
3FED
 10
630.410
 20
39.5362
 30
-8.78547e-15
  70
    32
  0
VERTEX
  8
0
  5
3FEE
 10
630.393
 20
39.5441
 30
-8.78730e-15
  70
    32
  0
VERTEX
  8
0
  5
3FEF
 10
630.376
 20
39.5521
 30
-8.78903e-15
  70
    32
  0
VERTEX
  8
0
  5
3FF0
 10
630.360
 20
39.5602
 30
-8.79066e-15
  70
    32
  0
VERTEX
  8
0
  5
3FF1
 10
630.343
 20
39.5682
 30
-8.79218e-15
  70
    32
  0
VERTEX
  8
0
  5
3FF2
 10
630.327
 20
39.5763
 30
-8.79359e-15
  70
    32
  0
VERTEX
  8
0
  5
3FF3
 10
630.310
 20
39.5845
 30
-8.79487e-15
  70
    32
  0
VERTEX
  8
0
  5
3FF4
 10
630.294
 20
39.5926
 30
-8.79602e-15
  70
    32
  0
VERTEX
  8
0
  5
3FF5
 10
630.277
 20
39.6008
 30
-8.79704e-15
  70
    32
  0
VERTEX
  8
0
  5
3FF6
 10
630.260
 20
39.6090
 30
-8.79792e-15
  70
    32
  0
VERTEX
  8
0
  5
3FF7
 10
630.244
 20
39.6172
 30
-8.79865e-15
  70
    32
  0
VERTEX
  8
0
  5
3FF8
 10
630.227
 20
39.6254
 30
-8.79923e-15
  70
    32
  0
VERTEX
  8
0
  5
3FF9
 10
630.211
 20
39.6337
 30
-8.79966e-15
  70
    32
  0
VERTEX
  8
0
  5
3FFA
 10
630.194
 20
39.6420
 30
-8.79991e-15
  70
    32
  0
VERTEX
  8
0
  5
3FFB
 10
630.178
 20
39.6503
 30
-8.80000e-15
  70
    32
  0
SEQEND
  8
0
  5
3FFC
  0
POLYLINE
  8
0
  5
3FFD
  66
     1
 10
0.000000
 20
0.000000
 30
0.000000
  70
     8
  0
VERTEX
  8
0
  5
3FFE
 10
772.845
 20
39.6503
 30
-8.80000e-15
  70
    32
  0
VERTEX
  8
0
  5
3FFF
 10
772.828
 20
39.6420
 30
-8.79991e-15
  70
    32
  0
VERTEX
  8
0
  5
4000
 10
772.812
 20
39.6337
 30
-8.79966e-15
  70
    32
  0
VERTEX
  8
0
  5
4001
 10
772.795
 20
39.6254
 30
-8.79923e-15
  70
    32
  0
VERTEX
  8
0
  5
4002
 10
772.779
 20
39.6172
 30
-8.79865e-15
  70
    32
  0
VERTEX
  8
0
  5
4003
 10
772.762
 20
39.6090
 30
-8.79792e-15
  70
    32
  0
VERTEX
  8
0
  5
4004
 10
772.746
 20
39.6008
 30
-8.79704e-15
  70
    32
  0
VERTEX
  8
0
  5
4005
 10
772.729
 20
39.5926
 30
-8.79602e-15
  70
    32
  0
VERTEX
  8
0
  5
4006
 10
772.712
 20
39.5845
 30
-8.79487e-15
  70
    32
  0
VERTEX
  8
0
  5
4007
 10
772.696
 20
39.5763
 30
-8.79359e-15
  70
    32
  0
VERTEX
  8
0
  5
4008
 10
772.679
 20
39.5682
 30
-8.79218e-15
  70
    32
  0
VERTEX
  8
0
  5
4009
 10
772.663
 20
39.5602
 30
-8.79066e-15
  70
    32
  0
VERTEX
  8
0
  5
400A
 10
772.646
 20
39.5521
 30
-8.78903e-15
  70
    32
  0
VERTEX
  8
0
  5
400B
 10
772.630
 20
39.5441
 30
-8.78730e-15
  70
    32
  0
VERTEX
  8
0
  5
400C
 10
772.613
 20
39.5362
 30
-8.78547e-15
  70
    32
  0
VERTEX
  8
0
  5
400D
 10
772.596
 20
39.5282
 30
-8.78355e-15
  70
    32
  0
VERTEX
  8
0
  5
400E
 10
772.580
 20
39.5203
 30
-8.78154e-15
  70
    32
  0
VERTEX
  8
0
  5
400F
 10
772.563
 20
39.5124
 30
-8.77945e-15
  70
    32
  0
VERTEX
  8
0
  5
4010
 10
772.547
 20
39.5045
 30
-8.77729e-15
  70
    32
  0
VERTEX
  8
0
  5
4011
 10
772.530
 20
39.4967
 30
-8.77506e-15
  70
    32
  0
VERTEX
  8
0
  5
4012
 10
772.513
 20
39.4888
 30
-8.77277e-15
  70
    32
  0
VERTEX
  8
0
  5
4013
 10
772.497
 20
39.4811
 30
-8.77042e-15
  70
    32
  0
VERTEX
  8
0
  5
4014
 10
772.480
 20
39.4733
 30
-8.76803e-15
  70
    32
  0
VERTEX
  8
0
  5
4015
 10
772.464
 20
39.4656
 30
-8.76559e-15
  70
    32
  0
VERTEX
  8
0
  5
4016
 10
772.447
 20
39.4579
 30
-8.76311e-15
  70
    32
  0
VERTEX
  8
0
  5
4017
 10
772.431
 20
39.4502
 30
-8.76061e-15
  70
    32
  0
VERTEX
  8
0
  5
4018
 10
772.414
 20
39.4426
 30
-8.75808e-15
  70
    32
  0
VERTEX
  8
0
  5
4019
 10
772.397
 20
39.4350
 30
-8.75552e-15
  70
    32
  0
VERTEX
  8
0
  5
401A
 10
772.381
 20
39.4274
 30
-8.75296e-15
  70
    32
  0
VERTEX
  8
0
  5
401B
 10
772.364
 20
39.4198
 30
-8.75039e-15
  70
    32
  0
VERTEX
  8
0
  5
401C
 10
772.348
 20
39.4123
 30
-8.74782e-15
  70
    32
  0
VERTEX
  8
0
  5
401D
 10
772.331
 20
39.4048
 30
-8.74525e-15
  70
    32
  0
VERTEX
  8
0
  5
401E
 10
772.315
 20
39.3973
 30
-8.74269e-15
  70
    32
  0
VERTEX
  8
0
  5
401F
 10
772.298
 20
39.3899
 30
-8.74015e-15
  70
    32
  0
VERTEX
  8
0
  5
4020
 10
772.281
 20
39.3825
 30
-8.73764e-15
  70
    32
  0
VERTEX
  8
0
  5
4021
 10
772.265
 20
39.3751
 30
-8.73515e-15
  70
    32
  0
VERTEX
  8
0
  5
4022
 10
772.248
 20
39.3678
 30
-8.73270e-15
  70
    32
  0
VERTEX
  8
0
  5
4023
 10
772.232
 20
39.3605
 30
-8.73029e-15
  70
    32
  0
VERTEX
  8
0
  5
4024
 10
772.215
 20
39.3532
 30
-8.72793e-15
  70
    32
  0
VERTEX
  8
0
  5
4025
 10
772.199
 20
39.3460
 30
-8.72562e-15
  70
    32
  0
VERTEX
  8
0
  5
4026
 10
772.182
 20
39.3388
 30
-8.72338e-15
  70
    32
  0
VERTEX
  8
0
  5
4027
 10
772.166
 20
39.3316
 30
-8.72119e-15
  70
    32
  0
VERTEX
  8
0
  5
4028
 10
772.149
 20
39.3244
 30
-8.71908e-15
  70
    32
  0
VERTEX
  8
0
  5
4029
 10
772.133
 20
39.3173
 30
-8.71705e-15
  70
    32
  0
VERTEX
  8
0
  5
402A
 10
772.116
 20
39.3102
 30
-8.71510e-15
  70
    32
  0
VERTEX
  8
0
  5
402B
 10
772.100
 20
39.3032
 30
-8.71324e-15
  70
    32
  0
VERTEX
  8
0
  5
402C
 10
772.083
 20
39.2961
 30
-8.71148e-15
  70
    32
  0
VERTEX
  8
0
  5
402D
 10
772.067
 20
39.2891
 30
-8.70982e-15
  70
    32
  0
VERTEX
  8
0
  5
402E
 10
772.050
 20
39.2822
 30
-8.70826e-15
  70
    32
  0
VERTEX
  8
0
  5
402F
 10
772.034
 20
39.2753
 30
-8.70682e-15
  70
    32
  0
VERTEX
  8
0
  5
4030
 10
772.017
 20
39.2684
 30
-8.70551e-15
  70
    32
  0
VERTEX
  8
0
  5
4031
 10
772.001
 20
39.2615
 30
-8.70431e-15
  70
    32
  0
VERTEX
  8
0
  5
4032
 10
771.984
 20
39.2547
 30
-8.70325e-15
  70
    32
  0
VERTEX
  8
0
  5
4033
 10
771.968
 20
39.2479
 30
-8.70233e-15
  70
    32
  0
VERTEX
  8
0
  5
4034
 10
771.951
 20
39.2411
 30
-8.70155e-15
  70
    32
  0
VERTEX
  8
0
  5
4035
 10
771.935
 20
39.2344
 30
-8.70093e-15
  70
    32
  0
VERTEX
  8
0
  5
4036
 10
771.918
 20
39.2277
 30
-8.70046e-15
  70
    32
  0
VERTEX
  8
0
  5
4037
 10
771.902
 20
39.2210
 30
-8.70015e-15
  70
    32
  0
VERTEX
  8
0
  5
4038
 10
771.886
 20
39.2144
 30
-8.70001e-15
  70
    32
  0
VERTEX
  8
0
  5
4039
 10
771.869
 20
39.2078
 30
-8.69998e-15
  70
    32
  0
VERTEX
  8
0
  5
403A
 10
771.853
 20
39.2013
 30
-8.69987e-15
  70
    32
  0
VERTEX
  8
0
  5
403B
 10
771.836
 20
39.1948
 30
-8.69969e-15
  70
    32
  0
VERTEX
  8
0
  5
403C
 10
771.820
 20
39.1883
 30
-8.69942e-15
  70
    32
  0
VERTEX
  8
0
  5
403D
 10
771.804
 20
39.1818
 30
-8.69907e-15
  70
    32
  0
VERTEX
  8
0
  5
403E
 10
771.787
 20
39.1754
 30
-8.69864e-15
  70
    32
  0
VERTEX
  8
0
  5
403F
 10
771.771
 20
39.1690
 30
-8.69813e-15
  70
    32
  0
VERTEX
  8
0
  5
4040
 10
771.755
 20
39.1627
 30
-8.69756e-15
  70
    32
  0
VERTEX
  8
0
  5
4041
 10
771.738
 20
39.1563
 30
-8.69691e-15
  70
    32
  0
VERTEX
  8
0
  5
4042
 10
771.722
 20
39.1501
 30
-8.69619e-15
  70
    32
  0
VERTEX
  8
0
  5
4043
 10
771.705
 20
39.1438
 30
-8.69540e-15
  70
    32
  0
VERTEX
  8
0
  5
4044
 10
771.689
 20
39.1376
 30
-8.69455e-15
  70
    32
  0
VERTEX
  8
0
  5
4045
 10
771.673
 20
39.1314
 30
-8.69364e-15
  70
    32
  0
VERTEX
  8
0
  5
4046
 10
771.657
 20
39.1253
 30
-8.69266e-15
  70
    32
  0
VERTEX
  8
0
  5
4047
 10
771.640
 20
39.1192
 30
-8.69163e-15
  70
    32
  0
VERTEX
  8
0
  5
4048
 10
771.624
 20
39.1131
 30
-8.69054e-15
  70
    32
  0
VERTEX
  8
0
  5
4049
 10
771.608
 20
39.1071
 30
-8.68939e-15
  70
    32
  0
VERTEX
  8
0
  5
404A
 10
771.591
 20
39.1011
 30
-8.68819e-15
  70
    32
  0
VERTEX
  8
0
  5
404B
 10
771.575
 20
39.0951
 30
-8.68695e-15
  70
    32
  0
VERTEX
  8
0
  5
404C
 10
771.559
 20
39.0892
 30
-8.68565e-15
  70
    32
  0
VERTEX
  8
0
  5
404D
 10
771.543
 20
39.0833
 30
-8.68431e-15
  70
    32
  0
VERTEX
  8
0
  5
404E
 10
771.526
 20
39.0775
 30
-8.68292e-15
  70
    32
  0
VERTEX
  8
0
  5
404F
 10
771.510
 20
39.0717
 30
-8.68150e-15
  70
    32
  0
VERTEX
  8
0
  5
4050
 10
771.494
 20
39.0659
 30
-8.68003e-15
  70
    32
  0
VERTEX
  8
0
  5
4051
 10
771.478
 20
39.0601
 30
-8.67852e-15
  70
    32
  0
VERTEX
  8
0
  5
4052
 10
771.462
 20
39.0544
 30
-8.67698e-15
  70
    32
  0
VERTEX
  8
0
  5
4053
 10
771.445
 20
39.0488
 30
-8.67541e-15
  70
    32
  0
VERTEX
  8
0
  5
4054
 10
771.429
 20
39.0431
 30
-8.67381e-15
  70
    32
  0
VERTEX
  8
0
  5
4055
 10
771.413
 20
39.0375
 30
-8.67217e-15
  70
    32
  0
VERTEX
  8
0
  5
4056
 10
771.397
 20
39.0320
 30
-8.67051e-15
  70
    32
  0
VERTEX
  8
0
  5
4057
 10
771.381
 20
39.0264
 30
-8.66883e-15
  70
    32
  0
VERTEX
  8
0
  5
4058
 10
771.365
 20
39.0210
 30
-8.66712e-15
  70
    32
  0
VERTEX
  8
0
  5
4059
 10
771.349
 20
39.0155
 30
-8.66539e-15
  70
    32
  0
VERTEX
  8
0
  5
405A
 10
771.333
 20
39.0101
 30
-8.66365e-15
  70
    32
  0
VERTEX
  8
0
  5
405B
 10
771.316
 20
39.0047
 30
-8.66189e-15
  70
    32
  0
VERTEX
  8
0
  5
405C
 10
771.300
 20
38.9994
 30
-8.66011e-15
  70
    32
  0
VERTEX
  8
0
  5
405D
 10
771.284
 20
38.9941
 30
-8.65832e-15
  70
    32
  0
VERTEX
  8
0
  5
405E
 10
771.268
 20
38.9888
 30
-8.65652e-15
  70
    32
  0
VERTEX
  8
0
  5
405F
 10
771.252
 20
38.9836
 30
-8.65472e-15
  70
    32
  0
VERTEX
  8
0
  5
4060
 10
771.236
 20
38.9784
 30
-8.65291e-15
  70
    32
  0
VERTEX
  8
0
  5
4061
 10
771.220
 20
38.9733
 30
-8.65109e-15
  70
    32
  0
VERTEX
  8
0
  5
4062
 10
771.204
 20
38.9682
 30
-8.64928e-15
  70
    32
  0
VERTEX
  8
0
  5
4063
 10
771.188
 20
38.9631
 30
-8.64746e-15
  70
    32
  0
VERTEX
  8
0
  5
4064
 10
771.172
 20
38.9581
 30
-8.64565e-15
  70
    32
  0
VERTEX
  8
0
  5
4065
 10
771.156
 20
38.9531
 30
-8.64384e-15
  70
    32
  0
VERTEX
  8
0
  5
4066
 10
771.141
 20
38.9481
 30
-8.64204e-15
  70
    32
  0
VERTEX
  8
0
  5
4067
 10
771.125
 20
38.9432
 30
-8.64025e-15
  70
    32
  0
VERTEX
  8
0
  5
4068
 10
771.109
 20
38.9383
 30
-8.63847e-15
  70
    32
  0
VERTEX
  8
0
  5
4069
 10
771.093
 20
38.9335
 30
-8.63671e-15
  70
    32
  0
VERTEX
  8
0
  5
406A
 10
771.077
 20
38.9287
 30
-8.63496e-15
  70
    32
  0
VERTEX
  8
0
  5
406B
 10
771.061
 20
38.9239
 30
-8.63323e-15
  70
    32
  0
VERTEX
  8
0
  5
406C
 10
771.045
 20
38.9192
 30
-8.63152e-15
  70
    32
  0
VERTEX
  8
0
  5
406D
 10
771.030
 20
38.9145
 30
-8.62983e-15
  70
    32
  0
VERTEX
  8
0
  5
406E
 10
771.014
 20
38.9098
 30
-8.62816e-15
  70
    32
  0
VERTEX
  8
0
  5
406F
 10
770.998
 20
38.9052
 30
-8.62652e-15
  70
    32
  0
VERTEX
  8
0
  5
4070
 10
770.982
 20
38.9007
 30
-8.62491e-15
  70
    32
  0
VERTEX
  8
0
  5
4071
 10
770.966
 20
38.8961
 30
-8.62333e-15
  70
    32
  0
VERTEX
  8
0
  5
4072
 10
770.951
 20
38.8916
 30
-8.62179e-15
  70
    32
  0
VERTEX
  8
0
  5
4073
 10
770.935
 20
38.8872
 30
-8.62027e-15
  70
    32
  0
VERTEX
  8
0
  5
4074
 10
770.919
 20
38.8828
 30
-8.61880e-15
  70
    32
  0
VERTEX
  8
0
  5
4075
 10
770.904
 20
38.8784
 30
-8.61736e-15
  70
    32
  0
VERTEX
  8
0
  5
4076
 10
770.888
 20
38.8741
 30
-8.61597e-15
  70
    32
  0
VERTEX
  8
0
  5
4077
 10
770.872
 20
38.8698
 30
-8.61462e-15
  70
    32
  0
VERTEX
  8
0
  5
4078
 10
770.857
 20
38.8655
 30
-8.61331e-15
  70
    32
  0
VERTEX
  8
0
  5
4079
 10
770.841
 20
38.8613
 30
-8.61205e-15
  70
    32
  0
VERTEX
  8
0
  5
407A
 10
770.825
 20
38.8572
 30
-8.61085e-15
  70
    32
  0
VERTEX
  8
0
  5
407B
 10
770.810
 20
38.8530
 30
-8.60969e-15
  70
    32
  0
VERTEX
  8
0
  5
407C
 10
770.794
 20
38.8489
 30
-8.60859e-15
  70
    32
  0
VERTEX
  8
0
  5
407D
 10
770.779
 20
38.8449
 30
-8.60754e-15
  70
    32
  0
VERTEX
  8
0
  5
407E
 10
770.763
 20
38.8409
 30
-8.60656e-15
  70
    32
  0
VERTEX
  8
0
  5
407F
 10
770.748
 20
38.8369
 30
-8.60563e-15
  70
    32
  0
VERTEX
  8
0
  5
4080
 10
770.732
 20
38.8330
 30
-8.60477e-15
  70
    32
  0
VERTEX
  8
0
  5
4081
 10
770.717
 20
38.8291
 30
-8.60397e-15
  70
    32
  0
VERTEX
  8
0
  5
4082
 10
770.701
 20
38.8253
 30
-8.60323e-15
  70
    32
  0
VERTEX
  8
0
  5
4083
 10
770.686
 20
38.8214
 30
-8.60257e-15
  70
    32
  0
VERTEX
  8
0
  5
4084
 10
770.671
 20
38.8177
 30
-8.60198e-15
  70
    32
  0
VERTEX
  8
0
  5
4085
 10
770.655
 20
38.8140
 30
-8.60146e-15
  70
    32
  0
VERTEX
  8
0
  5
4086
 10
770.640
 20
38.8103
 30
-8.60101e-15
  70
    32
  0
VERTEX
  8
0
  5
4087
 10
770.625
 20
38.8066
 30
-8.60065e-15
  70
    32
  0
VERTEX
  8
0
  5
4088
 10
770.609
 20
38.8030
 30
-8.60036e-15
  70
    32
  0
VERTEX
  8
0
  5
4089
 10
770.594
 20
38.7995
 30
-8.60016e-15
  70
    32
  0
VERTEX
  8
0
  5
408A
 10
770.579
 20
38.7960
 30
-8.60004e-15
  70
    32
  0
VERTEX
  8
0
  5
408B
 10
770.564
 20
38.7925
 30
-8.60000e-15
  70
    32
  0
VERTEX
  8
0
  5
408C
 10
770.548
 20
38.7891
 30
-8.60000e-15
  70
    32
  0
VERTEX
  8
0
  5
408D
 10
770.533
 20
38.7857
 30
-8.60000e-15
  70
    32
  0
VERTEX
  8
0
  5
408E
 10
770.518
 20
38.7823
 30
-8.60000e-15
  70
    32
  0
VERTEX
  8
0
  5
408F
 10
770.503
 20
38.7790
 30
-8.60000e-15
  70
    32
  0
VERTEX
  8
0
  5
4090
 10
770.488
 20
38.7758
 30
-8.60000e-15
  70
    32
  0
VERTEX
  8
0
  5
4091
 10
770.473
 20
38.7726
 30
-8.60000e-15
  70
    32
  0
VERTEX
  8
0
  5
4092
 10
770.457
 20
38.7694
 30
-8.60000e-15
  70
    32
  0
VERTEX
  8
0
  5
4093
 10
770.442
 20
38.7662
 30
-8.60000e-15
  70
    32
  0
VERTEX
  8
0
  5
4094
 10
770.427
 20
38.7631
 30
-8.60000e-15
  70
    32
  0
VERTEX
  8
0
  5
4095
 10
770.412
 20
38.7601
 30
-8.60000e-15
  70
    32
  0
VERTEX
  8
0
  5
4096
 10
770.397
 20
38.7571
 30
-8.60000e-15
  70
    32
  0
VERTEX
  8
0
  5
4097
 10
770.382
 20
38.7541
 30
-8.60000e-15
  70
    32
  0
VERTEX
  8
0
  5
4098
 10
770.367
 20
38.7512
 30
-8.60000e-15
  70
    32
  0
VERTEX
  8
0
  5
4099
 10
770.352
 20
38.7483
 30
-8.60000e-15
  70
    32
  0
VERTEX
  8
0
  5
409A
 10
770.338
 20
38.7455
 30
-8.60000e-15
  70
    32
  0
VERTEX
  8
0
  5
409B
 10
770.323
 20
38.7427
 30
-8.60000e-15
  70
    32
  0
VERTEX
  8
0
  5
409C
 10
770.308
 20
38.7399
 30
-8.60000e-15
  70
    32
  0
VERTEX
  8
0
  5
409D
 10
770.293
 20
38.7372
 30
-8.60000e-15
  70
    32
  0
VERTEX
  8
0
  5
409E
 10
770.278
 20
38.7345
 30
-8.60000e-15
  70
    32
  0
VERTEX
  8
0
  5
409F
 10
770.263
 20
38.7319
 30
-8.60000e-15
  70
    32
  0
VERTEX
  8
0
  5
40A0
 10
770.249
 20
38.7293
 30
-8.60000e-15
  70
    32
  0
VERTEX
  8
0
  5
40A1
 10
770.234
 20
38.7267
 30
-8.60000e-15
  70
    32
  0
VERTEX
  8
0
  5
40A2
 10
770.219
 20
38.7242
 30
-8.60000e-15
  70
    32
  0
VERTEX
  8
0
  5
40A3
 10
770.204
 20
38.7218
 30
-8.60000e-15
  70
    32
  0
VERTEX
  8
0
  5
40A4
 10
770.190
 20
38.7193
 30
-8.60000e-15
  70
    32
  0
VERTEX
  8
0
  5
40A5
 10
770.175
 20
38.7170
 30
-8.60000e-15
  70
    32
  0
VERTEX
  8
0
  5
40A6
 10
770.161
 20
38.7146
 30
-8.60000e-15
  70
    32
  0
VERTEX
  8
0
  5
40A7
 10
770.146
 20
38.7123
 30
-8.60000e-15
  70
    32
  0
VERTEX
  8
0
  5
40A8
 10
770.131
 20
38.7101
 30
-8.60000e-15
  70
    32
  0
VERTEX
  8
0
  5
40A9
 10
770.117
 20
38.7079
 30
-8.60000e-15
  70
    32
  0
VERTEX
  8
0
  5
40AA
 10
770.102
 20
38.7057
 30
-8.60000e-15
  70
    32
  0
VERTEX
  8
0
  5
40AB
 10
770.088
 20
38.7036
 30
-8.60000e-15
  70
    32
  0
VERTEX
  8
0
  5
40AC
 10
770.073
 20
38.7015
 30
-8.60000e-15
  70
    32
  0
VERTEX
  8
0
  5
40AD
 10
770.059
 20
38.6994
 30
-8.60000e-15
  70
    32
  0
VERTEX
  8
0
  5
40AE
 10
770.045
 20
38.6974
 30
-8.60000e-15
  70
    32
  0
VERTEX
  8
0
  5
40AF
 10
770.030
 20
38.6955
 30
-8.60000e-15
  70
    32
  0
VERTEX
  8
0
  5
40B0
 10
770.016
 20
38.6935
 30
-8.60000e-15
  70
    32
  0
VERTEX
  8
0
  5
40B1
 10
770.002
 20
38.6917
 30
-8.60000e-15
  70
    32
  0
VERTEX
  8
0
  5
40B2
 10
769.987
 20
38.6898
 30
-8.60000e-15
  70
    32
  0
VERTEX
  8
0
  5
40B3
 10
769.973
 20
38.6880
 30
-8.60000e-15
  70
    32
  0
VERTEX
  8
0
  5
40B4
 10
769.959
 20
38.6863
 30
-8.60000e-15
  70
    32
  0
VERTEX
  8
0
  5
40B5
 10
769.945
 20
38.6846
 30
-8.60000e-15
  70
    32
  0
VERTEX
  8
0
  5
40B6
 10
769.930
 20
38.6829
 30
-8.60000e-15
  70
    32
  0
VERTEX
  8
0
  5
40B7
 10
769.916
 20
38.6813
 30
-8.60000e-15
  70
    32
  0
VERTEX
  8
0
  5
40B8
 10
769.902
 20
38.6797
 30
-8.60000e-15
  70
    32
  0
VERTEX
  8
0
  5
40B9
 10
769.888
 20
38.6781
 30
-8.60000e-15
  70
    32
  0
VERTEX
  8
0
  5
40BA
 10
769.874
 20
38.6766
 30
-8.60000e-15
  70
    32
  0
VERTEX
  8
0
  5
40BB
 10
769.860
 20
38.6752
 30
-8.60000e-15
  70
    32
  0
VERTEX
  8
0
  5
40BC
 10
769.846
 20
38.6737
 30
-8.60000e-15
  70
    32
  0
VERTEX
  8
0
  5
40BD
 10
769.832
 20
38.6724
 30
-8.60000e-15
  70
    32
  0
VERTEX
  8
0
  5
40BE
 10
769.818
 20
38.6710
 30
-8.60000e-15
  70
    32
  0
VERTEX
  8
0
  5
40BF
 10
769.804
 20
38.6697
 30
-8.60000e-15
  70
    32
  0
VERTEX
  8
0
  5
40C0
 10
769.790
 20
38.6685
 30
-8.60000e-15
  70
    32
  0
VERTEX
  8
0
  5
40C1
 10
769.776
 20
38.6673
 30
-8.60000e-15
  70
    32
  0
VERTEX
  8
0
  5
40C2
 10
769.762
 20
38.6661
 30
-8.60000e-15
  70
    32
  0
VERTEX
  8
0
  5
40C3
 10
769.748
 20
38.6650
 30
-8.60000e-15
  70
    32
  0
VERTEX
  8
0
  5
40C4
 10
769.735
 20
38.6639
 30
-8.60000e-15
  70
    32
  0
VERTEX
  8
0
  5
40C5
 10
769.721
 20
38.6629
 30
-8.60000e-15
  70
    32
  0
VERTEX
  8
0
  5
40C6
 10
769.707
 20
38.6619
 30
-8.60000e-15
  70
    32
  0
VERTEX
  8
0
  5
40C7
 10
769.693
 20
38.6609
 30
-8.60000e-15
  70
    32
  0
VERTEX
  8
0
  5
40C8
 10
769.680
 20
38.6600
 30
-8.60000e-15
  70
    32
  0
VERTEX
  8
0
  5
40C9
 10
769.666
 20
38.6591
 30
-8.60000e-15
  70
    32
  0
VERTEX
  8
0
  5
40CA
 10
769.653
 20
38.6583
 30
-8.60000e-15
  70
    32
  0
VERTEX
  8
0
  5
40CB
 10
769.639
 20
38.6575
 30
-8.60000e-15
  70
    32
  0
VERTEX
  8
0
  5
40CC
 10
769.625
 20
38.6567
 30
-8.60000e-15
  70
    32
  0
VERTEX
  8
0
  5
40CD
 10
769.612
 20
38.6560
 30
-8.60000e-15
  70
    32
  0
VERTEX
  8
0
  5
40CE
 10
769.598
 20
38.6554
 30
-8.60000e-15
  70
    32
  0
VERTEX
  8
0
  5
40CF
 10
769.585
 20
38.6547
 30
-8.60000e-15
  70
    32
  0
VERTEX
  8
0
  5
40D0
 10
769.572
 20
38.6541
 30
-8.60000e-15
  70
    32
  0
VERTEX
  8
0
  5
40D1
 10
769.558
 20
38.6536
 30
-8.60000e-15
  70
    32
  0
VERTEX
  8
0
  5
40D2
 10
769.545
 20
38.6531
 30
-8.60000e-15
  70
    32
  0
VERTEX
  8
0
  5
40D3
 10
769.532
 20
38.6526
 30
-8.60000e-15
  70
    32
  0
VERTEX
  8
0
  5
40D4
 10
769.518
 20
38.6522
 30
-8.60000e-15
  70
    32
  0
VERTEX
  8
0
  5
40D5
 10
769.505
 20
38.6519
 30
-8.60000e-15
  70
    32
  0
VERTEX
  8
0
  5
40D6
 10
769.492
 20
38.6515
 30
-8.60000e-15
  70
    32
  0
VERTEX
  8
0
  5
40D7
 10
769.479
 20
38.6512
 30
-8.60000e-15
  70
    32
  0
VERTEX
  8
0
  5
40D8
 10
769.465
 20
38.6510
 30
-8.60000e-15
  70
    32
  0
VERTEX
  8
0
  5
40D9
 10
769.452
 20
38.6508
 30
-8.60000e-15
  70
    32
  0
VERTEX
  8
0
  5
40DA
 10
769.439
 20
38.6506
 30
-8.60000e-15
  70
    32
  0
VERTEX
  8
0
  5
40DB
 10
769.426
 20
38.6505
 30
-8.60000e-15
  70
    32
  0
VERTEX
  8
0
  5
40DC
 10
769.413
 20
38.6504
 30
-8.60000e-15
  70
    32
  0
VERTEX
  8
0
  5
40DD
 10
769.400
 20
38.6504
 30
-8.60000e-15
  70
    32
  0
VERTEX
  8
0
  5
40DE
 10
769.387
 20
38.6504
 30
-8.60000e-15
  70
    32
  0
VERTEX
  8
0
  5
40DF
 10
769.374
 20
38.6504
 30
-8.60000e-15
  70
    32
  0
VERTEX
  8
0
  5
40E0
 10
769.361
 20
38.6505
 30
-8.60000e-15
  70
    32
  0
VERTEX
  8
0
  5
40E1
 10
769.348
 20
38.6506
 30
-8.60000e-15
  70
    32
  0
VERTEX
  8
0
  5
40E2
 10
769.335
 20
38.6508
 30
-8.60000e-15
  70
    32
  0
VERTEX
  8
0
  5
40E3
 10
769.322
 20
38.6510
 30
-8.60000e-15
  70
    32
  0
VERTEX
  8
0
  5
40E4
 10
769.310
 20
38.6512
 30
-8.60000e-15
  70
    32
  0
VERTEX
  8
0
  5
40E5
 10
769.297
 20
38.6515
 30
-8.60000e-15
  70
    32
  0
VERTEX
  8
0
  5
40E6
 10
769.284
 20
38.6519
 30
-8.60000e-15
  70
    32
  0
VERTEX
  8
0
  5
40E7
 10
769.271
 20
38.6522
 30
-8.60000e-15
  70
    32
  0
VERTEX
  8
0
  5
40E8
 10
769.258
 20
38.6526
 30
-8.60000e-15
  70
    32
  0
VERTEX
  8
0
  5
40E9
 10
769.246
 20
38.6531
 30
-8.60000e-15
  70
    32
  0
VERTEX
  8
0
  5
40EA
 10
769.233
 20
38.6536
 30
-8.60000e-15
  70
    32
  0
VERTEX
  8
0
  5
40EB
 10
769.220
 20
38.6541
 30
-8.60000e-15
  70
    32
  0
VERTEX
  8
0
  5
40EC
 10
769.208
 20
38.6547
 30
-8.60000e-15
  70
    32
  0
VERTEX
  8
0
  5
40ED
 10
769.195
 20
38.6554
 30
-8.60000e-15
  70
    32
  0
VERTEX
  8
0
  5
40EE
 10
769.182
 20
38.6560
 30
-8.60000e-15
  70
    32
  0
VERTEX
  8
0
  5
40EF
 10
769.170
 20
38.6567
 30
-8.60000e-15
  70
    32
  0
VERTEX
  8
0
  5
40F0
 10
769.157
 20
38.6575
 30
-8.60000e-15
  70
    32
  0
VERTEX
  8
0
  5
40F1
 10
769.145
 20
38.6583
 30
-8.60000e-15
  70
    32
  0
VERTEX
  8
0
  5
40F2
 10
769.132
 20
38.6591
 30
-8.60000e-15
  70
    32
  0
VERTEX
  8
0
  5
40F3
 10
769.120
 20
38.6600
 30
-8.60000e-15
  70
    32
  0
VERTEX
  8
0
  5
40F4
 10
769.107
 20
38.6609
 30
-8.60000e-15
  70
    32
  0
VERTEX
  8
0
  5
40F5
 10
769.095
 20
38.6619
 30
-8.60000e-15
  70
    32
  0
VERTEX
  8
0
  5
40F6
 10
769.082
 20
38.6629
 30
-8.60000e-15
  70
    32
  0
VERTEX
  8
0
  5
40F7
 10
769.070
 20
38.6639
 30
-8.60000e-15
  70
    32
  0
VERTEX
  8
0
  5
40F8
 10
769.057
 20
38.6650
 30
-8.60000e-15
  70
    32
  0
VERTEX
  8
0
  5
40F9
 10
769.045
 20
38.6661
 30
-8.60000e-15
  70
    32
  0
VERTEX
  8
0
  5
40FA
 10
769.033
 20
38.6673
 30
-8.60000e-15
  70
    32
  0
VERTEX
  8
0
  5
40FB
 10
769.020
 20
38.6685
 30
-8.60000e-15
  70
    32
  0
VERTEX
  8
0
  5
40FC
 10
769.008
 20
38.6697
 30
-8.60000e-15
  70
    32
  0
VERTEX
  8
0
  5
40FD
 10
768.996
 20
38.6710
 30
-8.60000e-15
  70
    32
  0
VERTEX
  8
0
  5
40FE
 10
768.984
 20
38.6724
 30
-8.60000e-15
  70
    32
  0
VERTEX
  8
0
  5
40FF
 10
768.971
 20
38.6737
 30
-8.60000e-15
  70
    32
  0
VERTEX
  8
0
  5
4100
 10
768.959
 20
38.6752
 30
-8.60000e-15
  70
    32
  0
VERTEX
  8
0
  5
4101
 10
768.947
 20
38.6766
 30
-8.60000e-15
  70
    32
  0
VERTEX
  8
0
  5
4102
 10
768.935
 20
38.6781
 30
-8.60000e-15
  70
    32
  0
VERTEX
  8
0
  5
4103
 10
768.923
 20
38.6797
 30
-8.60000e-15
  70
    32
  0
VERTEX
  8
0
  5
4104
 10
768.911
 20
38.6813
 30
-8.60000e-15
  70
    32
  0
VERTEX
  8
0
  5
4105
 10
768.899
 20
38.6829
 30
-8.60000e-15
  70
    32
  0
VERTEX
  8
0
  5
4106
 10
768.887
 20
38.6846
 30
-8.60000e-15
  70
    32
  0
VERTEX
  8
0
  5
4107
 10
768.875
 20
38.6863
 30
-8.60000e-15
  70
    32
  0
VERTEX
  8
0
  5
4108
 10
768.863
 20
38.6880
 30
-8.60000e-15
  70
    32
  0
VERTEX
  8
0
  5
4109
 10
768.851
 20
38.6898
 30
-8.60000e-15
  70
    32
  0
VERTEX
  8
0
  5
410A
 10
768.839
 20
38.6917
 30
-8.60000e-15
  70
    32
  0
VERTEX
  8
0
  5
410B
 10
768.827
 20
38.6935
 30
-8.60000e-15
  70
    32
  0
VERTEX
  8
0
  5
410C
 10
768.815
 20
38.6955
 30
-8.60000e-15
  70
    32
  0
VERTEX
  8
0
  5
410D
 10
768.803
 20
38.6974
 30
-8.60000e-15
  70
    32
  0
VERTEX
  8
0
  5
410E
 10
768.792
 20
38.6994
 30
-8.60000e-15
  70
    32
  0
VERTEX
  8
0
  5
410F
 10
768.780
 20
38.7015
 30
-8.60000e-15
  70
    32
  0
VERTEX
  8
0
  5
4110
 10
768.768
 20
38.7036
 30
-8.60000e-15
  70
    32
  0
VERTEX
  8
0
  5
4111
 10
768.756
 20
38.7057
 30
-8.60000e-15
  70
    32
  0
VERTEX
  8
0
  5
4112
 10
768.745
 20
38.7079
 30
-8.60000e-15
  70
    32
  0
VERTEX
  8
0
  5
4113
 10
768.733
 20
38.7101
 30
-8.60000e-15
  70
    32
  0
VERTEX
  8
0
  5
4114
 10
768.721
 20
38.7123
 30
-8.60000e-15
  70
    32
  0
VERTEX
  8
0
  5
4115
 10
768.710
 20
38.7146
 30
-8.60000e-15
  70
    32
  0
VERTEX
  8
0
  5
4116
 10
768.698
 20
38.7170
 30
-8.60000e-15
  70
    32
  0
VERTEX
  8
0
  5
4117
 10
768.686
 20
38.7193
 30
-8.60000e-15
  70
    32
  0
VERTEX
  8
0
  5
4118
 10
768.675
 20
38.7218
 30
-8.60000e-15
  70
    32
  0
VERTEX
  8
0
  5
4119
 10
768.663
 20
38.7242
 30
-8.60000e-15
  70
    32
  0
VERTEX
  8
0
  5
411A
 10
768.652
 20
38.7267
 30
-8.60000e-15
  70
    32
  0
VERTEX
  8
0
  5
411B
 10
768.641
 20
38.7293
 30
-8.60000e-15
  70
    32
  0
VERTEX
  8
0
  5
411C
 10
768.629
 20
38.7319
 30
-8.60000e-15
  70
    32
  0
VERTEX
  8
0
  5
411D
 10
768.618
 20
38.7345
 30
-8.60000e-15
  70
    32
  0
VERTEX
  8
0
  5
411E
 10
768.606
 20
38.7372
 30
-8.60000e-15
  70
    32
  0
VERTEX
  8
0
  5
411F
 10
768.595
 20
38.7399
 30
-8.60000e-15
  70
    32
  0
VERTEX
  8
0
  5
4120
 10
768.584
 20
38.7427
 30
-8.60000e-15
  70
    32
  0
VERTEX
  8
0
  5
4121
 10
768.573
 20
38.7455
 30
-8.60000e-15
  70
    32
  0
VERTEX
  8
0
  5
4122
 10
768.561
 20
38.7483
 30
-8.60000e-15
  70
    32
  0
VERTEX
  8
0
  5
4123
 10
768.550
 20
38.7512
 30
-8.60000e-15
  70
    32
  0
VERTEX
  8
0
  5
4124
 10
768.539
 20
38.7541
 30
-8.60000e-15
  70
    32
  0
VERTEX
  8
0
  5
4125
 10
768.528
 20
38.7571
 30
-8.60000e-15
  70
    32
  0
VERTEX
  8
0
  5
4126
 10
768.517
 20
38.7601
 30
-8.60000e-15
  70
    32
  0
VERTEX
  8
0
  5
4127
 10
768.506
 20
38.7631
 30
-8.60000e-15
  70
    32
  0
VERTEX
  8
0
  5
4128
 10
768.495
 20
38.7662
 30
-8.60000e-15
  70
    32
  0
VERTEX
  8
0
  5
4129
 10
768.484
 20
38.7694
 30
-8.60000e-15
  70
    32
  0
VERTEX
  8
0
  5
412A
 10
768.473
 20
38.7726
 30
-8.60000e-15
  70
    32
  0
VERTEX
  8
0
  5
412B
 10
768.462
 20
38.7758
 30
-8.60000e-15
  70
    32
  0
VERTEX
  8
0
  5
412C
 10
768.451
 20
38.7790
 30
-8.60000e-15
  70
    32
  0
VERTEX
  8
0
  5
412D
 10
768.440
 20
38.7823
 30
-8.60000e-15
  70
    32
  0
VERTEX
  8
0
  5
412E
 10
768.429
 20
38.7857
 30
-8.60000e-15
  70
    32
  0
VERTEX
  8
0
  5
412F
 10
768.418
 20
38.7891
 30
-8.60000e-15
  70
    32
  0
VERTEX
  8
0
  5
4130
 10
768.407
 20
38.7925
 30
-8.60000e-15
  70
    32
  0
VERTEX
  8
0
  5
4131
 10
768.397
 20
38.7960
 30
-8.60004e-15
  70
    32
  0
VERTEX
  8
0
  5
4132
 10
768.386
 20
38.7995
 30
-8.60016e-15
  70
    32
  0
VERTEX
  8
0
  5
4133
 10
768.375
 20
38.8030
 30
-8.60036e-15
  70
    32
  0
VERTEX
  8
0
  5
4134
 10
768.365
 20
38.8066
 30
-8.60065e-15
  70
    32
  0
VERTEX
  8
0
  5
4135
 10
768.354
 20
38.8103
 30
-8.60101e-15
  70
    32
  0
VERTEX
  8
0
  5
4136
 10
768.343
 20
38.8140
 30
-8.60146e-15
  70
    32
  0
VERTEX
  8
0
  5
4137
 10
768.333
 20
38.8177
 30
-8.60198e-15
  70
    32
  0
VERTEX
  8
0
  5
4138
 10
768.322
 20
38.8214
 30
-8.60257e-15
  70
    32
  0
VERTEX
  8
0
  5
4139
 10
768.312
 20
38.8253
 30
-8.60323e-15
  70
    32
  0
VERTEX
  8
0
  5
413A
 10
768.301
 20
38.8291
 30
-8.60397e-15
  70
    32
  0
VERTEX
  8
0
  5
413B
 10
768.291
 20
38.8330
 30
-8.60477e-15
  70
    32
  0
VERTEX
  8
0
  5
413C
 10
768.281
 20
38.8369
 30
-8.60563e-15
  70
    32
  0
VERTEX
  8
0
  5
413D
 10
768.270
 20
38.8409
 30
-8.60656e-15
  70
    32
  0
VERTEX
  8
0
  5
413E
 10
768.260
 20
38.8449
 30
-8.60754e-15
  70
    32
  0
VERTEX
  8
0
  5
413F
 10
768.250
 20
38.8489
 30
-8.60859e-15
  70
    32
  0
VERTEX
  8
0
  5
4140
 10
768.239
 20
38.8530
 30
-8.60969e-15
  70
    32
  0
VERTEX
  8
0
  5
4141
 10
768.229
 20
38.8572
 30
-8.61085e-15
  70
    32
  0
VERTEX
  8
0
  5
4142
 10
768.219
 20
38.8613
 30
-8.61205e-15
  70
    32
  0
VERTEX
  8
0
  5
4143
 10
768.209
 20
38.8655
 30
-8.61331e-15
  70
    32
  0
VERTEX
  8
0
  5
4144
 10
768.199
 20
38.8698
 30
-8.61462e-15
  70
    32
  0
VERTEX
  8
0
  5
4145
 10
768.189
 20
38.8741
 30
-8.61597e-15
  70
    32
  0
VERTEX
  8
0
  5
4146
 10
768.179
 20
38.8784
 30
-8.61736e-15
  70
    32
  0
VERTEX
  8
0
  5
4147
 10
768.169
 20
38.8828
 30
-8.61880e-15
  70
    32
  0
VERTEX
  8
0
  5
4148
 10
768.159
 20
38.8872
 30
-8.62027e-15
  70
    32
  0
VERTEX
  8
0
  5
4149
 10
768.149
 20
38.8916
 30
-8.62179e-15
  70
    32
  0
VERTEX
  8
0
  5
414A
 10
768.139
 20
38.8961
 30
-8.62333e-15
  70
    32
  0
VERTEX
  8
0
  5
414B
 10
768.129
 20
38.9007
 30
-8.62491e-15
  70
    32
  0
VERTEX
  8
0
  5
414C
 10
768.119
 20
38.9052
 30
-8.62652e-15
  70
    32
  0
VERTEX
  8
0
  5
414D
 10
768.109
 20
38.9098
 30
-8.62816e-15
  70
    32
  0
VERTEX
  8
0
  5
414E
 10
768.100
 20
38.9145
 30
-8.62983e-15
  70
    32
  0
VERTEX
  8
0
  5
414F
 10
768.090
 20
38.9192
 30
-8.63152e-15
  70
    32
  0
VERTEX
  8
0
  5
4150
 10
768.080
 20
38.9239
 30
-8.63323e-15
  70
    32
  0
VERTEX
  8
0
  5
4151
 10
768.070
 20
38.9287
 30
-8.63496e-15
  70
    32
  0
VERTEX
  8
0
  5
4152
 10
768.061
 20
38.9335
 30
-8.63671e-15
  70
    32
  0
VERTEX
  8
0
  5
4153
 10
768.051
 20
38.9383
 30
-8.63847e-15
  70
    32
  0
VERTEX
  8
0
  5
4154
 10
768.042
 20
38.9432
 30
-8.64025e-15
  70
    32
  0
VERTEX
  8
0
  5
4155
 10
768.032
 20
38.9481
 30
-8.64204e-15
  70
    32
  0
VERTEX
  8
0
  5
4156
 10
768.023
 20
38.9531
 30
-8.64384e-15
  70
    32
  0
VERTEX
  8
0
  5
4157
 10
768.013
 20
38.9581
 30
-8.64565e-15
  70
    32
  0
VERTEX
  8
0
  5
4158
 10
768.004
 20
38.9631
 30
-8.64746e-15
  70
    32
  0
VERTEX
  8
0
  5
4159
 10
767.994
 20
38.9682
 30
-8.64928e-15
  70
    32
  0
VERTEX
  8
0
  5
415A
 10
767.985
 20
38.9733
 30
-8.65109e-15
  70
    32
  0
VERTEX
  8
0
  5
415B
 10
767.976
 20
38.9784
 30
-8.65291e-15
  70
    32
  0
VERTEX
  8
0
  5
415C
 10
767.966
 20
38.9836
 30
-8.65472e-15
  70
    32
  0
VERTEX
  8
0
  5
415D
 10
767.957
 20
38.9888
 30
-8.65652e-15
  70
    32
  0
VERTEX
  8
0
  5
415E
 10
767.948
 20
38.9941
 30
-8.65832e-15
  70
    32
  0
VERTEX
  8
0
  5
415F
 10
767.939
 20
38.9994
 30
-8.66011e-15
  70
    32
  0
VERTEX
  8
0
  5
4160
 10
767.930
 20
39.0047
 30
-8.66189e-15
  70
    32
  0
VERTEX
  8
0
  5
4161
 10
767.921
 20
39.0101
 30
-8.66365e-15
  70
    32
  0
VERTEX
  8
0
  5
4162
 10
767.911
 20
39.0155
 30
-8.66539e-15
  70
    32
  0
VERTEX
  8
0
  5
4163
 10
767.902
 20
39.0210
 30
-8.66712e-15
  70
    32
  0
VERTEX
  8
0
  5
4164
 10
767.893
 20
39.0264
 30
-8.66883e-15
  70
    32
  0
VERTEX
  8
0
  5
4165
 10
767.884
 20
39.0320
 30
-8.67051e-15
  70
    32
  0
VERTEX
  8
0
  5
4166
 10
767.876
 20
39.0375
 30
-8.67217e-15
  70
    32
  0
VERTEX
  8
0
  5
4167
 10
767.867
 20
39.0431
 30
-8.67381e-15
  70
    32
  0
VERTEX
  8
0
  5
4168
 10
767.858
 20
39.0488
 30
-8.67541e-15
  70
    32
  0
VERTEX
  8
0
  5
4169
 10
767.849
 20
39.0544
 30
-8.67698e-15
  70
    32
  0
VERTEX
  8
0
  5
416A
 10
767.840
 20
39.0601
 30
-8.67852e-15
  70
    32
  0
VERTEX
  8
0
  5
416B
 10
767.832
 20
39.0659
 30
-8.68003e-15
  70
    32
  0
VERTEX
  8
0
  5
416C
 10
767.823
 20
39.0717
 30
-8.68150e-15
  70
    32
  0
VERTEX
  8
0
  5
416D
 10
767.814
 20
39.0775
 30
-8.68292e-15
  70
    32
  0
VERTEX
  8
0
  5
416E
 10
767.806
 20
39.0833
 30
-8.68431e-15
  70
    32
  0
VERTEX
  8
0
  5
416F
 10
767.797
 20
39.0892
 30
-8.68565e-15
  70
    32
  0
VERTEX
  8
0
  5
4170
 10
767.788
 20
39.0951
 30
-8.68695e-15
  70
    32
  0
VERTEX
  8
0
  5
4171
 10
767.780
 20
39.1011
 30
-8.68819e-15
  70
    32
  0
VERTEX
  8
0
  5
4172
 10
767.771
 20
39.1071
 30
-8.68939e-15
  70
    32
  0
VERTEX
  8
0
  5
4173
 10
767.763
 20
39.1131
 30
-8.69054e-15
  70
    32
  0
VERTEX
  8
0
  5
4174
 10
767.755
 20
39.1192
 30
-8.69163e-15
  70
    32
  0
VERTEX
  8
0
  5
4175
 10
767.746
 20
39.1253
 30
-8.69266e-15
  70
    32
  0
VERTEX
  8
0
  5
4176
 10
767.738
 20
39.1314
 30
-8.69364e-15
  70
    32
  0
VERTEX
  8
0
  5
4177
 10
767.730
 20
39.1376
 30
-8.69455e-15
  70
    32
  0
VERTEX
  8
0
  5
4178
 10
767.721
 20
39.1438
 30
-8.69540e-15
  70
    32
  0
VERTEX
  8
0
  5
4179
 10
767.713
 20
39.1501
 30
-8.69619e-15
  70
    32
  0
VERTEX
  8
0
  5
417A
 10
767.705
 20
39.1563
 30
-8.69691e-15
  70
    32
  0
VERTEX
  8
0
  5
417B
 10
767.697
 20
39.1627
 30
-8.69756e-15
  70
    32
  0
VERTEX
  8
0
  5
417C
 10
767.689
 20
39.1690
 30
-8.69813e-15
  70
    32
  0
VERTEX
  8
0
  5
417D
 10
767.681
 20
39.1754
 30
-8.69864e-15
  70
    32
  0
VERTEX
  8
0
  5
417E
 10
767.672
 20
39.1818
 30
-8.69907e-15
  70
    32
  0
VERTEX
  8
0
  5
417F
 10
767.665
 20
39.1883
 30
-8.69942e-15
  70
    32
  0
VERTEX
  8
0
  5
4180
 10
767.657
 20
39.1948
 30
-8.69969e-15
  70
    32
  0
VERTEX
  8
0
  5
4181
 10
767.649
 20
39.2013
 30
-8.69987e-15
  70
    32
  0
VERTEX
  8
0
  5
4182
 10
767.641
 20
39.2078
 30
-8.69998e-15
  70
    32
  0
VERTEX
  8
0
  5
4183
 10
767.633
 20
39.2144
 30
-8.70001e-15
  70
    32
  0
VERTEX
  8
0
  5
4184
 10
767.625
 20
39.2210
 30
-8.70015e-15
  70
    32
  0
VERTEX
  8
0
  5
4185
 10
767.617
 20
39.2277
 30
-8.70046e-15
  70
    32
  0
VERTEX
  8
0
  5
4186
 10
767.610
 20
39.2344
 30
-8.70093e-15
  70
    32
  0
VERTEX
  8
0
  5
4187
 10
767.602
 20
39.2411
 30
-8.70155e-15
  70
    32
  0
VERTEX
  8
0
  5
4188
 10
767.594
 20
39.2479
 30
-8.70233e-15
  70
    32
  0
VERTEX
  8
0
  5
4189
 10
767.587
 20
39.2547
 30
-8.70325e-15
  70
    32
  0
VERTEX
  8
0
  5
418A
 10
767.579
 20
39.2615
 30
-8.70431e-15
  70
    32
  0
VERTEX
  8
0
  5
418B
 10
767.571
 20
39.2684
 30
-8.70551e-15
  70
    32
  0
VERTEX
  8
0
  5
418C
 10
767.564
 20
39.2753
 30
-8.70682e-15
  70
    32
  0
VERTEX
  8
0
  5
418D
 10
767.557
 20
39.2822
 30
-8.70826e-15
  70
    32
  0
VERTEX
  8
0
  5
418E
 10
767.549
 20
39.2891
 30
-8.70982e-15
  70
    32
  0
VERTEX
  8
0
  5
418F
 10
767.542
 20
39.2961
 30
-8.71148e-15
  70
    32
  0
VERTEX
  8
0
  5
4190
 10
767.534
 20
39.3032
 30
-8.71324e-15
  70
    32
  0
VERTEX
  8
0
  5
4191
 10
767.527
 20
39.3102
 30
-8.71510e-15
  70
    32
  0
VERTEX
  8
0
  5
4192
 10
767.520
 20
39.3173
 30
-8.71705e-15
  70
    32
  0
VERTEX
  8
0
  5
4193
 10
767.512
 20
39.3244
 30
-8.71908e-15
  70
    32
  0
VERTEX
  8
0
  5
4194
 10
767.505
 20
39.3316
 30
-8.72119e-15
  70
    32
  0
VERTEX
  8
0
  5
4195
 10
767.498
 20
39.3388
 30
-8.72338e-15
  70
    32
  0
VERTEX
  8
0
  5
4196
 10
767.491
 20
39.3460
 30
-8.72562e-15
  70
    32
  0
VERTEX
  8
0
  5
4197
 10
767.484
 20
39.3532
 30
-8.72793e-15
  70
    32
  0
VERTEX
  8
0
  5
4198
 10
767.477
 20
39.3605
 30
-8.73029e-15
  70
    32
  0
VERTEX
  8
0
  5
4199
 10
767.470
 20
39.3678
 30
-8.73270e-15
  70
    32
  0
VERTEX
  8
0
  5
419A
 10
767.463
 20
39.3751
 30
-8.73515e-15
  70
    32
  0
VERTEX
  8
0
  5
419B
 10
767.456
 20
39.3825
 30
-8.73764e-15
  70
    32
  0
VERTEX
  8
0
  5
419C
 10
767.449
 20
39.3899
 30
-8.74015e-15
  70
    32
  0
VERTEX
  8
0
  5
419D
 10
767.442
 20
39.3973
 30
-8.74269e-15
  70
    32
  0
VERTEX
  8
0
  5
419E
 10
767.435
 20
39.4048
 30
-8.74525e-15
  70
    32
  0
VERTEX
  8
0
  5
419F
 10
767.428
 20
39.4123
 30
-8.74782e-15
  70
    32
  0
VERTEX
  8
0
  5
41A0
 10
767.422
 20
39.4198
 30
-8.75039e-15
  70
    32
  0
VERTEX
  8
0
  5
41A1
 10
767.415
 20
39.4274
 30
-8.75296e-15
  70
    32
  0
VERTEX
  8
0
  5
41A2
 10
767.408
 20
39.4350
 30
-8.75552e-15
  70
    32
  0
VERTEX
  8
0
  5
41A3
 10
767.402
 20
39.4426
 30
-8.75808e-15
  70
    32
  0
VERTEX
  8
0
  5
41A4
 10
767.395
 20
39.4502
 30
-8.76061e-15
  70
    32
  0
VERTEX
  8
0
  5
41A5
 10
767.388
 20
39.4579
 30
-8.76311e-15
  70
    32
  0
VERTEX
  8
0
  5
41A6
 10
767.382
 20
39.4656
 30
-8.76559e-15
  70
    32
  0
VERTEX
  8
0
  5
41A7
 10
767.375
 20
39.4733
 30
-8.76803e-15
  70
    32
  0
VERTEX
  8
0
  5
41A8
 10
767.369
 20
39.4811
 30
-8.77042e-15
  70
    32
  0
VERTEX
  8
0
  5
41A9
 10
767.362
 20
39.4888
 30
-8.77277e-15
  70
    32
  0
VERTEX
  8
0
  5
41AA
 10
767.356
 20
39.4967
 30
-8.77506e-15
  70
    32
  0
VERTEX
  8
0
  5
41AB
 10
767.350
 20
39.5045
 30
-8.77729e-15
  70
    32
  0
VERTEX
  8
0
  5
41AC
 10
767.343
 20
39.5124
 30
-8.77945e-15
  70
    32
  0
VERTEX
  8
0
  5
41AD
 10
767.337
 20
39.5203
 30
-8.78154e-15
  70
    32
  0
VERTEX
  8
0
  5
41AE
 10
767.331
 20
39.5282
 30
-8.78355e-15
  70
    32
  0
VERTEX
  8
0
  5
41AF
 10
767.325
 20
39.5362
 30
-8.78547e-15
  70
    32
  0
VERTEX
  8
0
  5
41B0
 10
767.319
 20
39.5441
 30
-8.78730e-15
  70
    32
  0
VERTEX
  8
0
  5
41B1
 10
767.312
 20
39.5521
 30
-8.78903e-15
  70
    32
  0
VERTEX
  8
0
  5
41B2
 10
767.306
 20
39.5602
 30
-8.79066e-15
  70
    32
  0
VERTEX
  8
0
  5
41B3
 10
767.300
 20
39.5682
 30
-8.79218e-15
  70
    32
  0
VERTEX
  8
0
  5
41B4
 10
767.294
 20
39.5763
 30
-8.79359e-15
  70
    32
  0
VERTEX
  8
0
  5
41B5
 10
767.288
 20
39.5845
 30
-8.79487e-15
  70
    32
  0
VERTEX
  8
0
  5
41B6
 10
767.282
 20
39.5926
 30
-8.79602e-15
  70
    32
  0
VERTEX
  8
0
  5
41B7
 10
767.276
 20
39.6008
 30
-8.79704e-15
  70
    32
  0
VERTEX
  8
0
  5
41B8
 10
767.271
 20
39.6090
 30
-8.79792e-15
  70
    32
  0
VERTEX
  8
0
  5
41B9
 10
767.265
 20
39.6172
 30
-8.79865e-15
  70
    32
  0
VERTEX
  8
0
  5
41BA
 10
767.259
 20
39.6254
 30
-8.79923e-15
  70
    32
  0
VERTEX
  8
0
  5
41BB
 10
767.253
 20
39.6337
 30
-8.79966e-15
  70
    32
  0
VERTEX
  8
0
  5
41BC
 10
767.247
 20
39.6420
 30
-8.79991e-15
  70
    32
  0
VERTEX
  8
0
  5
41BD
 10
767.242
 20
39.6503
 30
-8.80000e-15
  70
    32
  0
SEQEND
  8
0
  5
41BE
  0
POLYLINE
  8
0
  5
41BF
  66
     1
 10
0.000000
 20
0.000000
 30
0.000000
  70
     8
  0
VERTEX
  8
0
  5
41C0
 10
797.511
 20
38.6503
 30
-8.60000e-15
  70
    32
  0
VERTEX
  8
0
  5
41C1
 10
797.511
 20
38.6504
 30
-8.60000e-15
  70
    32
  0
VERTEX
  8
0
  5
41C2
 10
797.511
 20
38.6504
 30
-8.60000e-15
  70
    32
  0
VERTEX
  8
0
  5
41C3
 10
797.511
 20
38.6505
 30
-8.60000e-15
  70
    32
  0
VERTEX
  8
0
  5
41C4
 10
797.511
 20
38.6506
 30
-8.60000e-15
  70
    32
  0
VERTEX
  8
0
  5
41C5
 10
797.512
 20
38.6507
 30
-8.60000e-15
  70
    32
  0
VERTEX
  8
0
  5
41C6
 10
797.512
 20
38.6509
 30
-8.60000e-15
  70
    32
  0
VERTEX
  8
0
  5
41C7
 10
797.512
 20
38.6511
 30
-8.60000e-15
  70
    32
  0
VERTEX
  8
0
  5
41C8
 10
797.512
 20
38.6514
 30
-8.60000e-15
  70
    32
  0
VERTEX
  8
0
  5
41C9
 10
797.512
 20
38.6516
 30
-8.60000e-15
  70
    32
  0
VERTEX
  8
0
  5
41CA
 10
797.513
 20
38.6519
 30
-8.60000e-15
  70
    32
  0
VERTEX
  8
0
  5
41CB
 10
797.513
 20
38.6523
 30
-8.60000e-15
  70
    32
  0
VERTEX
  8
0
  5
41CC
 10
797.513
 20
38.6527
 30
-8.60000e-15
  70
    32
  0
VERTEX
  8
0
  5
41CD
 10
797.514
 20
38.6531
 30
-8.60000e-15
  70
    32
  0
VERTEX
  8
0
  5
41CE
 10
797.514
 20
38.6535
 30
-8.60000e-15
  70
    32
  0
VERTEX
  8
0
  5
41CF
 10
797.515
 20
38.6539
 30
-8.60000e-15
  70
    32
  0
VERTEX
  8
0
  5
41D0
 10
797.515
 20
38.6544
 30
-8.60000e-15
  70
    32
  0
VERTEX
  8
0
  5
41D1
 10
797.515
 20
38.6550
 30
-8.60000e-15
  70
    32
  0
VERTEX
  8
0
  5
41D2
 10
797.516
 20
38.6555
 30
-8.60000e-15
  70
    32
  0
VERTEX
  8
0
  5
41D3
 10
797.517
 20
38.6561
 30
-8.60000e-15
  70
    32
  0
VERTEX
  8
0
  5
41D4
 10
797.517
 20
38.6568
 30
-8.60000e-15
  70
    32
  0
VERTEX
  8
0
  5
41D5
 10
797.518
 20
38.6574
 30
-8.60000e-15
  70
    32
  0
VERTEX
  8
0
  5
41D6
 10
797.518
 20
38.6581
 30
-8.60000e-15
  70
    32
  0
VERTEX
  8
0
  5
41D7
 10
797.519
 20
38.6588
 30
-8.60000e-15
  70
    32
  0
VERTEX
  8
0
  5
41D8
 10
797.520
 20
38.6596
 30
-8.60000e-15
  70
    32
  0
VERTEX
  8
0
  5
41D9
 10
797.520
 20
38.6604
 30
-8.60000e-15
  70
    32
  0
VERTEX
  8
0
  5
41DA
 10
797.521
 20
38.6612
 30
-8.60000e-15
  70
    32
  0
VERTEX
  8
0
  5
41DB
 10
797.522
 20
38.6620
 30
-8.60000e-15
  70
    32
  0
VERTEX
  8
0
  5
41DC
 10
797.523
 20
38.6629
 30
-8.60000e-15
  70
    32
  0
VERTEX
  8
0
  5
41DD
 10
797.524
 20
38.6638
 30
-8.60000e-15
  70
    32
  0
VERTEX
  8
0
  5
41DE
 10
797.524
 20
38.6648
 30
-8.60000e-15
  70
    32
  0
VERTEX
  8
0
  5
41DF
 10
797.525
 20
38.6657
 30
-8.60000e-15
  70
    32
  0
VERTEX
  8
0
  5
41E0
 10
797.526
 20
38.6667
 30
-8.60000e-15
  70
    32
  0
VERTEX
  8
0
  5
41E1
 10
797.527
 20
38.6678
 30
-8.60000e-15
  70
    32
  0
VERTEX
  8
0
  5
41E2
 10
797.528
 20
38.6689
 30
-8.60000e-15
  70
    32
  0
VERTEX
  8
0
  5
41E3
 10
797.529
 20
38.6700
 30
-8.60000e-15
  70
    32
  0
VERTEX
  8
0
  5
41E4
 10
797.530
 20
38.6711
 30
-8.60000e-15
  70
    32
  0
VERTEX
  8
0
  5
41E5
 10
797.531
 20
38.6723
 30
-8.60000e-15
  70
    32
  0
VERTEX
  8
0
  5
41E6
 10
797.532
 20
38.6735
 30
-8.60000e-15
  70
    32
  0
VERTEX
  8
0
  5
41E7
 10
797.534
 20
38.6747
 30
-8.60000e-15
  70
    32
  0
VERTEX
  8
0
  5
41E8
 10
797.535
 20
38.6760
 30
-8.60000e-15
  70
    32
  0
VERTEX
  8
0
  5
41E9
 10
797.536
 20
38.6773
 30
-8.60000e-15
  70
    32
  0
VERTEX
  8
0
  5
41EA
 10
797.537
 20
38.6786
 30
-8.60000e-15
  70
    32
  0
VERTEX
  8
0
  5
41EB
 10
797.538
 20
38.6800
 30
-8.60000e-15
  70
    32
  0
VERTEX
  8
0
  5
41EC
 10
797.540
 20
38.6814
 30
-8.60000e-15
  70
    32
  0
VERTEX
  8
0
  5
41ED
 10
797.541
 20
38.6828
 30
-8.60000e-15
  70
    32
  0
VERTEX
  8
0
  5
41EE
 10
797.542
 20
38.6842
 30
-8.60000e-15
  70
    32
  0
VERTEX
  8
0
  5
41EF
 10
797.544
 20
38.6857
 30
-8.60000e-15
  70
    32
  0
VERTEX
  8
0
  5
41F0
 10
797.545
 20
38.6873
 30
-8.60000e-15
  70
    32
  0
VERTEX
  8
0
  5
41F1
 10
797.546
 20
38.6888
 30
-8.60000e-15
  70
    32
  0
VERTEX
  8
0
  5
41F2
 10
797.548
 20
38.6904
 30
-8.60000e-15
  70
    32
  0
VERTEX
  8
0
  5
41F3
 10
797.549
 20
38.6920
 30
-8.60000e-15
  70
    32
  0
VERTEX
  8
0
  5
41F4
 10
797.551
 20
38.6937
 30
-8.60000e-15
  70
    32
  0
VERTEX
  8
0
  5
41F5
 10
797.552
 20
38.6954
 30
-8.60000e-15
  70
    32
  0
VERTEX
  8
0
  5
41F6
 10
797.554
 20
38.6971
 30
-8.60000e-15
  70
    32
  0
VERTEX
  8
0
  5
41F7
 10
797.556
 20
38.6988
 30
-8.60000e-15
  70
    32
  0
VERTEX
  8
0
  5
41F8
 10
797.557
 20
38.7006
 30
-8.60000e-15
  70
    32
  0
VERTEX
  8
0
  5
41F9
 10
797.559
 20
38.7024
 30
-8.60000e-15
  70
    32
  0
VERTEX
  8
0
  5
41FA
 10
797.561
 20
38.7043
 30
-8.60000e-15
  70
    32
  0
VERTEX
  8
0
  5
41FB
 10
797.562
 20
38.7061
 30
-8.60000e-15
  70
    32
  0
VERTEX
  8
0
  5
41FC
 10
797.564
 20
38.7081
 30
-8.60000e-15
  70
    32
  0
VERTEX
  8
0
  5
41FD
 10
797.566
 20
38.7100
 30
-8.60000e-15
  70
    32
  0
VERTEX
  8
0
  5
41FE
 10
797.568
 20
38.7120
 30
-8.60000e-15
  70
    32
  0
VERTEX
  8
0
  5
41FF
 10
797.569
 20
38.7140
 30
-8.60000e-15
  70
    32
  0
VERTEX
  8
0
  5
4200
 10
797.571
 20
38.7160
 30
-8.60000e-15
  70
    32
  0
VERTEX
  8
0
  5
4201
 10
797.573
 20
38.7181
 30
-8.60000e-15
  70
    32
  0
VERTEX
  8
0
  5
4202
 10
797.575
 20
38.7202
 30
-8.60000e-15
  70
    32
  0
VERTEX
  8
0
  5
4203
 10
797.577
 20
38.7223
 30
-8.60000e-15
  70
    32
  0
VERTEX
  8
0
  5
4204
 10
797.579
 20
38.7245
 30
-8.60000e-15
  70
    32
  0
VERTEX
  8
0
  5
4205
 10
797.581
 20
38.7267
 30
-8.60000e-15
  70
    32
  0
VERTEX
  8
0
  5
4206
 10
797.583
 20
38.7289
 30
-8.60000e-15
  70
    32
  0
VERTEX
  8
0
  5
4207
 10
797.585
 20
38.7312
 30
-8.60000e-15
  70
    32
  0
VERTEX
  8
0
  5
4208
 10
797.587
 20
38.7335
 30
-8.60000e-15
  70
    32
  0
VERTEX
  8
0
  5
4209
 10
797.589
 20
38.7358
 30
-8.60000e-15
  70
    32
  0
VERTEX
  8
0
  5
420A
 10
797.592
 20
38.7382
 30
-8.60000e-15
  70
    32
  0
VERTEX
  8
0
  5
420B
 10
797.594
 20
38.7405
 30
-8.60000e-15
  70
    32
  0
VERTEX
  8
0
  5
420C
 10
797.596
 20
38.7430
 30
-8.60000e-15
  70
    32
  0
VERTEX
  8
0
  5
420D
 10
797.598
 20
38.7454
 30
-8.60000e-15
  70
    32
  0
VERTEX
  8
0
  5
420E
 10
797.601
 20
38.7479
 30
-8.60000e-15
  70
    32
  0
VERTEX
  8
0
  5
420F
 10
797.603
 20
38.7504
 30
-8.60000e-15
  70
    32
  0
VERTEX
  8
0
  5
4210
 10
797.605
 20
38.7530
 30
-8.60000e-15
  70
    32
  0
VERTEX
  8
0
  5
4211
 10
797.608
 20
38.7556
 30
-8.60000e-15
  70
    32
  0
VERTEX
  8
0
  5
4212
 10
797.610
 20
38.7582
 30
-8.60000e-15
  70
    32
  0
VERTEX
  8
0
  5
4213
 10
797.612
 20
38.7608
 30
-8.60000e-15
  70
    32
  0
VERTEX
  8
0
  5
4214
 10
797.615
 20
38.7635
 30
-8.60000e-15
  70
    32
  0
VERTEX
  8
0
  5
4215
 10
797.617
 20
38.7662
 30
-8.60000e-15
  70
    32
  0
VERTEX
  8
0
  5
4216
 10
797.620
 20
38.7690
 30
-8.60000e-15
  70
    32
  0
VERTEX
  8
0
  5
4217
 10
797.622
 20
38.7718
 30
-8.60000e-15
  70
    32
  0
VERTEX
  8
0
  5
4218
 10
797.625
 20
38.7746
 30
-8.60000e-15
  70
    32
  0
VERTEX
  8
0
  5
4219
 10
797.628
 20
38.7774
 30
-8.60000e-15
  70
    32
  0
VERTEX
  8
0
  5
421A
 10
797.630
 20
38.7803
 30
-8.60000e-15
  70
    32
  0
VERTEX
  8
0
  5
421B
 10
797.633
 20
38.7832
 30
-8.60000e-15
  70
    32
  0
VERTEX
  8
0
  5
421C
 10
797.636
 20
38.7861
 30
-8.60000e-15
  70
    32
  0
VERTEX
  8
0
  5
421D
 10
797.638
 20
38.7891
 30
-8.60000e-15
  70
    32
  0
VERTEX
  8
0
  5
421E
 10
797.641
 20
38.7921
 30
-8.60000e-15
  70
    32
  0
VERTEX
  8
0
  5
421F
 10
797.644
 20
38.7952
 30
-8.60002e-15
  70
    32
  0
VERTEX
  8
0
  5
4220
 10
797.647
 20
38.7982
 30
-8.60010e-15
  70
    32
  0
VERTEX
  8
0
  5
4221
 10
797.649
 20
38.8013
 30
-8.60025e-15
  70
    32
  0
VERTEX
  8
0
  5
4222
 10
797.652
 20
38.8045
 30
-8.60046e-15
  70
    32
  0
VERTEX
  8
0
  5
4223
 10
797.655
 20
38.8076
 30
-8.60074e-15
  70
    32
  0
VERTEX
  8
0
  5
4224
 10
797.658
 20
38.8108
 30
-8.60107e-15
  70
    32
  0
VERTEX
  8
0
  5
4225
 10
797.661
 20
38.8141
 30
-8.60147e-15
  70
    32
  0
VERTEX
  8
0
  5
4226
 10
797.664
 20
38.8173
 30
-8.60192e-15
  70
    32
  0
VERTEX
  8
0
  5
4227
 10
797.667
 20
38.8206
 30
-8.60243e-15
  70
    32
  0
VERTEX
  8
0
  5
4228
 10
797.670
 20
38.8239
 30
-8.60300e-15
  70
    32
  0
VERTEX
  8
0
  5
4229
 10
797.673
 20
38.8273
 30
-8.60361e-15
  70
    32
  0
VERTEX
  8
0
  5
422A
 10
797.676
 20
38.8307
 30
-8.60428e-15
  70
    32
  0
VERTEX
  8
0
  5
422B
 10
797.679
 20
38.8341
 30
-8.60500e-15
  70
    32
  0
VERTEX
  8
0
  5
422C
 10
797.683
 20
38.8375
 30
-8.60577e-15
  70
    32
  0
VERTEX
  8
0
  5
422D
 10
797.686
 20
38.8410
 30
-8.60659e-15
  70
    32
  0
VERTEX
  8
0
  5
422E
 10
797.689
 20
38.8445
 30
-8.60745e-15
  70
    32
  0
VERTEX
  8
0
  5
422F
 10
797.692
 20
38.8481
 30
-8.60836e-15
  70
    32
  0
VERTEX
  8
0
  5
4230
 10
797.696
 20
38.8516
 30
-8.60932e-15
  70
    32
  0
VERTEX
  8
0
  5
4231
 10
797.699
 20
38.8553
 30
-8.61031e-15
  70
    32
  0
VERTEX
  8
0
  5
4232
 10
797.702
 20
38.8589
 30
-8.61134e-15
  70
    32
  0
VERTEX
  8
0
  5
4233
 10
797.706
 20
38.8626
 30
-8.61242e-15
  70
    32
  0
VERTEX
  8
0
  5
4234
 10
797.709
 20
38.8663
 30
-8.61353e-15
  70
    32
  0
VERTEX
  8
0
  5
4235
 10
797.712
 20
38.8700
 30
-8.61468e-15
  70
    32
  0
VERTEX
  8
0
  5
4236
 10
797.716
 20
38.8737
 30
-8.61586e-15
  70
    32
  0
VERTEX
  8
0
  5
4237
 10
797.719
 20
38.8775
 30
-8.61708e-15
  70
    32
  0
VERTEX
  8
0
  5
4238
 10
797.723
 20
38.8814
 30
-8.61833e-15
  70
    32
  0
VERTEX
  8
0
  5
4239
 10
797.726
 20
38.8852
 30
-8.61961e-15
  70
    32
  0
VERTEX
  8
0
  5
423A
 10
797.730
 20
38.8891
 30
-8.62092e-15
  70
    32
  0
VERTEX
  8
0
  5
423B
 10
797.733
 20
38.8930
 30
-8.62225e-15
  70
    32
  0
VERTEX
  8
0
  5
423C
 10
797.737
 20
38.8970
 30
-8.62362e-15
  70
    32
  0
VERTEX
  8
0
  5
423D
 10
797.741
 20
38.9009
 30
-8.62501e-15
  70
    32
  0
VERTEX
  8
0
  5
423E
 10
797.744
 20
38.9049
 30
-8.62642e-15
  70
    32
  0
VERTEX
  8
0
  5
423F
 10
797.748
 20
38.9090
 30
-8.62785e-15
  70
    32
  0
VERTEX
  8
0
  5
4240
 10
797.752
 20
38.9130
 30
-8.62930e-15
  70
    32
  0
VERTEX
  8
0
  5
4241
 10
797.756
 20
38.9171
 30
-8.63078e-15
  70
    32
  0
VERTEX
  8
0
  5
4242
 10
797.759
 20
38.9212
 30
-8.63227e-15
  70
    32
  0
VERTEX
  8
0
  5
4243
 10
797.763
 20
38.9254
 30
-8.63377e-15
  70
    32
  0
VERTEX
  8
0
  5
4244
 10
797.767
 20
38.9296
 30
-8.63530e-15
  70
    32
  0
VERTEX
  8
0
  5
4245
 10
797.771
 20
38.9338
 30
-8.63683e-15
  70
    32
  0
VERTEX
  8
0
  5
4246
 10
797.775
 20
38.9380
 30
-8.63838e-15
  70
    32
  0
VERTEX
  8
0
  5
4247
 10
797.779
 20
38.9423
 30
-8.63994e-15
  70
    32
  0
VERTEX
  8
0
  5
4248
 10
797.783
 20
38.9466
 30
-8.64150e-15
  70
    32
  0
VERTEX
  8
0
  5
4249
 10
797.787
 20
38.9510
 30
-8.64308e-15
  70
    32
  0
VERTEX
  8
0
  5
424A
 10
797.791
 20
38.9553
 30
-8.64466e-15
  70
    32
  0
VERTEX
  8
0
  5
424B
 10
797.795
 20
38.9597
 30
-8.64625e-15
  70
    32
  0
VERTEX
  8
0
  5
424C
 10
797.799
 20
38.9641
 30
-8.64783e-15
  70
    32
  0
VERTEX
  8
0
  5
424D
 10
797.803
 20
38.9686
 30
-8.64943e-15
  70
    32
  0
VERTEX
  8
0
  5
424E
 10
797.807
 20
38.9731
 30
-8.65102e-15
  70
    32
  0
VERTEX
  8
0
  5
424F
 10
797.811
 20
38.9776
 30
-8.65261e-15
  70
    32
  0
VERTEX
  8
0
  5
4250
 10
797.815
 20
38.9821
 30
-8.65420e-15
  70
    32
  0
VERTEX
  8
0
  5
4251
 10
797.819
 20
38.9867
 30
-8.65578e-15
  70
    32
  0
VERTEX
  8
0
  5
4252
 10
797.824
 20
38.9913
 30
-8.65736e-15
  70
    32
  0
VERTEX
  8
0
  5
4253
 10
797.828
 20
38.9959
 30
-8.65893e-15
  70
    32
  0
VERTEX
  8
0
  5
4254
 10
797.832
 20
39.0005
 30
-8.66050e-15
  70
    32
  0
VERTEX
  8
0
  5
4255
 10
797.836
 20
39.0052
 30
-8.66205e-15
  70
    32
  0
VERTEX
  8
0
  5
4256
 10
797.841
 20
39.0099
 30
-8.66360e-15
  70
    32
  0
VERTEX
  8
0
  5
4257
 10
797.845
 20
39.0147
 30
-8.66513e-15
  70
    32
  0
VERTEX
  8
0
  5
4258
 10
797.849
 20
39.0194
 30
-8.66665e-15
  70
    32
  0
VERTEX
  8
0
  5
4259
 10
797.854
 20
39.0242
 30
-8.66815e-15
  70
    32
  0
VERTEX
  8
0
  5
425A
 10
797.858
 20
39.0291
 30
-8.66963e-15
  70
    32
  0
VERTEX
  8
0
  5
425B
 10
797.863
 20
39.0339
 30
-8.67110e-15
  70
    32
  0
VERTEX
  8
0
  5
425C
 10
797.867
 20
39.0388
 30
-8.67255e-15
  70
    32
  0
VERTEX
  8
0
  5
425D
 10
797.872
 20
39.0437
 30
-8.67398e-15
  70
    32
  0
VERTEX
  8
0
  5
425E
 10
797.876
 20
39.0487
 30
-8.67538e-15
  70
    32
  0
VERTEX
  8
0
  5
425F
 10
797.881
 20
39.0536
 30
-8.67676e-15
  70
    32
  0
VERTEX
  8
0
  5
4260
 10
797.885
 20
39.0586
 30
-8.67812e-15
  70
    32
  0
VERTEX
  8
0
  5
4261
 10
797.890
 20
39.0636
 30
-8.67945e-15
  70
    32
  0
VERTEX
  8
0
  5
4262
 10
797.895
 20
39.0687
 30
-8.68075e-15
  70
    32
  0
VERTEX
  8
0
  5
4263
 10
797.899
 20
39.0738
 30
-8.68202e-15
  70
    32
  0
VERTEX
  8
0
  5
4264
 10
797.904
 20
39.0789
 30
-8.68326e-15
  70
    32
  0
VERTEX
  8
0
  5
4265
 10
797.909
 20
39.0840
 30
-8.68447e-15
  70
    32
  0
VERTEX
  8
0
  5
4266
 10
797.913
 20
39.0892
 30
-8.68564e-15
  70
    32
  0
VERTEX
  8
0
  5
4267
 10
797.918
 20
39.0944
 30
-8.68678e-15
  70
    32
  0
VERTEX
  8
0
  5
4268
 10
797.923
 20
39.0996
 30
-8.68788e-15
  70
    32
  0
VERTEX
  8
0
  5
4269
 10
797.928
 20
39.1048
 30
-8.68895e-15
  70
    32
  0
VERTEX
  8
0
  5
426A
 10
797.933
 20
39.1101
 30
-8.68997e-15
  70
    32
  0
VERTEX
  8
0
  5
426B
 10
797.937
 20
39.1154
 30
-8.69095e-15
  70
    32
  0
VERTEX
  8
0
  5
426C
 10
797.942
 20
39.1207
 30
-8.69189e-15
  70
    32
  0
VERTEX
  8
0
  5
426D
 10
797.947
 20
39.1261
 30
-8.69279e-15
  70
    32
  0
VERTEX
  8
0
  5
426E
 10
797.952
 20
39.1315
 30
-8.69364e-15
  70
    32
  0
VERTEX
  8
0
  5
426F
 10
797.957
 20
39.1369
 30
-8.69445e-15
  70
    32
  0
VERTEX
  8
0
  5
4270
 10
797.962
 20
39.1423
 30
-8.69520e-15
  70
    32
  0
VERTEX
  8
0
  5
4271
 10
797.967
 20
39.1478
 30
-8.69591e-15
  70
    32
  0
VERTEX
  8
0
  5
4272
 10
797.972
 20
39.1533
 30
-8.69656e-15
  70
    32
  0
VERTEX
  8
0
  5
4273
 10
797.977
 20
39.1588
 30
-8.69717e-15
  70
    32
  0
VERTEX
  8
0
  5
4274
 10
797.982
 20
39.1643
 30
-8.69772e-15
  70
    32
  0
VERTEX
  8
0
  5
4275
 10
797.988
 20
39.1699
 30
-8.69821e-15
  70
    32
  0
VERTEX
  8
0
  5
4276
 10
797.993
 20
39.1755
 30
-8.69865e-15
  70
    32
  0
VERTEX
  8
0
  5
4277
 10
797.998
 20
39.1811
 30
-8.69902e-15
  70
    32
  0
VERTEX
  8
0
  5
4278
 10
798.003
 20
39.1868
 30
-8.69934e-15
  70
    32
  0
VERTEX
  8
0
  5
4279
 10
798.008
 20
39.1925
 30
-8.69960e-15
  70
    32
  0
VERTEX
  8
0
  5
427A
 10
798.014
 20
39.1982
 30
-8.69980e-15
  70
    32
  0
VERTEX
  8
0
  5
427B
 10
798.019
 20
39.2039
 30
-8.69993e-15
  70
    32
  0
VERTEX
  8
0
  5
427C
 10
798.024
 20
39.2097
 30
-8.69999e-15
  70
    32
  0
VERTEX
  8
0
  5
427D
 10
798.029
 20
39.2154
 30
-8.70002e-15
  70
    32
  0
VERTEX
  8
0
  5
427E
 10
798.035
 20
39.2212
 30
-8.70015e-15
  70
    32
  0
VERTEX
  8
0
  5
427F
 10
798.040
 20
39.2271
 30
-8.70042e-15
  70
    32
  0
VERTEX
  8
0
  5
4280
 10
798.046
 20
39.2329
 30
-8.70081e-15
  70
    32
  0
VERTEX
  8
0
  5
4281
 10
798.051
 20
39.2388
 30
-8.70132e-15
  70
    32
  0
VERTEX
  8
0
  5
4282
 10
798.056
 20
39.2447
 30
-8.70195e-15
  70
    32
  0
VERTEX
  8
0
  5
4283
 10
798.062
 20
39.2507
 30
-8.70269e-15
  70
    32
  0
VERTEX
  8
0
  5
4284
 10
798.067
 20
39.2566
 30
-8.70354e-15
  70
    32
  0
VERTEX
  8
0
  5
4285
 10
798.073
 20
39.2626
 30
-8.70450e-15
  70
    32
  0
VERTEX
  8
0
  5
4286
 10
798.078
 20
39.2687
 30
-8.70556e-15
  70
    32
  0
VERTEX
  8
0
  5
4287
 10
798.084
 20
39.2747
 30
-8.70671e-15
  70
    32
  0
VERTEX
  8
0
  5
4288
 10
798.090
 20
39.2808
 30
-8.70796e-15
  70
    32
  0
VERTEX
  8
0
  5
4289
 10
798.095
 20
39.2869
 30
-8.70929e-15
  70
    32
  0
VERTEX
  8
0
  5
428A
 10
798.101
 20
39.2930
 30
-8.71071e-15
  70
    32
  0
VERTEX
  8
0
  5
428B
 10
798.106
 20
39.2991
 30
-8.71221e-15
  70
    32
  0
VERTEX
  8
0
  5
428C
 10
798.112
 20
39.3053
 30
-8.71379e-15
  70
    32
  0
VERTEX
  8
0
  5
428D
 10
798.118
 20
39.3115
 30
-8.71544e-15
  70
    32
  0
VERTEX
  8
0
  5
428E
 10
798.124
 20
39.3177
 30
-8.71715e-15
  70
    32
  0
VERTEX
  8
0
  5
428F
 10
798.129
 20
39.3239
 30
-8.71894e-15
  70
    32
  0
VERTEX
  8
0
  5
4290
 10
798.135
 20
39.3302
 30
-8.72078e-15
  70
    32
  0
VERTEX
  8
0
  5
4291
 10
798.141
 20
39.3365
 30
-8.72268e-15
  70
    32
  0
VERTEX
  8
0
  5
4292
 10
798.147
 20
39.3428
 30
-8.72462e-15
  70
    32
  0
VERTEX
  8
0
  5
4293
 10
798.152
 20
39.3491
 30
-8.72662e-15
  70
    32
  0
VERTEX
  8
0
  5
4294
 10
798.158
 20
39.3555
 30
-8.72866e-15
  70
    32
  0
VERTEX
  8
0
  5
4295
 10
798.164
 20
39.3619
 30
-8.73074e-15
  70
    32
  0
VERTEX
  8
0
  5
4296
 10
798.170
 20
39.3683
 30
-8.73286e-15
  70
    32
  0
VERTEX
  8
0
  5
4297
 10
798.176
 20
39.3747
 30
-8.73501e-15
  70
    32
  0
VERTEX
  8
0
  5
4298
 10
798.182
 20
39.3812
 30
-8.73718e-15
  70
    32
  0
VERTEX
  8
0
  5
4299
 10
798.188
 20
39.3876
 30
-8.73938e-15
  70
    32
  0
VERTEX
  8
0
  5
429A
 10
798.194
 20
39.3942
 30
-8.74160e-15
  70
    32
  0
VERTEX
  8
0
  5
429B
 10
798.200
 20
39.4007
 30
-8.74383e-15
  70
    32
  0
VERTEX
  8
0
  5
429C
 10
798.206
 20
39.4072
 30
-8.74608e-15
  70
    32
  0
VERTEX
  8
0
  5
429D
 10
798.212
 20
39.4138
 30
-8.74833e-15
  70
    32
  0
VERTEX
  8
0
  5
429E
 10
798.218
 20
39.4204
 30
-8.75058e-15
  70
    32
  0
VERTEX
  8
0
  5
429F
 10
798.224
 20
39.4270
 30
-8.75284e-15
  70
    32
  0
VERTEX
  8
0
  5
42A0
 10
798.230
 20
39.4337
 30
-8.75509e-15
  70
    32
  0
VERTEX
  8
0
  5
42A1
 10
798.237
 20
39.4403
 30
-8.75733e-15
  70
    32
  0
VERTEX
  8
0
  5
42A2
 10
798.243
 20
39.4470
 30
-8.75955e-15
  70
    32
  0
VERTEX
  8
0
  5
42A3
 10
798.249
 20
39.4537
 30
-8.76176e-15
  70
    32
  0
VERTEX
  8
0
  5
42A4
 10
798.255
 20
39.4605
 30
-8.76395e-15
  70
    32
  0
VERTEX
  8
0
  5
42A5
 10
798.261
 20
39.4672
 30
-8.76611e-15
  70
    32
  0
VERTEX
  8
0
  5
42A6
 10
798.268
 20
39.4740
 30
-8.76824e-15
  70
    32
  0
VERTEX
  8
0
  5
42A7
 10
798.274
 20
39.4808
 30
-8.77034e-15
  70
    32
  0
VERTEX
  8
0
  5
42A8
 10
798.280
 20
39.4876
 30
-8.77240e-15
  70
    32
  0
VERTEX
  8
0
  5
42A9
 10
798.286
 20
39.4944
 30
-8.77442e-15
  70
    32
  0
VERTEX
  8
0
  5
42AA
 10
798.293
 20
39.5013
 30
-8.77639e-15
  70
    32
  0
VERTEX
  8
0
  5
42AB
 10
798.299
 20
39.5082
 30
-8.77832e-15
  70
    32
  0
VERTEX
  8
0
  5
42AC
 10
798.305
 20
39.5151
 30
-8.78018e-15
  70
    32
  0
VERTEX
  8
0
  5
42AD
 10
798.312
 20
39.5220
 30
-8.78200e-15
  70
    32
  0
VERTEX
  8
0
  5
42AE
 10
798.318
 20
39.5290
 30
-8.78374e-15
  70
    32
  0
VERTEX
  8
0
  5
42AF
 10
798.325
 20
39.5360
 30
-8.78543e-15
  70
    32
  0
VERTEX
  8
0
  5
42B0
 10
798.331
 20
39.5430
 30
-8.78704e-15
  70
    32
  0
VERTEX
  8
0
  5
42B1
 10
798.338
 20
39.5500
 30
-8.78858e-15
  70
    32
  0
VERTEX
  8
0
  5
42B2
 10
798.344
 20
39.5570
 30
-8.79003e-15
  70
    32
  0
VERTEX
  8
0
  5
42B3
 10
798.351
 20
39.5641
 30
-8.79141e-15
  70
    32
  0
VERTEX
  8
0
  5
42B4
 10
798.357
 20
39.5711
 30
-8.79270e-15
  70
    32
  0
VERTEX
  8
0
  5
42B5
 10
798.364
 20
39.5782
 30
-8.79390e-15
  70
    32
  0
VERTEX
  8
0
  5
42B6
 10
798.370
 20
39.5854
 30
-8.79500e-15
  70
    32
  0
VERTEX
  8
0
  5
42B7
 10
798.377
 20
39.5925
 30
-8.79601e-15
  70
    32
  0
VERTEX
  8
0
  5
42B8
 10
798.384
 20
39.5997
 30
-8.79691e-15
  70
    32
  0
VERTEX
  8
0
  5
42B9
 10
798.390
 20
39.6068
 30
-8.79771e-15
  70
    32
  0
VERTEX
  8
0
  5
42BA
 10
798.397
 20
39.6140
 30
-8.79839e-15
  70
    32
  0
VERTEX
  8
0
  5
42BB
 10
798.403
 20
39.6213
 30
-8.79896e-15
  70
    32
  0
VERTEX
  8
0
  5
42BC
 10
798.410
 20
39.6285
 30
-8.79941e-15
  70
    32
  0
VERTEX
  8
0
  5
42BD
 10
798.417
 20
39.6358
 30
-8.79973e-15
  70
    32
  0
VERTEX
  8
0
  5
42BE
 10
798.424
 20
39.6430
 30
-8.79993e-15
  70
    32
  0
VERTEX
  8
0
  5
42BF
 10
798.430
 20
39.6503
 30
-8.80000e-15
  70
    32
  0
SEQEND
  8
0
  5
42C0
  0
POLYLINE
  8
0
  5
42C1
  66
     1
 10
0.000000
 20
0.000000
 30
0.000000
  70
     8
  0
VERTEX
  8
0
  5
42C2
 10
705.473
 20
39.6503
 30
-8.80000e-15
  70
    32
  0
VERTEX
  8
0
  5
42C3
 10
705.458
 20
39.6420
 30
-8.79991e-15
  70
    32
  0
VERTEX
  8
0
  5
42C4
 10
705.442
 20
39.6337
 30
-8.79966e-15
  70
    32
  0
VERTEX
  8
0
  5
42C5
 10
705.426
 20
39.6254
 30
-8.79923e-15
  70
    32
  0
VERTEX
  8
0
  5
42C6
 10
705.410
 20
39.6172
 30
-8.79865e-15
  70
    32
  0
VERTEX
  8
0
  5
42C7
 10
705.394
 20
39.6090
 30
-8.79792e-15
  70
    32
  0
VERTEX
  8
0
  5
42C8
 10
705.379
 20
39.6008
 30
-8.79704e-15
  70
    32
  0
VERTEX
  8
0
  5
42C9
 10
705.363
 20
39.5926
 30
-8.79602e-15
  70
    32
  0
VERTEX
  8
0
  5
42CA
 10
705.347
 20
39.5845
 30
-8.79487e-15
  70
    32
  0
VERTEX
  8
0
  5
42CB
 10
705.331
 20
39.5763
 30
-8.79359e-15
  70
    32
  0
VERTEX
  8
0
  5
42CC
 10
705.315
 20
39.5682
 30
-8.79218e-15
  70
    32
  0
VERTEX
  8
0
  5
42CD
 10
705.299
 20
39.5602
 30
-8.79066e-15
  70
    32
  0
VERTEX
  8
0
  5
42CE
 10
705.283
 20
39.5521
 30
-8.78903e-15
  70
    32
  0
VERTEX
  8
0
  5
42CF
 10
705.267
 20
39.5441
 30
-8.78730e-15
  70
    32
  0
VERTEX
  8
0
  5
42D0
 10
705.251
 20
39.5362
 30
-8.78547e-15
  70
    32
  0
VERTEX
  8
0
  5
42D1
 10
705.235
 20
39.5282
 30
-8.78355e-15
  70
    32
  0
VERTEX
  8
0
  5
42D2
 10
705.218
 20
39.5203
 30
-8.78154e-15
  70
    32
  0
VERTEX
  8
0
  5
42D3
 10
705.202
 20
39.5124
 30
-8.77945e-15
  70
    32
  0
VERTEX
  8
0
  5
42D4
 10
705.186
 20
39.5045
 30
-8.77729e-15
  70
    32
  0
VERTEX
  8
0
  5
42D5
 10
705.170
 20
39.4967
 30
-8.77506e-15
  70
    32
  0
VERTEX
  8
0
  5
42D6
 10
705.154
 20
39.4888
 30
-8.77277e-15
  70
    32
  0
VERTEX
  8
0
  5
42D7
 10
705.137
 20
39.4811
 30
-8.77042e-15
  70
    32
  0
VERTEX
  8
0
  5
42D8
 10
705.121
 20
39.4733
 30
-8.76803e-15
  70
    32
  0
VERTEX
  8
0
  5
42D9
 10
705.105
 20
39.4656
 30
-8.76559e-15
  70
    32
  0
VERTEX
  8
0
  5
42DA
 10
705.088
 20
39.4579
 30
-8.76311e-15
  70
    32
  0
VERTEX
  8
0
  5
42DB
 10
705.072
 20
39.4502
 30
-8.76061e-15
  70
    32
  0
VERTEX
  8
0
  5
42DC
 10
705.056
 20
39.4426
 30
-8.75808e-15
  70
    32
  0
VERTEX
  8
0
  5
42DD
 10
705.039
 20
39.4350
 30
-8.75552e-15
  70
    32
  0
VERTEX
  8
0
  5
42DE
 10
705.023
 20
39.4274
 30
-8.75296e-15
  70
    32
  0
VERTEX
  8
0
  5
42DF
 10
705.006
 20
39.4198
 30
-8.75039e-15
  70
    32
  0
VERTEX
  8
0
  5
42E0
 10
704.990
 20
39.4123
 30
-8.74782e-15
  70
    32
  0
VERTEX
  8
0
  5
42E1
 10
704.973
 20
39.4048
 30
-8.74525e-15
  70
    32
  0
VERTEX
  8
0
  5
42E2
 10
704.957
 20
39.3973
 30
-8.74269e-15
  70
    32
  0
VERTEX
  8
0
  5
42E3
 10
704.940
 20
39.3899
 30
-8.74015e-15
  70
    32
  0
VERTEX
  8
0
  5
42E4
 10
704.924
 20
39.3825
 30
-8.73764e-15
  70
    32
  0
VERTEX
  8
0
  5
42E5
 10
704.907
 20
39.3751
 30
-8.73515e-15
  70
    32
  0
VERTEX
  8
0
  5
42E6
 10
704.890
 20
39.3678
 30
-8.73270e-15
  70
    32
  0
VERTEX
  8
0
  5
42E7
 10
704.874
 20
39.3605
 30
-8.73029e-15
  70
    32
  0
VERTEX
  8
0
  5
42E8
 10
704.857
 20
39.3532
 30
-8.72793e-15
  70
    32
  0
VERTEX
  8
0
  5
42E9
 10
704.840
 20
39.3460
 30
-8.72562e-15
  70
    32
  0
VERTEX
  8
0
  5
42EA
 10
704.823
 20
39.3388
 30
-8.72338e-15
  70
    32
  0
VERTEX
  8
0
  5
42EB
 10
704.807
 20
39.3316
 30
-8.72119e-15
  70
    32
  0
VERTEX
  8
0
  5
42EC
 10
704.790
 20
39.3244
 30
-8.71908e-15
  70
    32
  0
VERTEX
  8
0
  5
42ED
 10
704.773
 20
39.3173
 30
-8.71705e-15
  70
    32
  0
VERTEX
  8
0
  5
42EE
 10
704.756
 20
39.3102
 30
-8.71510e-15
  70
    32
  0
VERTEX
  8
0
  5
42EF
 10
704.739
 20
39.3032
 30
-8.71324e-15
  70
    32
  0
VERTEX
  8
0
  5
42F0
 10
704.723
 20
39.2961
 30
-8.71148e-15
  70
    32
  0
VERTEX
  8
0
  5
42F1
 10
704.706
 20
39.2891
 30
-8.70982e-15
  70
    32
  0
VERTEX
  8
0
  5
42F2
 10
704.689
 20
39.2822
 30
-8.70826e-15
  70
    32
  0
VERTEX
  8
0
  5
42F3
 10
704.672
 20
39.2753
 30
-8.70682e-15
  70
    32
  0
VERTEX
  8
0
  5
42F4
 10
704.655
 20
39.2684
 30
-8.70551e-15
  70
    32
  0
VERTEX
  8
0
  5
42F5
 10
704.638
 20
39.2615
 30
-8.70431e-15
  70
    32
  0
VERTEX
  8
0
  5
42F6
 10
704.621
 20
39.2547
 30
-8.70325e-15
  70
    32
  0
VERTEX
  8
0
  5
42F7
 10
704.604
 20
39.2479
 30
-8.70233e-15
  70
    32
  0
VERTEX
  8
0
  5
42F8
 10
704.587
 20
39.2411
 30
-8.70155e-15
  70
    32
  0
VERTEX
  8
0
  5
42F9
 10
704.570
 20
39.2344
 30
-8.70093e-15
  70
    32
  0
VERTEX
  8
0
  5
42FA
 10
704.553
 20
39.2277
 30
-8.70046e-15
  70
    32
  0
VERTEX
  8
0
  5
42FB
 10
704.536
 20
39.2210
 30
-8.70015e-15
  70
    32
  0
VERTEX
  8
0
  5
42FC
 10
704.518
 20
39.2144
 30
-8.70001e-15
  70
    32
  0
VERTEX
  8
0
  5
42FD
 10
704.501
 20
39.2078
 30
-8.69998e-15
  70
    32
  0
VERTEX
  8
0
  5
42FE
 10
704.484
 20
39.2013
 30
-8.69987e-15
  70
    32
  0
VERTEX
  8
0
  5
42FF
 10
704.467
 20
39.1948
 30
-8.69969e-15
  70
    32
  0
VERTEX
  8
0
  5
4300
 10
704.450
 20
39.1883
 30
-8.69942e-15
  70
    32
  0
VERTEX
  8
0
  5
4301
 10
704.432
 20
39.1818
 30
-8.69907e-15
  70
    32
  0
VERTEX
  8
0
  5
4302
 10
704.415
 20
39.1754
 30
-8.69864e-15
  70
    32
  0
VERTEX
  8
0
  5
4303
 10
704.398
 20
39.1690
 30
-8.69813e-15
  70
    32
  0
VERTEX
  8
0
  5
4304
 10
704.381
 20
39.1627
 30
-8.69756e-15
  70
    32
  0
VERTEX
  8
0
  5
4305
 10
704.363
 20
39.1563
 30
-8.69691e-15
  70
    32
  0
VERTEX
  8
0
  5
4306
 10
704.346
 20
39.1501
 30
-8.69619e-15
  70
    32
  0
VERTEX
  8
0
  5
4307
 10
704.329
 20
39.1438
 30
-8.69540e-15
  70
    32
  0
VERTEX
  8
0
  5
4308
 10
704.311
 20
39.1376
 30
-8.69455e-15
  70
    32
  0
VERTEX
  8
0
  5
4309
 10
704.294
 20
39.1314
 30
-8.69364e-15
  70
    32
  0
VERTEX
  8
0
  5
430A
 10
704.276
 20
39.1253
 30
-8.69266e-15
  70
    32
  0
VERTEX
  8
0
  5
430B
 10
704.259
 20
39.1192
 30
-8.69163e-15
  70
    32
  0
VERTEX
  8
0
  5
430C
 10
704.241
 20
39.1131
 30
-8.69054e-15
  70
    32
  0
VERTEX
  8
0
  5
430D
 10
704.224
 20
39.1071
 30
-8.68939e-15
  70
    32
  0
VERTEX
  8
0
  5
430E
 10
704.206
 20
39.1011
 30
-8.68819e-15
  70
    32
  0
VERTEX
  8
0
  5
430F
 10
704.189
 20
39.0951
 30
-8.68695e-15
  70
    32
  0
VERTEX
  8
0
  5
4310
 10
704.171
 20
39.0892
 30
-8.68565e-15
  70
    32
  0
VERTEX
  8
0
  5
4311
 10
704.154
 20
39.0833
 30
-8.68431e-15
  70
    32
  0
VERTEX
  8
0
  5
4312
 10
704.136
 20
39.0775
 30
-8.68292e-15
  70
    32
  0
VERTEX
  8
0
  5
4313
 10
704.119
 20
39.0717
 30
-8.68150e-15
  70
    32
  0
VERTEX
  8
0
  5
4314
 10
704.101
 20
39.0659
 30
-8.68003e-15
  70
    32
  0
VERTEX
  8
0
  5
4315
 10
704.083
 20
39.0601
 30
-8.67852e-15
  70
    32
  0
VERTEX
  8
0
  5
4316
 10
704.066
 20
39.0544
 30
-8.67698e-15
  70
    32
  0
VERTEX
  8
0
  5
4317
 10
704.048
 20
39.0488
 30
-8.67541e-15
  70
    32
  0
VERTEX
  8
0
  5
4318
 10
704.030
 20
39.0431
 30
-8.67381e-15
  70
    32
  0
VERTEX
  8
0
  5
4319
 10
704.013
 20
39.0375
 30
-8.67217e-15
  70
    32
  0
VERTEX
  8
0
  5
431A
 10
703.995
 20
39.0320
 30
-8.67051e-15
  70
    32
  0
VERTEX
  8
0
  5
431B
 10
703.977
 20
39.0264
 30
-8.66883e-15
  70
    32
  0
VERTEX
  8
0
  5
431C
 10
703.959
 20
39.0210
 30
-8.66712e-15
  70
    32
  0
VERTEX
  8
0
  5
431D
 10
703.942
 20
39.0155
 30
-8.66539e-15
  70
    32
  0
VERTEX
  8
0
  5
431E
 10
703.924
 20
39.0101
 30
-8.66365e-15
  70
    32
  0
VERTEX
  8
0
  5
431F
 10
703.906
 20
39.0047
 30
-8.66189e-15
  70
    32
  0
VERTEX
  8
0
  5
4320
 10
703.888
 20
38.9994
 30
-8.66011e-15
  70
    32
  0
VERTEX
  8
0
  5
4321
 10
703.870
 20
38.9941
 30
-8.65832e-15
  70
    32
  0
VERTEX
  8
0
  5
4322
 10
703.853
 20
38.9888
 30
-8.65652e-15
  70
    32
  0
VERTEX
  8
0
  5
4323
 10
703.835
 20
38.9836
 30
-8.65472e-15
  70
    32
  0
VERTEX
  8
0
  5
4324
 10
703.817
 20
38.9784
 30
-8.65291e-15
  70
    32
  0
VERTEX
  8
0
  5
4325
 10
703.799
 20
38.9733
 30
-8.65109e-15
  70
    32
  0
VERTEX
  8
0
  5
4326
 10
703.781
 20
38.9682
 30
-8.64928e-15
  70
    32
  0
VERTEX
  8
0
  5
4327
 10
703.763
 20
38.9631
 30
-8.64746e-15
  70
    32
  0
VERTEX
  8
0
  5
4328
 10
703.745
 20
38.9581
 30
-8.64565e-15
  70
    32
  0
VERTEX
  8
0
  5
4329
 10
703.727
 20
38.9531
 30
-8.64384e-15
  70
    32
  0
VERTEX
  8
0
  5
432A
 10
703.709
 20
38.9481
 30
-8.64204e-15
  70
    32
  0
VERTEX
  8
0
  5
432B
 10
703.691
 20
38.9432
 30
-8.64025e-15
  70
    32
  0
VERTEX
  8
0
  5
432C
 10
703.673
 20
38.9383
 30
-8.63847e-15
  70
    32
  0
VERTEX
  8
0
  5
432D
 10
703.655
 20
38.9335
 30
-8.63671e-15
  70
    32
  0
VERTEX
  8
0
  5
432E
 10
703.637
 20
38.9287
 30
-8.63496e-15
  70
    32
  0
VERTEX
  8
0
  5
432F
 10
703.619
 20
38.9239
 30
-8.63323e-15
  70
    32
  0
VERTEX
  8
0
  5
4330
 10
703.601
 20
38.9192
 30
-8.63152e-15
  70
    32
  0
VERTEX
  8
0
  5
4331
 10
703.583
 20
38.9145
 30
-8.62983e-15
  70
    32
  0
VERTEX
  8
0
  5
4332
 10
703.565
 20
38.9098
 30
-8.62816e-15
  70
    32
  0
VERTEX
  8
0
  5
4333
 10
703.547
 20
38.9052
 30
-8.62652e-15
  70
    32
  0
VERTEX
  8
0
  5
4334
 10
703.529
 20
38.9007
 30
-8.62491e-15
  70
    32
  0
VERTEX
  8
0
  5
4335
 10
703.511
 20
38.8961
 30
-8.62333e-15
  70
    32
  0
VERTEX
  8
0
  5
4336
 10
703.493
 20
38.8916
 30
-8.62179e-15
  70
    32
  0
VERTEX
  8
0
  5
4337
 10
703.474
 20
38.8872
 30
-8.62027e-15
  70
    32
  0
VERTEX
  8
0
  5
4338
 10
703.456
 20
38.8828
 30
-8.61880e-15
  70
    32
  0
VERTEX
  8
0
  5
4339
 10
703.438
 20
38.8784
 30
-8.61736e-15
  70
    32
  0
VERTEX
  8
0
  5
433A
 10
703.420
 20
38.8741
 30
-8.61597e-15
  70
    32
  0
VERTEX
  8
0
  5
433B
 10
703.402
 20
38.8698
 30
-8.61462e-15
  70
    32
  0
VERTEX
  8
0
  5
433C
 10
703.384
 20
38.8655
 30
-8.61331e-15
  70
    32
  0
VERTEX
  8
0
  5
433D
 10
703.365
 20
38.8613
 30
-8.61205e-15
  70
    32
  0
VERTEX
  8
0
  5
433E
 10
703.347
 20
38.8572
 30
-8.61085e-15
  70
    32
  0
VERTEX
  8
0
  5
433F
 10
703.329
 20
38.8530
 30
-8.60969e-15
  70
    32
  0
VERTEX
  8
0
  5
4340
 10
703.311
 20
38.8489
 30
-8.60859e-15
  70
    32
  0
VERTEX
  8
0
  5
4341
 10
703.292
 20
38.8449
 30
-8.60754e-15
  70
    32
  0
VERTEX
  8
0
  5
4342
 10
703.274
 20
38.8409
 30
-8.60656e-15
  70
    32
  0
VERTEX
  8
0
  5
4343
 10
703.256
 20
38.8369
 30
-8.60563e-15
  70
    32
  0
VERTEX
  8
0
  5
4344
 10
703.238
 20
38.8330
 30
-8.60477e-15
  70
    32
  0
VERTEX
  8
0
  5
4345
 10
703.219
 20
38.8291
 30
-8.60397e-15
  70
    32
  0
VERTEX
  8
0
  5
4346
 10
703.201
 20
38.8253
 30
-8.60323e-15
  70
    32
  0
VERTEX
  8
0
  5
4347
 10
703.183
 20
38.8214
 30
-8.60257e-15
  70
    32
  0
VERTEX
  8
0
  5
4348
 10
703.164
 20
38.8177
 30
-8.60198e-15
  70
    32
  0
VERTEX
  8
0
  5
4349
 10
703.146
 20
38.8140
 30
-8.60146e-15
  70
    32
  0
VERTEX
  8
0
  5
434A
 10
703.128
 20
38.8103
 30
-8.60101e-15
  70
    32
  0
VERTEX
  8
0
  5
434B
 10
703.109
 20
38.8066
 30
-8.60065e-15
  70
    32
  0
VERTEX
  8
0
  5
434C
 10
703.091
 20
38.8030
 30
-8.60036e-15
  70
    32
  0
VERTEX
  8
0
  5
434D
 10
703.073
 20
38.7995
 30
-8.60016e-15
  70
    32
  0
VERTEX
  8
0
  5
434E
 10
703.054
 20
38.7960
 30
-8.60004e-15
  70
    32
  0
VERTEX
  8
0
  5
434F
 10
703.036
 20
38.7925
 30
-8.60000e-15
  70
    32
  0
VERTEX
  8
0
  5
4350
 10
703.017
 20
38.7891
 30
-8.60000e-15
  70
    32
  0
VERTEX
  8
0
  5
4351
 10
702.999
 20
38.7857
 30
-8.60000e-15
  70
    32
  0
VERTEX
  8
0
  5
4352
 10
702.981
 20
38.7823
 30
-8.60000e-15
  70
    32
  0
VERTEX
  8
0
  5
4353
 10
702.962
 20
38.7790
 30
-8.60000e-15
  70
    32
  0
VERTEX
  8
0
  5
4354
 10
702.944
 20
38.7758
 30
-8.60000e-15
  70
    32
  0
VERTEX
  8
0
  5
4355
 10
702.925
 20
38.7726
 30
-8.60000e-15
  70
    32
  0
VERTEX
  8
0
  5
4356
 10
702.907
 20
38.7694
 30
-8.60000e-15
  70
    32
  0
VERTEX
  8
0
  5
4357
 10
702.889
 20
38.7662
 30
-8.60000e-15
  70
    32
  0
VERTEX
  8
0
  5
4358
 10
702.870
 20
38.7631
 30
-8.60000e-15
  70
    32
  0
VERTEX
  8
0
  5
4359
 10
702.852
 20
38.7601
 30
-8.60000e-15
  70
    32
  0
VERTEX
  8
0
  5
435A
 10
702.833
 20
38.7571
 30
-8.60000e-15
  70
    32
  0
VERTEX
  8
0
  5
435B
 10
702.815
 20
38.7541
 30
-8.60000e-15
  70
    32
  0
VERTEX
  8
0
  5
435C
 10
702.796
 20
38.7512
 30
-8.60000e-15
  70
    32
  0
VERTEX
  8
0
  5
435D
 10
702.778
 20
38.7483
 30
-8.60000e-15
  70
    32
  0
VERTEX
  8
0
  5
435E
 10
702.759
 20
38.7455
 30
-8.60000e-15
  70
    32
  0
VERTEX
  8
0
  5
435F
 10
702.741
 20
38.7427
 30
-8.60000e-15
  70
    32
  0
VERTEX
  8
0
  5
4360
 10
702.722
 20
38.7399
 30
-8.60000e-15
  70
    32
  0
VERTEX
  8
0
  5
4361
 10
702.704
 20
38.7372
 30
-8.60000e-15
  70
    32
  0
VERTEX
  8
0
  5
4362
 10
702.685
 20
38.7345
 30
-8.60000e-15
  70
    32
  0
VERTEX
  8
0
  5
4363
 10
702.667
 20
38.7319
 30
-8.60000e-15
  70
    32
  0
VERTEX
  8
0
  5
4364
 10
702.648
 20
38.7293
 30
-8.60000e-15
  70
    32
  0
VERTEX
  8
0
  5
4365
 10
702.630
 20
38.7267
 30
-8.60000e-15
  70
    32
  0
VERTEX
  8
0
  5
4366
 10
702.611
 20
38.7242
 30
-8.60000e-15
  70
    32
  0
VERTEX
  8
0
  5
4367
 10
702.593
 20
38.7218
 30
-8.60000e-15
  70
    32
  0
VERTEX
  8
0
  5
4368
 10
702.574
 20
38.7193
 30
-8.60000e-15
  70
    32
  0
VERTEX
  8
0
  5
4369
 10
702.556
 20
38.7170
 30
-8.60000e-15
  70
    32
  0
VERTEX
  8
0
  5
436A
 10
702.537
 20
38.7146
 30
-8.60000e-15
  70
    32
  0
VERTEX
  8
0
  5
436B
 10
702.519
 20
38.7123
 30
-8.60000e-15
  70
    32
  0
VERTEX
  8
0
  5
436C
 10
702.500
 20
38.7101
 30
-8.60000e-15
  70
    32
  0
VERTEX
  8
0
  5
436D
 10
702.482
 20
38.7079
 30
-8.60000e-15
  70
    32
  0
VERTEX
  8
0
  5
436E
 10
702.463
 20
38.7057
 30
-8.60000e-15
  70
    32
  0
VERTEX
  8
0
  5
436F
 10
702.445
 20
38.7036
 30
-8.60000e-15
  70
    32
  0
VERTEX
  8
0
  5
4370
 10
702.426
 20
38.7015
 30
-8.60000e-15
  70
    32
  0
VERTEX
  8
0
  5
4371
 10
702.408
 20
38.6994
 30
-8.60000e-15
  70
    32
  0
VERTEX
  8
0
  5
4372
 10
702.389
 20
38.6974
 30
-8.60000e-15
  70
    32
  0
VERTEX
  8
0
  5
4373
 10
702.370
 20
38.6955
 30
-8.60000e-15
  70
    32
  0
VERTEX
  8
0
  5
4374
 10
702.352
 20
38.6935
 30
-8.60000e-15
  70
    32
  0
VERTEX
  8
0
  5
4375
 10
702.333
 20
38.6917
 30
-8.60000e-15
  70
    32
  0
VERTEX
  8
0
  5
4376
 10
702.315
 20
38.6898
 30
-8.60000e-15
  70
    32
  0
VERTEX
  8
0
  5
4377
 10
702.296
 20
38.6880
 30
-8.60000e-15
  70
    32
  0
VERTEX
  8
0
  5
4378
 10
702.278
 20
38.6863
 30
-8.60000e-15
  70
    32
  0
VERTEX
  8
0
  5
4379
 10
702.259
 20
38.6846
 30
-8.60000e-15
  70
    32
  0
VERTEX
  8
0
  5
437A
 10
702.241
 20
38.6829
 30
-8.60000e-15
  70
    32
  0
VERTEX
  8
0
  5
437B
 10
702.222
 20
38.6813
 30
-8.60000e-15
  70
    32
  0
VERTEX
  8
0
  5
437C
 10
702.204
 20
38.6797
 30
-8.60000e-15
  70
    32
  0
VERTEX
  8
0
  5
437D
 10
702.185
 20
38.6781
 30
-8.60000e-15
  70
    32
  0
VERTEX
  8
0
  5
437E
 10
702.167
 20
38.6766
 30
-8.60000e-15
  70
    32
  0
VERTEX
  8
0
  5
437F
 10
702.148
 20
38.6752
 30
-8.60000e-15
  70
    32
  0
VERTEX
  8
0
  5
4380
 10
702.129
 20
38.6737
 30
-8.60000e-15
  70
    32
  0
VERTEX
  8
0
  5
4381
 10
702.111
 20
38.6724
 30
-8.60000e-15
  70
    32
  0
VERTEX
  8
0
  5
4382
 10
702.092
 20
38.6710
 30
-8.60000e-15
  70
    32
  0
VERTEX
  8
0
  5
4383
 10
702.074
 20
38.6697
 30
-8.60000e-15
  70
    32
  0
VERTEX
  8
0
  5
4384
 10
702.055
 20
38.6685
 30
-8.60000e-15
  70
    32
  0
VERTEX
  8
0
  5
4385
 10
702.037
 20
38.6673
 30
-8.60000e-15
  70
    32
  0
VERTEX
  8
0
  5
4386
 10
702.018
 20
38.6661
 30
-8.60000e-15
  70
    32
  0
VERTEX
  8
0
  5
4387
 10
702.000
 20
38.6650
 30
-8.60000e-15
  70
    32
  0
VERTEX
  8
0
  5
4388
 10
701.981
 20
38.6639
 30
-8.60000e-15
  70
    32
  0
VERTEX
  8
0
  5
4389
 10
701.963
 20
38.6629
 30
-8.60000e-15
  70
    32
  0
VERTEX
  8
0
  5
438A
 10
701.944
 20
38.6619
 30
-8.60000e-15
  70
    32
  0
VERTEX
  8
0
  5
438B
 10
701.926
 20
38.6609
 30
-8.60000e-15
  70
    32
  0
VERTEX
  8
0
  5
438C
 10
701.907
 20
38.6600
 30
-8.60000e-15
  70
    32
  0
VERTEX
  8
0
  5
438D
 10
701.889
 20
38.6591
 30
-8.60000e-15
  70
    32
  0
VERTEX
  8
0
  5
438E
 10
701.870
 20
38.6583
 30
-8.60000e-15
  70
    32
  0
VERTEX
  8
0
  5
438F
 10
701.852
 20
38.6575
 30
-8.60000e-15
  70
    32
  0
VERTEX
  8
0
  5
4390
 10
701.833
 20
38.6567
 30
-8.60000e-15
  70
    32
  0
VERTEX
  8
0
  5
4391
 10
701.815
 20
38.6560
 30
-8.60000e-15
  70
    32
  0
VERTEX
  8
0
  5
4392
 10
701.797
 20
38.6554
 30
-8.60000e-15
  70
    32
  0
VERTEX
  8
0
  5
4393
 10
701.778
 20
38.6547
 30
-8.60000e-15
  70
    32
  0
VERTEX
  8
0
  5
4394
 10
701.760
 20
38.6541
 30
-8.60000e-15
  70
    32
  0
VERTEX
  8
0
  5
4395
 10
701.741
 20
38.6536
 30
-8.60000e-15
  70
    32
  0
VERTEX
  8
0
  5
4396
 10
701.723
 20
38.6531
 30
-8.60000e-15
  70
    32
  0
VERTEX
  8
0
  5
4397
 10
701.704
 20
38.6526
 30
-8.60000e-15
  70
    32
  0
VERTEX
  8
0
  5
4398
 10
701.686
 20
38.6522
 30
-8.60000e-15
  70
    32
  0
VERTEX
  8
0
  5
4399
 10
701.667
 20
38.6519
 30
-8.60000e-15
  70
    32
  0
VERTEX
  8
0
  5
439A
 10
701.649
 20
38.6515
 30
-8.60000e-15
  70
    32
  0
VERTEX
  8
0
  5
439B
 10
701.631
 20
38.6512
 30
-8.60000e-15
  70
    32
  0
VERTEX
  8
0
  5
439C
 10
701.612
 20
38.6510
 30
-8.60000e-15
  70
    32
  0
VERTEX
  8
0
  5
439D
 10
701.594
 20
38.6508
 30
-8.60000e-15
  70
    32
  0
VERTEX
  8
0
  5
439E
 10
701.576
 20
38.6506
 30
-8.60000e-15
  70
    32
  0
VERTEX
  8
0
  5
439F
 10
701.557
 20
38.6505
 30
-8.60000e-15
  70
    32
  0
VERTEX
  8
0
  5
43A0
 10
701.539
 20
38.6504
 30
-8.60000e-15
  70
    32
  0
VERTEX
  8
0
  5
43A1
 10
701.520
 20
38.6504
 30
-8.60000e-15
  70
    32
  0
VERTEX
  8
0
  5
43A2
 10
701.502
 20
38.6504
 30
-8.60000e-15
  70
    32
  0
VERTEX
  8
0
  5
43A3
 10
701.484
 20
38.6504
 30
-8.60000e-15
  70
    32
  0
VERTEX
  8
0
  5
43A4
 10
701.465
 20
38.6505
 30
-8.60000e-15
  70
    32
  0
VERTEX
  8
0
  5
43A5
 10
701.447
 20
38.6506
 30
-8.60000e-15
  70
    32
  0
VERTEX
  8
0
  5
43A6
 10
701.429
 20
38.6508
 30
-8.60000e-15
  70
    32
  0
VERTEX
  8
0
  5
43A7
 10
701.410
 20
38.6510
 30
-8.60000e-15
  70
    32
  0
VERTEX
  8
0
  5
43A8
 10
701.392
 20
38.6512
 30
-8.60000e-15
  70
    32
  0
VERTEX
  8
0
  5
43A9
 10
701.373
 20
38.6515
 30
-8.60000e-15
  70
    32
  0
VERTEX
  8
0
  5
43AA
 10
701.355
 20
38.6519
 30
-8.60000e-15
  70
    32
  0
VERTEX
  8
0
  5
43AB
 10
701.337
 20
38.6522
 30
-8.60000e-15
  70
    32
  0
VERTEX
  8
0
  5
43AC
 10
701.318
 20
38.6526
 30
-8.60000e-15
  70
    32
  0
VERTEX
  8
0
  5
43AD
 10
701.300
 20
38.6531
 30
-8.60000e-15
  70
    32
  0
VERTEX
  8
0
  5
43AE
 10
701.281
 20
38.6536
 30
-8.60000e-15
  70
    32
  0
VERTEX
  8
0
  5
43AF
 10
701.263
 20
38.6541
 30
-8.60000e-15
  70
    32
  0
VERTEX
  8
0
  5
43B0
 10
701.244
 20
38.6547
 30
-8.60000e-15
  70
    32
  0
VERTEX
  8
0
  5
43B1
 10
701.226
 20
38.6554
 30
-8.60000e-15
  70
    32
  0
VERTEX
  8
0
  5
43B2
 10
701.208
 20
38.6560
 30
-8.60000e-15
  70
    32
  0
VERTEX
  8
0
  5
43B3
 10
701.189
 20
38.6567
 30
-8.60000e-15
  70
    32
  0
VERTEX
  8
0
  5
43B4
 10
701.171
 20
38.6575
 30
-8.60000e-15
  70
    32
  0
VERTEX
  8
0
  5
43B5
 10
701.152
 20
38.6583
 30
-8.60000e-15
  70
    32
  0
VERTEX
  8
0
  5
43B6
 10
701.134
 20
38.6591
 30
-8.60000e-15
  70
    32
  0
VERTEX
  8
0
  5
43B7
 10
701.115
 20
38.6600
 30
-8.60000e-15
  70
    32
  0
VERTEX
  8
0
  5
43B8
 10
701.097
 20
38.6609
 30
-8.60000e-15
  70
    32
  0
VERTEX
  8
0
  5
43B9
 10
701.078
 20
38.6619
 30
-8.60000e-15
  70
    32
  0
VERTEX
  8
0
  5
43BA
 10
701.060
 20
38.6629
 30
-8.60000e-15
  70
    32
  0
VERTEX
  8
0
  5
43BB
 10
701.041
 20
38.6639
 30
-8.60000e-15
  70
    32
  0
VERTEX
  8
0
  5
43BC
 10
701.023
 20
38.6650
 30
-8.60000e-15
  70
    32
  0
VERTEX
  8
0
  5
43BD
 10
701.004
 20
38.6661
 30
-8.60000e-15
  70
    32
  0
VERTEX
  8
0
  5
43BE
 10
700.986
 20
38.6673
 30
-8.60000e-15
  70
    32
  0
VERTEX
  8
0
  5
43BF
 10
700.967
 20
38.6685
 30
-8.60000e-15
  70
    32
  0
VERTEX
  8
0
  5
43C0
 10
700.949
 20
38.6697
 30
-8.60000e-15
  70
    32
  0
VERTEX
  8
0
  5
43C1
 10
700.930
 20
38.6710
 30
-8.60000e-15
  70
    32
  0
VERTEX
  8
0
  5
43C2
 10
700.912
 20
38.6724
 30
-8.60000e-15
  70
    32
  0
VERTEX
  8
0
  5
43C3
 10
700.893
 20
38.6737
 30
-8.60000e-15
  70
    32
  0
VERTEX
  8
0
  5
43C4
 10
700.875
 20
38.6752
 30
-8.60000e-15
  70
    32
  0
VERTEX
  8
0
  5
43C5
 10
700.856
 20
38.6766
 30
-8.60000e-15
  70
    32
  0
VERTEX
  8
0
  5
43C6
 10
700.837
 20
38.6781
 30
-8.60000e-15
  70
    32
  0
VERTEX
  8
0
  5
43C7
 10
700.819
 20
38.6797
 30
-8.60000e-15
  70
    32
  0
VERTEX
  8
0
  5
43C8
 10
700.800
 20
38.6813
 30
-8.60000e-15
  70
    32
  0
VERTEX
  8
0
  5
43C9
 10
700.782
 20
38.6829
 30
-8.60000e-15
  70
    32
  0
VERTEX
  8
0
  5
43CA
 10
700.763
 20
38.6846
 30
-8.60000e-15
  70
    32
  0
VERTEX
  8
0
  5
43CB
 10
700.745
 20
38.6863
 30
-8.60000e-15
  70
    32
  0
VERTEX
  8
0
  5
43CC
 10
700.726
 20
38.6880
 30
-8.60000e-15
  70
    32
  0
VERTEX
  8
0
  5
43CD
 10
700.708
 20
38.6898
 30
-8.60000e-15
  70
    32
  0
VERTEX
  8
0
  5
43CE
 10
700.689
 20
38.6917
 30
-8.60000e-15
  70
    32
  0
VERTEX
  8
0
  5
43CF
 10
700.671
 20
38.6935
 30
-8.60000e-15
  70
    32
  0
VERTEX
  8
0
  5
43D0
 10
700.652
 20
38.6955
 30
-8.60000e-15
  70
    32
  0
VERTEX
  8
0
  5
43D1
 10
700.634
 20
38.6974
 30
-8.60000e-15
  70
    32
  0
VERTEX
  8
0
  5
43D2
 10
700.615
 20
38.6994
 30
-8.60000e-15
  70
    32
  0
VERTEX
  8
0
  5
43D3
 10
700.596
 20
38.7015
 30
-8.60000e-15
  70
    32
  0
VERTEX
  8
0
  5
43D4
 10
700.578
 20
38.7036
 30
-8.60000e-15
  70
    32
  0
VERTEX
  8
0
  5
43D5
 10
700.559
 20
38.7057
 30
-8.60000e-15
  70
    32
  0
VERTEX
  8
0
  5
43D6
 10
700.541
 20
38.7079
 30
-8.60000e-15
  70
    32
  0
VERTEX
  8
0
  5
43D7
 10
700.522
 20
38.7101
 30
-8.60000e-15
  70
    32
  0
VERTEX
  8
0
  5
43D8
 10
700.504
 20
38.7123
 30
-8.60000e-15
  70
    32
  0
VERTEX
  8
0
  5
43D9
 10
700.485
 20
38.7146
 30
-8.60000e-15
  70
    32
  0
VERTEX
  8
0
  5
43DA
 10
700.467
 20
38.7170
 30
-8.60000e-15
  70
    32
  0
VERTEX
  8
0
  5
43DB
 10
700.448
 20
38.7193
 30
-8.60000e-15
  70
    32
  0
VERTEX
  8
0
  5
43DC
 10
700.430
 20
38.7218
 30
-8.60000e-15
  70
    32
  0
VERTEX
  8
0
  5
43DD
 10
700.411
 20
38.7242
 30
-8.60000e-15
  70
    32
  0
VERTEX
  8
0
  5
43DE
 10
700.393
 20
38.7267
 30
-8.60000e-15
  70
    32
  0
VERTEX
  8
0
  5
43DF
 10
700.374
 20
38.7293
 30
-8.60000e-15
  70
    32
  0
VERTEX
  8
0
  5
43E0
 10
700.356
 20
38.7319
 30
-8.60000e-15
  70
    32
  0
VERTEX
  8
0
  5
43E1
 10
700.337
 20
38.7345
 30
-8.60000e-15
  70
    32
  0
VERTEX
  8
0
  5
43E2
 10
700.319
 20
38.7372
 30
-8.60000e-15
  70
    32
  0
VERTEX
  8
0
  5
43E3
 10
700.300
 20
38.7399
 30
-8.60000e-15
  70
    32
  0
VERTEX
  8
0
  5
43E4
 10
700.282
 20
38.7427
 30
-8.60000e-15
  70
    32
  0
VERTEX
  8
0
  5
43E5
 10
700.263
 20
38.7455
 30
-8.60000e-15
  70
    32
  0
VERTEX
  8
0
  5
43E6
 10
700.245
 20
38.7483
 30
-8.60000e-15
  70
    32
  0
VERTEX
  8
0
  5
43E7
 10
700.226
 20
38.7512
 30
-8.60000e-15
  70
    32
  0
VERTEX
  8
0
  5
43E8
 10
700.208
 20
38.7541
 30
-8.60000e-15
  70
    32
  0
VERTEX
  8
0
  5
43E9
 10
700.189
 20
38.7571
 30
-8.60000e-15
  70
    32
  0
VERTEX
  8
0
  5
43EA
 10
700.171
 20
38.7601
 30
-8.60000e-15
  70
    32
  0
VERTEX
  8
0
  5
43EB
 10
700.152
 20
38.7631
 30
-8.60000e-15
  70
    32
  0
VERTEX
  8
0
  5
43EC
 10
700.134
 20
38.7662
 30
-8.60000e-15
  70
    32
  0
VERTEX
  8
0
  5
43ED
 10
700.116
 20
38.7694
 30
-8.60000e-15
  70
    32
  0
VERTEX
  8
0
  5
43EE
 10
700.097
 20
38.7726
 30
-8.60000e-15
  70
    32
  0
VERTEX
  8
0
  5
43EF
 10
700.079
 20
38.7758
 30
-8.60000e-15
  70
    32
  0
VERTEX
  8
0
  5
43F0
 10
700.060
 20
38.7790
 30
-8.60000e-15
  70
    32
  0
VERTEX
  8
0
  5
43F1
 10
700.042
 20
38.7823
 30
-8.60000e-15
  70
    32
  0
VERTEX
  8
0
  5
43F2
 10
700.023
 20
38.7857
 30
-8.60000e-15
  70
    32
  0
VERTEX
  8
0
  5
43F3
 10
700.005
 20
38.7891
 30
-8.60000e-15
  70
    32
  0
VERTEX
  8
0
  5
43F4
 10
699.987
 20
38.7925
 30
-8.60000e-15
  70
    32
  0
VERTEX
  8
0
  5
43F5
 10
699.968
 20
38.7960
 30
-8.60004e-15
  70
    32
  0
VERTEX
  8
0
  5
43F6
 10
699.950
 20
38.7995
 30
-8.60016e-15
  70
    32
  0
VERTEX
  8
0
  5
43F7
 10
699.932
 20
38.8030
 30
-8.60036e-15
  70
    32
  0
VERTEX
  8
0
  5
43F8
 10
699.913
 20
38.8066
 30
-8.60065e-15
  70
    32
  0
VERTEX
  8
0
  5
43F9
 10
699.895
 20
38.8103
 30
-8.60101e-15
  70
    32
  0
VERTEX
  8
0
  5
43FA
 10
699.877
 20
38.8140
 30
-8.60146e-15
  70
    32
  0
VERTEX
  8
0
  5
43FB
 10
699.858
 20
38.8177
 30
-8.60198e-15
  70
    32
  0
VERTEX
  8
0
  5
43FC
 10
699.840
 20
38.8214
 30
-8.60257e-15
  70
    32
  0
VERTEX
  8
0
  5
43FD
 10
699.822
 20
38.8253
 30
-8.60323e-15
  70
    32
  0
VERTEX
  8
0
  5
43FE
 10
699.803
 20
38.8291
 30
-8.60397e-15
  70
    32
  0
VERTEX
  8
0
  5
43FF
 10
699.785
 20
38.8330
 30
-8.60477e-15
  70
    32
  0
VERTEX
  8
0
  5
4400
 10
699.767
 20
38.8369
 30
-8.60563e-15
  70
    32
  0
VERTEX
  8
0
  5
4401
 10
699.748
 20
38.8409
 30
-8.60656e-15
  70
    32
  0
VERTEX
  8
0
  5
4402
 10
699.730
 20
38.8449
 30
-8.60754e-15
  70
    32
  0
VERTEX
  8
0
  5
4403
 10
699.712
 20
38.8489
 30
-8.60859e-15
  70
    32
  0
VERTEX
  8
0
  5
4404
 10
699.694
 20
38.8530
 30
-8.60969e-15
  70
    32
  0
VERTEX
  8
0
  5
4405
 10
699.675
 20
38.8572
 30
-8.61085e-15
  70
    32
  0
VERTEX
  8
0
  5
4406
 10
699.657
 20
38.8613
 30
-8.61205e-15
  70
    32
  0
VERTEX
  8
0
  5
4407
 10
699.639
 20
38.8655
 30
-8.61331e-15
  70
    32
  0
VERTEX
  8
0
  5
4408
 10
699.621
 20
38.8698
 30
-8.61462e-15
  70
    32
  0
VERTEX
  8
0
  5
4409
 10
699.603
 20
38.8741
 30
-8.61597e-15
  70
    32
  0
VERTEX
  8
0
  5
440A
 10
699.584
 20
38.8784
 30
-8.61736e-15
  70
    32
  0
VERTEX
  8
0
  5
440B
 10
699.566
 20
38.8828
 30
-8.61880e-15
  70
    32
  0
VERTEX
  8
0
  5
440C
 10
699.548
 20
38.8872
 30
-8.62027e-15
  70
    32
  0
VERTEX
  8
0
  5
440D
 10
699.530
 20
38.8916
 30
-8.62179e-15
  70
    32
  0
VERTEX
  8
0
  5
440E
 10
699.512
 20
38.8961
 30
-8.62333e-15
  70
    32
  0
VERTEX
  8
0
  5
440F
 10
699.494
 20
38.9007
 30
-8.62491e-15
  70
    32
  0
VERTEX
  8
0
  5
4410
 10
699.476
 20
38.9052
 30
-8.62652e-15
  70
    32
  0
VERTEX
  8
0
  5
4411
 10
699.458
 20
38.9098
 30
-8.62816e-15
  70
    32
  0
VERTEX
  8
0
  5
4412
 10
699.439
 20
38.9145
 30
-8.62983e-15
  70
    32
  0
VERTEX
  8
0
  5
4413
 10
699.421
 20
38.9192
 30
-8.63152e-15
  70
    32
  0
VERTEX
  8
0
  5
4414
 10
699.403
 20
38.9239
 30
-8.63323e-15
  70
    32
  0
VERTEX
  8
0
  5
4415
 10
699.385
 20
38.9287
 30
-8.63496e-15
  70
    32
  0
VERTEX
  8
0
  5
4416
 10
699.367
 20
38.9335
 30
-8.63671e-15
  70
    32
  0
VERTEX
  8
0
  5
4417
 10
699.349
 20
38.9383
 30
-8.63847e-15
  70
    32
  0
VERTEX
  8
0
  5
4418
 10
699.331
 20
38.9432
 30
-8.64025e-15
  70
    32
  0
VERTEX
  8
0
  5
4419
 10
699.313
 20
38.9481
 30
-8.64204e-15
  70
    32
  0
VERTEX
  8
0
  5
441A
 10
699.295
 20
38.9531
 30
-8.64384e-15
  70
    32
  0
VERTEX
  8
0
  5
441B
 10
699.277
 20
38.9581
 30
-8.64565e-15
  70
    32
  0
VERTEX
  8
0
  5
441C
 10
699.259
 20
38.9631
 30
-8.64746e-15
  70
    32
  0
VERTEX
  8
0
  5
441D
 10
699.241
 20
38.9682
 30
-8.64928e-15
  70
    32
  0
VERTEX
  8
0
  5
441E
 10
699.224
 20
38.9733
 30
-8.65109e-15
  70
    32
  0
VERTEX
  8
0
  5
441F
 10
699.206
 20
38.9784
 30
-8.65291e-15
  70
    32
  0
VERTEX
  8
0
  5
4420
 10
699.188
 20
38.9836
 30
-8.65472e-15
  70
    32
  0
VERTEX
  8
0
  5
4421
 10
699.170
 20
38.9888
 30
-8.65652e-15
  70
    32
  0
VERTEX
  8
0
  5
4422
 10
699.152
 20
38.9941
 30
-8.65832e-15
  70
    32
  0
VERTEX
  8
0
  5
4423
 10
699.134
 20
38.9994
 30
-8.66011e-15
  70
    32
  0
VERTEX
  8
0
  5
4424
 10
699.116
 20
39.0047
 30
-8.66189e-15
  70
    32
  0
VERTEX
  8
0
  5
4425
 10
699.099
 20
39.0101
 30
-8.66365e-15
  70
    32
  0
VERTEX
  8
0
  5
4426
 10
699.081
 20
39.0155
 30
-8.66539e-15
  70
    32
  0
VERTEX
  8
0
  5
4427
 10
699.063
 20
39.0210
 30
-8.66712e-15
  70
    32
  0
VERTEX
  8
0
  5
4428
 10
699.045
 20
39.0264
 30
-8.66883e-15
  70
    32
  0
VERTEX
  8
0
  5
4429
 10
699.028
 20
39.0320
 30
-8.67051e-15
  70
    32
  0
VERTEX
  8
0
  5
442A
 10
699.010
 20
39.0375
 30
-8.67217e-15
  70
    32
  0
VERTEX
  8
0
  5
442B
 10
698.992
 20
39.0431
 30
-8.67381e-15
  70
    32
  0
VERTEX
  8
0
  5
442C
 10
698.974
 20
39.0488
 30
-8.67541e-15
  70
    32
  0
VERTEX
  8
0
  5
442D
 10
698.957
 20
39.0544
 30
-8.67698e-15
  70
    32
  0
VERTEX
  8
0
  5
442E
 10
698.939
 20
39.0601
 30
-8.67852e-15
  70
    32
  0
VERTEX
  8
0
  5
442F
 10
698.922
 20
39.0659
 30
-8.68003e-15
  70
    32
  0
VERTEX
  8
0
  5
4430
 10
698.904
 20
39.0717
 30
-8.68150e-15
  70
    32
  0
VERTEX
  8
0
  5
4431
 10
698.886
 20
39.0775
 30
-8.68292e-15
  70
    32
  0
VERTEX
  8
0
  5
4432
 10
698.869
 20
39.0833
 30
-8.68431e-15
  70
    32
  0
VERTEX
  8
0
  5
4433
 10
698.851
 20
39.0892
 30
-8.68565e-15
  70
    32
  0
VERTEX
  8
0
  5
4434
 10
698.834
 20
39.0951
 30
-8.68695e-15
  70
    32
  0
VERTEX
  8
0
  5
4435
 10
698.816
 20
39.1011
 30
-8.68819e-15
  70
    32
  0
VERTEX
  8
0
  5
4436
 10
698.799
 20
39.1071
 30
-8.68939e-15
  70
    32
  0
VERTEX
  8
0
  5
4437
 10
698.781
 20
39.1131
 30
-8.69054e-15
  70
    32
  0
VERTEX
  8
0
  5
4438
 10
698.764
 20
39.1192
 30
-8.69163e-15
  70
    32
  0
VERTEX
  8
0
  5
4439
 10
698.746
 20
39.1253
 30
-8.69266e-15
  70
    32
  0
VERTEX
  8
0
  5
443A
 10
698.729
 20
39.1314
 30
-8.69364e-15
  70
    32
  0
VERTEX
  8
0
  5
443B
 10
698.711
 20
39.1376
 30
-8.69455e-15
  70
    32
  0
VERTEX
  8
0
  5
443C
 10
698.694
 20
39.1438
 30
-8.69540e-15
  70
    32
  0
VERTEX
  8
0
  5
443D
 10
698.677
 20
39.1501
 30
-8.69619e-15
  70
    32
  0
VERTEX
  8
0
  5
443E
 10
698.659
 20
39.1563
 30
-8.69691e-15
  70
    32
  0
VERTEX
  8
0
  5
443F
 10
698.642
 20
39.1627
 30
-8.69756e-15
  70
    32
  0
VERTEX
  8
0
  5
4440
 10
698.625
 20
39.1690
 30
-8.69813e-15
  70
    32
  0
VERTEX
  8
0
  5
4441
 10
698.607
 20
39.1754
 30
-8.69864e-15
  70
    32
  0
VERTEX
  8
0
  5
4442
 10
698.590
 20
39.1818
 30
-8.69907e-15
  70
    32
  0
VERTEX
  8
0
  5
4443
 10
698.573
 20
39.1883
 30
-8.69942e-15
  70
    32
  0
VERTEX
  8
0
  5
4444
 10
698.556
 20
39.1948
 30
-8.69969e-15
  70
    32
  0
VERTEX
  8
0
  5
4445
 10
698.538
 20
39.2013
 30
-8.69987e-15
  70
    32
  0
VERTEX
  8
0
  5
4446
 10
698.521
 20
39.2078
 30
-8.69998e-15
  70
    32
  0
VERTEX
  8
0
  5
4447
 10
698.504
 20
39.2144
 30
-8.70001e-15
  70
    32
  0
VERTEX
  8
0
  5
4448
 10
698.487
 20
39.2210
 30
-8.70015e-15
  70
    32
  0
VERTEX
  8
0
  5
4449
 10
698.470
 20
39.2277
 30
-8.70046e-15
  70
    32
  0
VERTEX
  8
0
  5
444A
 10
698.453
 20
39.2344
 30
-8.70093e-15
  70
    32
  0
VERTEX
  8
0
  5
444B
 10
698.436
 20
39.2411
 30
-8.70155e-15
  70
    32
  0
VERTEX
  8
0
  5
444C
 10
698.419
 20
39.2479
 30
-8.70233e-15
  70
    32
  0
VERTEX
  8
0
  5
444D
 10
698.402
 20
39.2547
 30
-8.70325e-15
  70
    32
  0
VERTEX
  8
0
  5
444E
 10
698.385
 20
39.2615
 30
-8.70431e-15
  70
    32
  0
VERTEX
  8
0
  5
444F
 10
698.368
 20
39.2684
 30
-8.70551e-15
  70
    32
  0
VERTEX
  8
0
  5
4450
 10
698.351
 20
39.2753
 30
-8.70682e-15
  70
    32
  0
VERTEX
  8
0
  5
4451
 10
698.334
 20
39.2822
 30
-8.70826e-15
  70
    32
  0
VERTEX
  8
0
  5
4452
 10
698.317
 20
39.2891
 30
-8.70982e-15
  70
    32
  0
VERTEX
  8
0
  5
4453
 10
698.300
 20
39.2961
 30
-8.71148e-15
  70
    32
  0
VERTEX
  8
0
  5
4454
 10
698.283
 20
39.3032
 30
-8.71324e-15
  70
    32
  0
VERTEX
  8
0
  5
4455
 10
698.266
 20
39.3102
 30
-8.71510e-15
  70
    32
  0
VERTEX
  8
0
  5
4456
 10
698.249
 20
39.3173
 30
-8.71705e-15
  70
    32
  0
VERTEX
  8
0
  5
4457
 10
698.233
 20
39.3244
 30
-8.71908e-15
  70
    32
  0
VERTEX
  8
0
  5
4458
 10
698.216
 20
39.3316
 30
-8.72119e-15
  70
    32
  0
VERTEX
  8
0
  5
4459
 10
698.199
 20
39.3388
 30
-8.72338e-15
  70
    32
  0
VERTEX
  8
0
  5
445A
 10
698.182
 20
39.3460
 30
-8.72562e-15
  70
    32
  0
VERTEX
  8
0
  5
445B
 10
698.166
 20
39.3532
 30
-8.72793e-15
  70
    32
  0
VERTEX
  8
0
  5
445C
 10
698.149
 20
39.3605
 30
-8.73029e-15
  70
    32
  0
VERTEX
  8
0
  5
445D
 10
698.132
 20
39.3678
 30
-8.73270e-15
  70
    32
  0
VERTEX
  8
0
  5
445E
 10
698.116
 20
39.3751
 30
-8.73515e-15
  70
    32
  0
VERTEX
  8
0
  5
445F
 10
698.099
 20
39.3825
 30
-8.73764e-15
  70
    32
  0
VERTEX
  8
0
  5
4460
 10
698.082
 20
39.3899
 30
-8.74015e-15
  70
    32
  0
VERTEX
  8
0
  5
4461
 10
698.066
 20
39.3973
 30
-8.74269e-15
  70
    32
  0
VERTEX
  8
0
  5
4462
 10
698.049
 20
39.4048
 30
-8.74525e-15
  70
    32
  0
VERTEX
  8
0
  5
4463
 10
698.033
 20
39.4123
 30
-8.74782e-15
  70
    32
  0
VERTEX
  8
0
  5
4464
 10
698.016
 20
39.4198
 30
-8.75039e-15
  70
    32
  0
VERTEX
  8
0
  5
4465
 10
698.000
 20
39.4274
 30
-8.75296e-15
  70
    32
  0
VERTEX
  8
0
  5
4466
 10
697.983
 20
39.4350
 30
-8.75552e-15
  70
    32
  0
VERTEX
  8
0
  5
4467
 10
697.967
 20
39.4426
 30
-8.75808e-15
  70
    32
  0
VERTEX
  8
0
  5
4468
 10
697.951
 20
39.4502
 30
-8.76061e-15
  70
    32
  0
VERTEX
  8
0
  5
4469
 10
697.934
 20
39.4579
 30
-8.76311e-15
  70
    32
  0
VERTEX
  8
0
  5
446A
 10
697.918
 20
39.4656
 30
-8.76559e-15
  70
    32
  0
VERTEX
  8
0
  5
446B
 10
697.902
 20
39.4733
 30
-8.76803e-15
  70
    32
  0
VERTEX
  8
0
  5
446C
 10
697.885
 20
39.4811
 30
-8.77042e-15
  70
    32
  0
VERTEX
  8
0
  5
446D
 10
697.869
 20
39.4888
 30
-8.77277e-15
  70
    32
  0
VERTEX
  8
0
  5
446E
 10
697.853
 20
39.4967
 30
-8.77506e-15
  70
    32
  0
VERTEX
  8
0
  5
446F
 10
697.837
 20
39.5045
 30
-8.77729e-15
  70
    32
  0
VERTEX
  8
0
  5
4470
 10
697.820
 20
39.5124
 30
-8.77945e-15
  70
    32
  0
VERTEX
  8
0
  5
4471
 10
697.804
 20
39.5203
 30
-8.78154e-15
  70
    32
  0
VERTEX
  8
0
  5
4472
 10
697.788
 20
39.5282
 30
-8.78355e-15
  70
    32
  0
VERTEX
  8
0
  5
4473
 10
697.772
 20
39.5362
 30
-8.78547e-15
  70
    32
  0
VERTEX
  8
0
  5
4474
 10
697.756
 20
39.5441
 30
-8.78730e-15
  70
    32
  0
VERTEX
  8
0
  5
4475
 10
697.740
 20
39.5521
 30
-8.78903e-15
  70
    32
  0
VERTEX
  8
0
  5
4476
 10
697.724
 20
39.5602
 30
-8.79066e-15
  70
    32
  0
VERTEX
  8
0
  5
4477
 10
697.708
 20
39.5682
 30
-8.79218e-15
  70
    32
  0
VERTEX
  8
0
  5
4478
 10
697.692
 20
39.5763
 30
-8.79359e-15
  70
    32
  0
VERTEX
  8
0
  5
4479
 10
697.676
 20
39.5845
 30
-8.79487e-15
  70
    32
  0
VERTEX
  8
0
  5
447A
 10
697.660
 20
39.5926
 30
-8.79602e-15
  70
    32
  0
VERTEX
  8
0
  5
447B
 10
697.644
 20
39.6008
 30
-8.79704e-15
  70
    32
  0
VERTEX
  8
0
  5
447C
 10
697.628
 20
39.6090
 30
-8.79792e-15
  70
    32
  0
VERTEX
  8
0
  5
447D
 10
697.612
 20
39.6172
 30
-8.79865e-15
  70
    32
  0
VERTEX
  8
0
  5
447E
 10
697.596
 20
39.6254
 30
-8.79923e-15
  70
    32
  0
VERTEX
  8
0
  5
447F
 10
697.581
 20
39.6337
 30
-8.79966e-15
  70
    32
  0
VERTEX
  8
0
  5
4480
 10
697.565
 20
39.6420
 30
-8.79991e-15
  70
    32
  0
VERTEX
  8
0
  5
4481
 10
697.549
 20
39.6503
 30
-8.80000e-15
  70
    32
  0
SEQEND
  8
0
  5
4482
  0
POLYLINE
  8
0
  5
4483
  66
     1
 10
0.000000
 20
0.000000
 30
0.000000
  70
     8
  0
VERTEX
  8
0
  5
4484
 10
604.592
 20
39.6503
 30
-8.80000e-15
  70
    32
  0
VERTEX
  8
0
  5
4485
 10
604.599
 20
39.6430
 30
-8.79993e-15
  70
    32
  0
VERTEX
  8
0
  5
4486
 10
604.606
 20
39.6358
 30
-8.79973e-15
  70
    32
  0
VERTEX
  8
0
  5
4487
 10
604.612
 20
39.6285
 30
-8.79941e-15
  70
    32
  0
VERTEX
  8
0
  5
4488
 10
604.619
 20
39.6213
 30
-8.79896e-15
  70
    32
  0
VERTEX
  8
0
  5
4489
 10
604.626
 20
39.6140
 30
-8.79839e-15
  70
    32
  0
VERTEX
  8
0
  5
448A
 10
604.632
 20
39.6068
 30
-8.79771e-15
  70
    32
  0
VERTEX
  8
0
  5
448B
 10
604.639
 20
39.5997
 30
-8.79691e-15
  70
    32
  0
VERTEX
  8
0
  5
448C
 10
604.646
 20
39.5925
 30
-8.79601e-15
  70
    32
  0
VERTEX
  8
0
  5
448D
 10
604.652
 20
39.5854
 30
-8.79500e-15
  70
    32
  0
VERTEX
  8
0
  5
448E
 10
604.659
 20
39.5782
 30
-8.79390e-15
  70
    32
  0
VERTEX
  8
0
  5
448F
 10
604.665
 20
39.5711
 30
-8.79270e-15
  70
    32
  0
VERTEX
  8
0
  5
4490
 10
604.672
 20
39.5641
 30
-8.79141e-15
  70
    32
  0
VERTEX
  8
0
  5
4491
 10
604.678
 20
39.5570
 30
-8.79003e-15
  70
    32
  0
VERTEX
  8
0
  5
4492
 10
604.685
 20
39.5500
 30
-8.78858e-15
  70
    32
  0
VERTEX
  8
0
  5
4493
 10
604.691
 20
39.5430
 30
-8.78704e-15
  70
    32
  0
VERTEX
  8
0
  5
4494
 10
604.698
 20
39.5360
 30
-8.78543e-15
  70
    32
  0
VERTEX
  8
0
  5
4495
 10
604.704
 20
39.5290
 30
-8.78374e-15
  70
    32
  0
VERTEX
  8
0
  5
4496
 10
604.711
 20
39.5220
 30
-8.78200e-15
  70
    32
  0
VERTEX
  8
0
  5
4497
 10
604.717
 20
39.5151
 30
-8.78018e-15
  70
    32
  0
VERTEX
  8
0
  5
4498
 10
604.723
 20
39.5082
 30
-8.77832e-15
  70
    32
  0
VERTEX
  8
0
  5
4499
 10
604.730
 20
39.5013
 30
-8.77639e-15
  70
    32
  0
VERTEX
  8
0
  5
449A
 10
604.736
 20
39.4944
 30
-8.77442e-15
  70
    32
  0
VERTEX
  8
0
  5
449B
 10
604.742
 20
39.4876
 30
-8.77240e-15
  70
    32
  0
VERTEX
  8
0
  5
449C
 10
604.749
 20
39.4808
 30
-8.77034e-15
  70
    32
  0
VERTEX
  8
0
  5
449D
 10
604.755
 20
39.4740
 30
-8.76824e-15
  70
    32
  0
VERTEX
  8
0
  5
449E
 10
604.761
 20
39.4672
 30
-8.76611e-15
  70
    32
  0
VERTEX
  8
0
  5
449F
 10
604.767
 20
39.4605
 30
-8.76395e-15
  70
    32
  0
VERTEX
  8
0
  5
44A0
 10
604.774
 20
39.4537
 30
-8.76176e-15
  70
    32
  0
VERTEX
  8
0
  5
44A1
 10
604.780
 20
39.4470
 30
-8.75955e-15
  70
    32
  0
VERTEX
  8
0
  5
44A2
 10
604.786
 20
39.4403
 30
-8.75733e-15
  70
    32
  0
VERTEX
  8
0
  5
44A3
 10
604.792
 20
39.4337
 30
-8.75509e-15
  70
    32
  0
VERTEX
  8
0
  5
44A4
 10
604.798
 20
39.4270
 30
-8.75284e-15
  70
    32
  0
VERTEX
  8
0
  5
44A5
 10
604.804
 20
39.4204
 30
-8.75058e-15
  70
    32
  0
VERTEX
  8
0
  5
44A6
 10
604.810
 20
39.4138
 30
-8.74833e-15
  70
    32
  0
VERTEX
  8
0
  5
44A7
 10
604.817
 20
39.4072
 30
-8.74608e-15
  70
    32
  0
VERTEX
  8
0
  5
44A8
 10
604.823
 20
39.4007
 30
-8.74383e-15
  70
    32
  0
VERTEX
  8
0
  5
44A9
 10
604.829
 20
39.3942
 30
-8.74160e-15
  70
    32
  0
VERTEX
  8
0
  5
44AA
 10
604.835
 20
39.3876
 30
-8.73938e-15
  70
    32
  0
VERTEX
  8
0
  5
44AB
 10
604.841
 20
39.3812
 30
-8.73718e-15
  70
    32
  0
VERTEX
  8
0
  5
44AC
 10
604.846
 20
39.3747
 30
-8.73501e-15
  70
    32
  0
VERTEX
  8
0
  5
44AD
 10
604.852
 20
39.3683
 30
-8.73286e-15
  70
    32
  0
VERTEX
  8
0
  5
44AE
 10
604.858
 20
39.3619
 30
-8.73074e-15
  70
    32
  0
VERTEX
  8
0
  5
44AF
 10
604.864
 20
39.3555
 30
-8.72866e-15
  70
    32
  0
VERTEX
  8
0
  5
44B0
 10
604.870
 20
39.3491
 30
-8.72662e-15
  70
    32
  0
VERTEX
  8
0
  5
44B1
 10
604.876
 20
39.3428
 30
-8.72462e-15
  70
    32
  0
VERTEX
  8
0
  5
44B2
 10
604.882
 20
39.3365
 30
-8.72268e-15
  70
    32
  0
VERTEX
  8
0
  5
44B3
 10
604.887
 20
39.3302
 30
-8.72078e-15
  70
    32
  0
VERTEX
  8
0
  5
44B4
 10
604.893
 20
39.3239
 30
-8.71894e-15
  70
    32
  0
VERTEX
  8
0
  5
44B5
 10
604.899
 20
39.3177
 30
-8.71715e-15
  70
    32
  0
VERTEX
  8
0
  5
44B6
 10
604.905
 20
39.3115
 30
-8.71544e-15
  70
    32
  0
VERTEX
  8
0
  5
44B7
 10
604.910
 20
39.3053
 30
-8.71379e-15
  70
    32
  0
VERTEX
  8
0
  5
44B8
 10
604.916
 20
39.2991
 30
-8.71221e-15
  70
    32
  0
VERTEX
  8
0
  5
44B9
 10
604.922
 20
39.2930
 30
-8.71071e-15
  70
    32
  0
VERTEX
  8
0
  5
44BA
 10
604.927
 20
39.2869
 30
-8.70929e-15
  70
    32
  0
VERTEX
  8
0
  5
44BB
 10
604.933
 20
39.2808
 30
-8.70796e-15
  70
    32
  0
VERTEX
  8
0
  5
44BC
 10
604.939
 20
39.2747
 30
-8.70671e-15
  70
    32
  0
VERTEX
  8
0
  5
44BD
 10
604.944
 20
39.2687
 30
-8.70556e-15
  70
    32
  0
VERTEX
  8
0
  5
44BE
 10
604.950
 20
39.2626
 30
-8.70450e-15
  70
    32
  0
VERTEX
  8
0
  5
44BF
 10
604.955
 20
39.2566
 30
-8.70354e-15
  70
    32
  0
VERTEX
  8
0
  5
44C0
 10
604.961
 20
39.2507
 30
-8.70269e-15
  70
    32
  0
VERTEX
  8
0
  5
44C1
 10
604.966
 20
39.2447
 30
-8.70195e-15
  70
    32
  0
VERTEX
  8
0
  5
44C2
 10
604.972
 20
39.2388
 30
-8.70132e-15
  70
    32
  0
VERTEX
  8
0
  5
44C3
 10
604.977
 20
39.2329
 30
-8.70081e-15
  70
    32
  0
VERTEX
  8
0
  5
44C4
 10
604.982
 20
39.2271
 30
-8.70042e-15
  70
    32
  0
VERTEX
  8
0
  5
44C5
 10
604.988
 20
39.2212
 30
-8.70015e-15
  70
    32
  0
VERTEX
  8
0
  5
44C6
 10
604.993
 20
39.2154
 30
-8.70002e-15
  70
    32
  0
VERTEX
  8
0
  5
44C7
 10
604.998
 20
39.2097
 30
-8.69999e-15
  70
    32
  0
VERTEX
  8
0
  5
44C8
 10
605.004
 20
39.2039
 30
-8.69993e-15
  70
    32
  0
VERTEX
  8
0
  5
44C9
 10
605.009
 20
39.1982
 30
-8.69980e-15
  70
    32
  0
VERTEX
  8
0
  5
44CA
 10
605.014
 20
39.1925
 30
-8.69960e-15
  70
    32
  0
VERTEX
  8
0
  5
44CB
 10
605.019
 20
39.1868
 30
-8.69934e-15
  70
    32
  0
VERTEX
  8
0
  5
44CC
 10
605.025
 20
39.1811
 30
-8.69902e-15
  70
    32
  0
VERTEX
  8
0
  5
44CD
 10
605.030
 20
39.1755
 30
-8.69865e-15
  70
    32
  0
VERTEX
  8
0
  5
44CE
 10
605.035
 20
39.1699
 30
-8.69821e-15
  70
    32
  0
VERTEX
  8
0
  5
44CF
 10
605.040
 20
39.1643
 30
-8.69772e-15
  70
    32
  0
VERTEX
  8
0
  5
44D0
 10
605.045
 20
39.1588
 30
-8.69717e-15
  70
    32
  0
VERTEX
  8
0
  5
44D1
 10
605.050
 20
39.1533
 30
-8.69656e-15
  70
    32
  0
VERTEX
  8
0
  5
44D2
 10
605.055
 20
39.1478
 30
-8.69591e-15
  70
    32
  0
VERTEX
  8
0
  5
44D3
 10
605.060
 20
39.1423
 30
-8.69520e-15
  70
    32
  0
VERTEX
  8
0
  5
44D4
 10
605.065
 20
39.1369
 30
-8.69445e-15
  70
    32
  0
VERTEX
  8
0
  5
44D5
 10
605.070
 20
39.1315
 30
-8.69364e-15
  70
    32
  0
VERTEX
  8
0
  5
44D6
 10
605.075
 20
39.1261
 30
-8.69279e-15
  70
    32
  0
VERTEX
  8
0
  5
44D7
 10
605.080
 20
39.1207
 30
-8.69189e-15
  70
    32
  0
VERTEX
  8
0
  5
44D8
 10
605.085
 20
39.1154
 30
-8.69095e-15
  70
    32
  0
VERTEX
  8
0
  5
44D9
 10
605.090
 20
39.1101
 30
-8.68997e-15
  70
    32
  0
VERTEX
  8
0
  5
44DA
 10
605.095
 20
39.1048
 30
-8.68895e-15
  70
    32
  0
VERTEX
  8
0
  5
44DB
 10
605.100
 20
39.0996
 30
-8.68788e-15
  70
    32
  0
VERTEX
  8
0
  5
44DC
 10
605.104
 20
39.0944
 30
-8.68678e-15
  70
    32
  0
VERTEX
  8
0
  5
44DD
 10
605.109
 20
39.0892
 30
-8.68564e-15
  70
    32
  0
VERTEX
  8
0
  5
44DE
 10
605.114
 20
39.0840
 30
-8.68447e-15
  70
    32
  0
VERTEX
  8
0
  5
44DF
 10
605.119
 20
39.0789
 30
-8.68326e-15
  70
    32
  0
VERTEX
  8
0
  5
44E0
 10
605.123
 20
39.0738
 30
-8.68202e-15
  70
    32
  0
VERTEX
  8
0
  5
44E1
 10
605.128
 20
39.0687
 30
-8.68075e-15
  70
    32
  0
VERTEX
  8
0
  5
44E2
 10
605.133
 20
39.0636
 30
-8.67945e-15
  70
    32
  0
VERTEX
  8
0
  5
44E3
 10
605.137
 20
39.0586
 30
-8.67812e-15
  70
    32
  0
VERTEX
  8
0
  5
44E4
 10
605.142
 20
39.0536
 30
-8.67676e-15
  70
    32
  0
VERTEX
  8
0
  5
44E5
 10
605.146
 20
39.0487
 30
-8.67538e-15
  70
    32
  0
VERTEX
  8
0
  5
44E6
 10
605.151
 20
39.0437
 30
-8.67398e-15
  70
    32
  0
VERTEX
  8
0
  5
44E7
 10
605.155
 20
39.0388
 30
-8.67255e-15
  70
    32
  0
VERTEX
  8
0
  5
44E8
 10
605.160
 20
39.0339
 30
-8.67110e-15
  70
    32
  0
VERTEX
  8
0
  5
44E9
 10
605.164
 20
39.0291
 30
-8.66963e-15
  70
    32
  0
VERTEX
  8
0
  5
44EA
 10
605.169
 20
39.0242
 30
-8.66815e-15
  70
    32
  0
VERTEX
  8
0
  5
44EB
 10
605.173
 20
39.0194
 30
-8.66665e-15
  70
    32
  0
VERTEX
  8
0
  5
44EC
 10
605.178
 20
39.0147
 30
-8.66513e-15
  70
    32
  0
VERTEX
  8
0
  5
44ED
 10
605.182
 20
39.0099
 30
-8.66360e-15
  70
    32
  0
VERTEX
  8
0
  5
44EE
 10
605.186
 20
39.0052
 30
-8.66205e-15
  70
    32
  0
VERTEX
  8
0
  5
44EF
 10
605.191
 20
39.0005
 30
-8.66050e-15
  70
    32
  0
VERTEX
  8
0
  5
44F0
 10
605.195
 20
38.9959
 30
-8.65893e-15
  70
    32
  0
VERTEX
  8
0
  5
44F1
 10
605.199
 20
38.9913
 30
-8.65736e-15
  70
    32
  0
VERTEX
  8
0
  5
44F2
 10
605.203
 20
38.9867
 30
-8.65578e-15
  70
    32
  0
VERTEX
  8
0
  5
44F3
 10
605.207
 20
38.9821
 30
-8.65420e-15
  70
    32
  0
VERTEX
  8
0
  5
44F4
 10
605.212
 20
38.9776
 30
-8.65261e-15
  70
    32
  0
VERTEX
  8
0
  5
44F5
 10
605.216
 20
38.9731
 30
-8.65102e-15
  70
    32
  0
VERTEX
  8
0
  5
44F6
 10
605.220
 20
38.9686
 30
-8.64943e-15
  70
    32
  0
VERTEX
  8
0
  5
44F7
 10
605.224
 20
38.9641
 30
-8.64783e-15
  70
    32
  0
VERTEX
  8
0
  5
44F8
 10
605.228
 20
38.9597
 30
-8.64625e-15
  70
    32
  0
VERTEX
  8
0
  5
44F9
 10
605.232
 20
38.9553
 30
-8.64466e-15
  70
    32
  0
VERTEX
  8
0
  5
44FA
 10
605.236
 20
38.9510
 30
-8.64308e-15
  70
    32
  0
VERTEX
  8
0
  5
44FB
 10
605.240
 20
38.9466
 30
-8.64150e-15
  70
    32
  0
VERTEX
  8
0
  5
44FC
 10
605.244
 20
38.9423
 30
-8.63994e-15
  70
    32
  0
VERTEX
  8
0
  5
44FD
 10
605.248
 20
38.9380
 30
-8.63838e-15
  70
    32
  0
VERTEX
  8
0
  5
44FE
 10
605.252
 20
38.9338
 30
-8.63683e-15
  70
    32
  0
VERTEX
  8
0
  5
44FF
 10
605.256
 20
38.9296
 30
-8.63530e-15
  70
    32
  0
VERTEX
  8
0
  5
4500
 10
605.259
 20
38.9254
 30
-8.63377e-15
  70
    32
  0
VERTEX
  8
0
  5
4501
 10
605.263
 20
38.9212
 30
-8.63227e-15
  70
    32
  0
VERTEX
  8
0
  5
4502
 10
605.267
 20
38.9171
 30
-8.63078e-15
  70
    32
  0
VERTEX
  8
0
  5
4503
 10
605.271
 20
38.9130
 30
-8.62930e-15
  70
    32
  0
VERTEX
  8
0
  5
4504
 10
605.274
 20
38.9090
 30
-8.62785e-15
  70
    32
  0
VERTEX
  8
0
  5
4505
 10
605.278
 20
38.9049
 30
-8.62642e-15
  70
    32
  0
VERTEX
  8
0
  5
4506
 10
605.282
 20
38.9009
 30
-8.62501e-15
  70
    32
  0
VERTEX
  8
0
  5
4507
 10
605.286
 20
38.8970
 30
-8.62362e-15
  70
    32
  0
VERTEX
  8
0
  5
4508
 10
605.289
 20
38.8930
 30
-8.62225e-15
  70
    32
  0
VERTEX
  8
0
  5
4509
 10
605.293
 20
38.8891
 30
-8.62092e-15
  70
    32
  0
VERTEX
  8
0
  5
450A
 10
605.296
 20
38.8852
 30
-8.61961e-15
  70
    32
  0
VERTEX
  8
0
  5
450B
 10
605.300
 20
38.8814
 30
-8.61833e-15
  70
    32
  0
VERTEX
  8
0
  5
450C
 10
605.303
 20
38.8775
 30
-8.61708e-15
  70
    32
  0
VERTEX
  8
0
  5
450D
 10
605.307
 20
38.8737
 30
-8.61586e-15
  70
    32
  0
VERTEX
  8
0
  5
450E
 10
605.310
 20
38.8700
 30
-8.61468e-15
  70
    32
  0
VERTEX
  8
0
  5
450F
 10
605.314
 20
38.8663
 30
-8.61353e-15
  70
    32
  0
VERTEX
  8
0
  5
4510
 10
605.317
 20
38.8626
 30
-8.61242e-15
  70
    32
  0
VERTEX
  8
0
  5
4511
 10
605.320
 20
38.8589
 30
-8.61134e-15
  70
    32
  0
VERTEX
  8
0
  5
4512
 10
605.324
 20
38.8553
 30
-8.61031e-15
  70
    32
  0
VERTEX
  8
0
  5
4513
 10
605.327
 20
38.8516
 30
-8.60932e-15
  70
    32
  0
VERTEX
  8
0
  5
4514
 10
605.330
 20
38.8481
 30
-8.60836e-15
  70
    32
  0
VERTEX
  8
0
  5
4515
 10
605.334
 20
38.8445
 30
-8.60745e-15
  70
    32
  0
VERTEX
  8
0
  5
4516
 10
605.337
 20
38.8410
 30
-8.60659e-15
  70
    32
  0
VERTEX
  8
0
  5
4517
 10
605.340
 20
38.8375
 30
-8.60577e-15
  70
    32
  0
VERTEX
  8
0
  5
4518
 10
605.343
 20
38.8341
 30
-8.60500e-15
  70
    32
  0
VERTEX
  8
0
  5
4519
 10
605.346
 20
38.8307
 30
-8.60428e-15
  70
    32
  0
VERTEX
  8
0
  5
451A
 10
605.349
 20
38.8273
 30
-8.60361e-15
  70
    32
  0
VERTEX
  8
0
  5
451B
 10
605.352
 20
38.8239
 30
-8.60300e-15
  70
    32
  0
VERTEX
  8
0
  5
451C
 10
605.355
 20
38.8206
 30
-8.60243e-15
  70
    32
  0
VERTEX
  8
0
  5
451D
 10
605.358
 20
38.8173
 30
-8.60192e-15
  70
    32
  0
VERTEX
  8
0
  5
451E
 10
605.361
 20
38.8141
 30
-8.60147e-15
  70
    32
  0
VERTEX
  8
0
  5
451F
 10
605.364
 20
38.8108
 30
-8.60107e-15
  70
    32
  0
VERTEX
  8
0
  5
4520
 10
605.367
 20
38.8076
 30
-8.60074e-15
  70
    32
  0
VERTEX
  8
0
  5
4521
 10
605.370
 20
38.8045
 30
-8.60046e-15
  70
    32
  0
VERTEX
  8
0
  5
4522
 10
605.373
 20
38.8013
 30
-8.60025e-15
  70
    32
  0
VERTEX
  8
0
  5
4523
 10
605.376
 20
38.7982
 30
-8.60010e-15
  70
    32
  0
VERTEX
  8
0
  5
4524
 10
605.379
 20
38.7952
 30
-8.60002e-15
  70
    32
  0
VERTEX
  8
0
  5
4525
 10
605.382
 20
38.7921
 30
-8.60000e-15
  70
    32
  0
VERTEX
  8
0
  5
4526
 10
605.384
 20
38.7891
 30
-8.60000e-15
  70
    32
  0
VERTEX
  8
0
  5
4527
 10
605.387
 20
38.7861
 30
-8.60000e-15
  70
    32
  0
VERTEX
  8
0
  5
4528
 10
605.390
 20
38.7832
 30
-8.60000e-15
  70
    32
  0
VERTEX
  8
0
  5
4529
 10
605.392
 20
38.7803
 30
-8.60000e-15
  70
    32
  0
VERTEX
  8
0
  5
452A
 10
605.395
 20
38.7774
 30
-8.60000e-15
  70
    32
  0
VERTEX
  8
0
  5
452B
 10
605.398
 20
38.7746
 30
-8.60000e-15
  70
    32
  0
VERTEX
  8
0
  5
452C
 10
605.400
 20
38.7718
 30
-8.60000e-15
  70
    32
  0
VERTEX
  8
0
  5
452D
 10
605.403
 20
38.7690
 30
-8.60000e-15
  70
    32
  0
VERTEX
  8
0
  5
452E
 10
605.405
 20
38.7662
 30
-8.60000e-15
  70
    32
  0
VERTEX
  8
0
  5
452F
 10
605.408
 20
38.7635
 30
-8.60000e-15
  70
    32
  0
VERTEX
  8
0
  5
4530
 10
605.410
 20
38.7608
 30
-8.60000e-15
  70
    32
  0
VERTEX
  8
0
  5
4531
 10
605.413
 20
38.7582
 30
-8.60000e-15
  70
    32
  0
VERTEX
  8
0
  5
4532
 10
605.415
 20
38.7556
 30
-8.60000e-15
  70
    32
  0
VERTEX
  8
0
  5
4533
 10
605.417
 20
38.7530
 30
-8.60000e-15
  70
    32
  0
VERTEX
  8
0
  5
4534
 10
605.420
 20
38.7504
 30
-8.60000e-15
  70
    32
  0
VERTEX
  8
0
  5
4535
 10
605.422
 20
38.7479
 30
-8.60000e-15
  70
    32
  0
VERTEX
  8
0
  5
4536
 10
605.424
 20
38.7454
 30
-8.60000e-15
  70
    32
  0
VERTEX
  8
0
  5
4537
 10
605.427
 20
38.7430
 30
-8.60000e-15
  70
    32
  0
VERTEX
  8
0
  5
4538
 10
605.429
 20
38.7405
 30
-8.60000e-15
  70
    32
  0
VERTEX
  8
0
  5
4539
 10
605.431
 20
38.7382
 30
-8.60000e-15
  70
    32
  0
VERTEX
  8
0
  5
453A
 10
605.433
 20
38.7358
 30
-8.60000e-15
  70
    32
  0
VERTEX
  8
0
  5
453B
 10
605.435
 20
38.7335
 30
-8.60000e-15
  70
    32
  0
VERTEX
  8
0
  5
453C
 10
605.437
 20
38.7312
 30
-8.60000e-15
  70
    32
  0
VERTEX
  8
0
  5
453D
 10
605.439
 20
38.7289
 30
-8.60000e-15
  70
    32
  0
VERTEX
  8
0
  5
453E
 10
605.441
 20
38.7267
 30
-8.60000e-15
  70
    32
  0
VERTEX
  8
0
  5
453F
 10
605.443
 20
38.7245
 30
-8.60000e-15
  70
    32
  0
VERTEX
  8
0
  5
4540
 10
605.445
 20
38.7223
 30
-8.60000e-15
  70
    32
  0
VERTEX
  8
0
  5
4541
 10
605.447
 20
38.7202
 30
-8.60000e-15
  70
    32
  0
VERTEX
  8
0
  5
4542
 10
605.449
 20
38.7181
 30
-8.60000e-15
  70
    32
  0
VERTEX
  8
0
  5
4543
 10
605.451
 20
38.7160
 30
-8.60000e-15
  70
    32
  0
VERTEX
  8
0
  5
4544
 10
605.453
 20
38.7140
 30
-8.60000e-15
  70
    32
  0
VERTEX
  8
0
  5
4545
 10
605.455
 20
38.7120
 30
-8.60000e-15
  70
    32
  0
VERTEX
  8
0
  5
4546
 10
605.457
 20
38.7100
 30
-8.60000e-15
  70
    32
  0
VERTEX
  8
0
  5
4547
 10
605.458
 20
38.7081
 30
-8.60000e-15
  70
    32
  0
VERTEX
  8
0
  5
4548
 10
605.460
 20
38.7061
 30
-8.60000e-15
  70
    32
  0
VERTEX
  8
0
  5
4549
 10
605.462
 20
38.7043
 30
-8.60000e-15
  70
    32
  0
VERTEX
  8
0
  5
454A
 10
605.464
 20
38.7024
 30
-8.60000e-15
  70
    32
  0
VERTEX
  8
0
  5
454B
 10
605.465
 20
38.7006
 30
-8.60000e-15
  70
    32
  0
VERTEX
  8
0
  5
454C
 10
605.467
 20
38.6988
 30
-8.60000e-15
  70
    32
  0
VERTEX
  8
0
  5
454D
 10
605.469
 20
38.6971
 30
-8.60000e-15
  70
    32
  0
VERTEX
  8
0
  5
454E
 10
605.470
 20
38.6954
 30
-8.60000e-15
  70
    32
  0
VERTEX
  8
0
  5
454F
 10
605.472
 20
38.6937
 30
-8.60000e-15
  70
    32
  0
VERTEX
  8
0
  5
4550
 10
605.473
 20
38.6920
 30
-8.60000e-15
  70
    32
  0
VERTEX
  8
0
  5
4551
 10
605.475
 20
38.6904
 30
-8.60000e-15
  70
    32
  0
VERTEX
  8
0
  5
4552
 10
605.476
 20
38.6888
 30
-8.60000e-15
  70
    32
  0
VERTEX
  8
0
  5
4553
 10
605.478
 20
38.6873
 30
-8.60000e-15
  70
    32
  0
VERTEX
  8
0
  5
4554
 10
605.479
 20
38.6857
 30
-8.60000e-15
  70
    32
  0
VERTEX
  8
0
  5
4555
 10
605.480
 20
38.6842
 30
-8.60000e-15
  70
    32
  0
VERTEX
  8
0
  5
4556
 10
605.482
 20
38.6828
 30
-8.60000e-15
  70
    32
  0
VERTEX
  8
0
  5
4557
 10
605.483
 20
38.6814
 30
-8.60000e-15
  70
    32
  0
VERTEX
  8
0
  5
4558
 10
605.484
 20
38.6800
 30
-8.60000e-15
  70
    32
  0
VERTEX
  8
0
  5
4559
 10
605.485
 20
38.6786
 30
-8.60000e-15
  70
    32
  0
VERTEX
  8
0
  5
455A
 10
605.487
 20
38.6773
 30
-8.60000e-15
  70
    32
  0
VERTEX
  8
0
  5
455B
 10
605.488
 20
38.6760
 30
-8.60000e-15
  70
    32
  0
VERTEX
  8
0
  5
455C
 10
605.489
 20
38.6747
 30
-8.60000e-15
  70
    32
  0
VERTEX
  8
0
  5
455D
 10
605.490
 20
38.6735
 30
-8.60000e-15
  70
    32
  0
VERTEX
  8
0
  5
455E
 10
605.491
 20
38.6723
 30
-8.60000e-15
  70
    32
  0
VERTEX
  8
0
  5
455F
 10
605.492
 20
38.6711
 30
-8.60000e-15
  70
    32
  0
VERTEX
  8
0
  5
4560
 10
605.493
 20
38.6700
 30
-8.60000e-15
  70
    32
  0
VERTEX
  8
0
  5
4561
 10
605.494
 20
38.6689
 30
-8.60000e-15
  70
    32
  0
VERTEX
  8
0
  5
4562
 10
605.495
 20
38.6678
 30
-8.60000e-15
  70
    32
  0
VERTEX
  8
0
  5
4563
 10
605.496
 20
38.6667
 30
-8.60000e-15
  70
    32
  0
VERTEX
  8
0
  5
4564
 10
605.497
 20
38.6657
 30
-8.60000e-15
  70
    32
  0
VERTEX
  8
0
  5
4565
 10
605.498
 20
38.6648
 30
-8.60000e-15
  70
    32
  0
VERTEX
  8
0
  5
4566
 10
605.499
 20
38.6638
 30
-8.60000e-15
  70
    32
  0
VERTEX
  8
0
  5
4567
 10
605.500
 20
38.6629
 30
-8.60000e-15
  70
    32
  0
VERTEX
  8
0
  5
4568
 10
605.501
 20
38.6620
 30
-8.60000e-15
  70
    32
  0
VERTEX
  8
0
  5
4569
 10
605.501
 20
38.6612
 30
-8.60000e-15
  70
    32
  0
VERTEX
  8
0
  5
456A
 10
605.502
 20
38.6604
 30
-8.60000e-15
  70
    32
  0
VERTEX
  8
0
  5
456B
 10
605.503
 20
38.6596
 30
-8.60000e-15
  70
    32
  0
VERTEX
  8
0
  5
456C
 10
605.504
 20
38.6588
 30
-8.60000e-15
  70
    32
  0
VERTEX
  8
0
  5
456D
 10
605.504
 20
38.6581
 30
-8.60000e-15
  70
    32
  0
VERTEX
  8
0
  5
456E
 10
605.505
 20
38.6574
 30
-8.60000e-15
  70
    32
  0
VERTEX
  8
0
  5
456F
 10
605.505
 20
38.6568
 30
-8.60000e-15
  70
    32
  0
VERTEX
  8
0
  5
4570
 10
605.506
 20
38.6561
 30
-8.60000e-15
  70
    32
  0
VERTEX
  8
0
  5
4571
 10
605.507
 20
38.6555
 30
-8.60000e-15
  70
    32
  0
VERTEX
  8
0
  5
4572
 10
605.507
 20
38.6550
 30
-8.60000e-15
  70
    32
  0
VERTEX
  8
0
  5
4573
 10
605.508
 20
38.6544
 30
-8.60000e-15
  70
    32
  0
VERTEX
  8
0
  5
4574
 10
605.508
 20
38.6539
 30
-8.60000e-15
  70
    32
  0
VERTEX
  8
0
  5
4575
 10
605.508
 20
38.6535
 30
-8.60000e-15
  70
    32
  0
VERTEX
  8
0
  5
4576
 10
605.509
 20
38.6531
 30
-8.60000e-15
  70
    32
  0
VERTEX
  8
0
  5
4577
 10
605.509
 20
38.6527
 30
-8.60000e-15
  70
    32
  0
VERTEX
  8
0
  5
4578
 10
605.509
 20
38.6523
 30
-8.60000e-15
  70
    32
  0
VERTEX
  8
0
  5
4579
 10
605.510
 20
38.6519
 30
-8.60000e-15
  70
    32
  0
VERTEX
  8
0
  5
457A
 10
605.510
 20
38.6516
 30
-8.60000e-15
  70
    32
  0
VERTEX
  8
0
  5
457B
 10
605.510
 20
38.6514
 30
-8.60000e-15
  70
    32
  0
VERTEX
  8
0
  5
457C
 10
605.511
 20
38.6511
 30
-8.60000e-15
  70
    32
  0
VERTEX
  8
0
  5
457D
 10
605.511
 20
38.6509
 30
-8.60000e-15
  70
    32
  0
VERTEX
  8
0
  5
457E
 10
605.511
 20
38.6507
 30
-8.60000e-15
  70
    32
  0
VERTEX
  8
0
  5
457F
 10
605.511
 20
38.6506
 30
-8.60000e-15
  70
    32
  0
VERTEX
  8
0
  5
4580
 10
605.511
 20
38.6505
 30
-8.60000e-15
  70
    32
  0
VERTEX
  8
0
  5
4581
 10
605.511
 20
38.6504
 30
-8.60000e-15
  70
    32
  0
VERTEX
  8
0
  5
4582
 10
605.511
 20
38.6504
 30
-8.60000e-15
  70
    32
  0
VERTEX
  8
0
  5
4583
 10
605.511
 20
38.6503
 30
-8.60000e-15
  70
    32
  0
SEQEND
  8
0
  5
4584
  0
LINE
  5
3DA0
  8
0
 10
607.5112652587621369
 20
36.6503471930877893
 30
-0.0000000000000081
 11
795.5112652587621369
 21
36.6503471930875619
 31
-0.0000000000000081
210
0.0
220
1.0
230
-0.0000000000000002
  0
LINE
  5
3DA1
  8
0
 10
631.6612652587620005
 20
79.6503471930876827
 30
-0.0000000000000177
 11
771.3612652587621596
 21
79.6503471930874554
 31
-0.0000000000000177
210
0.0
220
1.0
230
-0.0000000000000002
  0
LINE
  5
3DA2
  8
0
 10
631.6612652587622279
 20
91.6503471930877396
 30
-0.0000000000000204
 11
771.3612652587621596
 21
91.6503471930875122
 31
-0.0000000000000204
210
0.0
220
1.0
230
-0.0000000000000002
  0
LINE
  5
3DA3
  8
0
 10
576.5112652587621369
 20
58.6503471930880167
 30
-0.000000000000013
 11
826.5112652587621369
 21
58.6503471930875691
 31
-0.000000000000013
210
0.0
220
1.0
230
-0.0000000000000002
  0
LINE
  5
3DA4
  8
0
 10
576.5112652587621369
 20
39.6503471930879101
 30
-0.0000000000000088
 11
826.5112652587621369
 21
39.6503471930875619
 31
-0.0000000000000088
210
0.0
220
1.0
230
-0.0000000000000002
  0
LINE
  5
3DA5
  8
0
 10
607.5112652587621369
 20
36.6503471930878035
 30
-0.0000000000000081
 11
605.5112652587621369
 21
38.6503471930878106
 31
-0.0000000000000086
210
0.0
220
1.0
230
-0.0000000000000002
  0
LINE
  5
3DA6
  8
0
 10
795.5112652587621369
 20
36.6503471930875477
 30
-0.0000000000000081
 11
797.5112652587621369
 21
38.6503471930875619
 31
-0.0000000000000086
210
0.0
220
1.0
230
-0.0000000000000002
  0
LINE
  5
3DA7
  8
0
 10
771.3612652587621596
 20
91.6503471930875122
 30
-0.0000000000000204
 11
771.3612652587621596
 21
79.6503471930874554
 31
-0.0000000000000177
210
0.0
220
1.0
230
-0.0000000000000002
  0
LINE
  5
3DA8
  8
0
 10
631.6612652587622279
 20
91.6503471930877254
 30
-0.0000000000000204
 11
631.6612652587622279
 21
79.6503471930876685
 31
-0.0000000000000177
210
0.0
220
1.0
230
-0.0000000000000002
  0
LINE
  5
3DA9
  8
0
 10
771.361265258762046
 20
79.6503471930874269
 30
-0.0000000000000177
 11
777.5298170379546718
 21
63.7559192957817373
 31
-0.0000000000000142
210
0.0
220
1.0
230
-0.0000000000000002
  0
LINE
  5
3DAA
  8
0
 10
631.6612652587621142
 20
79.6503471930876685
 30
-0.0000000000000177
 11
625.4927134795694883
 21
63.7559192957820073
 31
-0.0000000000000142
210
0.0
220
1.0
230
-0.0000000000000002
  0
ARC
  5
3DAB
  8
0
 10
-618.0346784067572798
 20
66.6503471930877112
 30
0.0
 40
7.9999999999999138
210
0.0
220
-0.0000000000000002
230
-1.0
 50
201.2109957240523102
 51
270.0000000000007958
  0
ARC
  5
3DAC
  8
0
 10
-784.9878521107668803
 20
66.6503471930874838
 30
0.0
 40
7.9999999999998863
210
0.0
220
-0.0000000000000002
230
-1.0
 50
270.0
 51
338.789004275948173
  0
LINE
  5
3DAD
  8
0
 10
826.5112652587621369
 20
58.6503471930875691
 30
-0.000000000000013
 11
826.5112652587621369
 21
39.6503471930875619
 31
-0.0000000000000088
210
0.0
220
1.0
230
-0.0000000000000002
  0
LINE
  5
3DAE
  8
0
 10
576.5112652587621369
 20
58.6503471930879101
 30
-0.000000000000013
 11
576.5112652587621369
 21
39.6503471930879101
 31
-0.0000000000000088
210
0.0
220
1.0
230
-0.0000000000000002
  0
LINE
  5
3DAF
  8
0
 10
629.3045094208371211
 20
191.650347193087697
 30
-0.0000000000000426
 11
773.7180210966872664
 21
191.650347193087697
 31
-0.0000000000000426
210
0.0
220
1.0
230
-0.0000000000000002
  0
LINE
  5
3DB0
  8
0
 10
773.7180210966872664
 20
191.6503471930876117
 30
-0.0000000000000426
 11
774.2473449763444933
 21
190.5152084699716113
 31
-0.0000000000000423
210
0.0
220
1.0
230
-0.0000000000000002
  0
LINE
  5
3DB1
  8
0
 10
629.3045094208371211
 20
191.6503471930876117
 30
-0.0000000000000426
 11
628.7751855411800079
 21
190.5152084699716113
 31
-0.0000000000000423
210
0.0
220
1.0
230
-0.0000000000000002
  0
ARC
  5
3DB2
  8
0
 10
-655.5112652587647517
 20
178.0479697486229043
 30
0.0
 40
29.5000000000025011
210
0.0
220
-0.0000000000000002
230
-1.0
 50
0.0000000000008269
 51
24.9999999999934914
  0
ARC
  5
3DB3
  8
0
 10
-747.5112652587597495
 20
178.0479697486229043
 30
0.0
 40
29.5000000000025011
210
0.0
220
-0.0000000000000002
230
-1.0
 50
155.0000000000065086
 51
179.9999999999992042
  0
LINE
  5
3DB4
  8
0
 10
777.0112652587622506
 20
178.0479697486233022
 30
-0.0000000000000395
 11
777.0112652587622506
 21
168.9413471930876085
 31
-0.0000000000000375
210
0.0
220
1.0
230
-0.0000000000000002
  0
LINE
  5
3DB5
  8
0
 10
626.0112652587622506
 20
178.0479697486233022
 30
-0.0000000000000395
 11
626.0112652587622506
 21
168.9413471930876085
 31
-0.0000000000000375
210
0.0
220
1.0
230
-0.0000000000000002
  0
ARC
  5
3DB6
  8
0
 10
-655.511265258762819
 20
168.9413471930876085
 30
0.0
 40
29.5000000000005613
210
0.0
220
-0.0000000000000002
230
-1.0
 50
334.8424305617850791
 51
0.0
  0
ARC
  5
3DB7
  8
0
 10
-747.5112652587616822
 20
168.9413471930876085
 30
0.0
 40
29.5000000000005684
210
0.0
220
-0.0000000000000002
230
-1.0
 50
180.0
 51
205.1575694382148924
  0
ARC
  5
3DB8
  8
0
 10
-612.0112652587654338
 20
148.6503471930884075
 30
0.0
 40
18.4999999999968097
210
0.0
220
-0.0000000000000002
230
-1.0
 50
155.2326868181222039
 51
180.0000000000023022
  0
ARC
  5
3DB9
  8
0
 10
-791.0112652587590674
 20
148.6503471930882938
 30
0.0
 40
18.4999999999969305
210
0.0
220
-0.0000000000000002
230
-1.0
 50
359.9999999999976126
 51
24.7673131818776717
  0
LINE
  5
3DBA
  8
0
 10
772.5112652587622506
 20
148.6503471930876117
 30
-0.000000000000033
 11
772.5112652587622506
 21
125.1190666157581006
 31
-0.0000000000000278
210
0.0
220
1.0
230
-0.0000000000000002
  0
LINE
  5
3DBB
  8
0
 10
630.5112652587622506
 20
148.6503471930876117
 30
-0.000000000000033
 11
630.5112652587622506
 21
125.1190666157581006
 31
-0.0000000000000278
210
0.0
220
1.0
230
-0.0000000000000002
  0
ARC
  5
3DBC
  8
0
 10
-648.0112652587607727
 20
125.1190666157583991
 30
0.0
 40
17.4999999999986215
210
0.0
220
-0.0000000000000002
230
-1.0
 50
326.758097464732316
 51
359.9999999999989768
  0
ARC
  5
3DBD
  8
0
 10
-755.0112652587635012
 20
125.1190666157583991
 30
0.0
 40
17.4999999999986287
210
0.0
220
-0.0000000000000002
230
-1.0
 50
180.0000000000009095
 51
213.2419025352675988
  0
ARC
  5
3DBE
  8
0
 10
-625.0112652587613411
 20
110.0442531840773057
 30
0.0
 40
10.0000000000009006
210
0.0
220
-0.0000000000000002
230
-1.0
 50
146.7580974647335097
 51
179.9999999999984084
  0
ARC
  5
3DBF
  8
0
 10
-778.0112652587631601
 20
110.0442531840772062
 30
0.0
 40
10.0000000000010196
210
0.0
220
-0.0000000000000002
230
-1.0
 50
0.0000000000017938
 51
33.2419025352663624
  0
LINE
  5
3DC0
  8
0
 10
768.0112652587622506
 20
110.0442531840775047
 30
-0.0000000000000244
 11
768.0112652587622506
 21
91.6503471930876259
 31
-0.0000000000000204
210
0.0
220
1.0
230
-0.0000000000000002
  0
LINE
  5
3DC1
  8
0
 10
635.0112652587622506
 20
110.0442531840775047
 30
-0.0000000000000244
 11
635.0112652587622506
 21
91.6503471930876259
 31
-0.0000000000000204
210
0.0
220
1.0
230
-0.0000000000000002
  0
LINE
  5
3DC2
  8
0
  6
VERDECKT
 62
     1
 10
618.2650532341746157
 20
39.6503471930875691
 30
-0.0000000000000088
 11
618.2650532341746157
 21
58.6503471930875833
 31
-0.000000000000013
210
0.0
220
1.0
230
-0.0000000000000002
  0
LINE
  5
3DC3
  8
0
  6
VERDECKT
 62
     1
 10
636.2650532341746157
 20
39.6503471930875477
 30
-0.0000000000000088
 11
636.2650532341746157
 21
58.6503471930875619
 31
-0.000000000000013
210
0.0
220
1.0
230
-0.0000000000000002
  0
LINE
  5
3DC4
  8
0
  6
VERDECKT
 62
     1
 10
784.7574772833495445
 20
58.6503471930876117
 30
-0.000000000000013
 11
784.7574772833495445
 21
39.6503471930876614
 31
-0.0000000000000088
210
0.0
220
1.0
230
-0.0000000000000002
  0
LINE
  5
3DC5
  8
0
  6
VERDECKT
 62
     1
 10
766.7574772833495445
 20
58.6503471930876401
 30
-0.000000000000013
 11
766.7574772833495445
 21
39.6503471930876898
 31
-0.0000000000000088
210
0.0
220
1.0
230
-0.0000000000000002
  0
LINE
  5
3DC6
  8
0
  6
VERDECKT
 62
     1
 10
815.5112652587622506
 20
58.6503471930875619
 30
-0.000000000000013
 11
815.5112652587622506
 21
39.6503471930875477
 31
-0.0000000000000088
210
0.0
220
1.0
230
-0.0000000000000002
  0
LINE
  5
3DC7
  8
0
  6
VERDECKT
 62
     1
 10
797.5112652587621369
 20
58.6503471930875691
 30
-0.000000000000013
 11
797.5112652587621369
 21
38.6503471930875619
 31
-0.0000000000000086
210
0.0
220
1.0
230
-0.0000000000000002
  0
LINE
  5
3DC8
  8
0
  6
VERDECKT
 62
     1
 10
692.5112652587621369
 20
39.6503471930878604
 30
-0.0000000000000088
 11
692.5112652587621369
 21
58.6503471930878675
 31
-0.000000000000013
210
0.0
220
1.0
230
-0.0000000000000002
  0
LINE
  5
3DC9
  8
0
  6
VERDECKT
 62
     1
 10
710.5112652587621369
 20
39.650347193087832
 30
-0.0000000000000088
 11
710.5112652587621369
 21
58.6503471930878391
 31
-0.000000000000013
210
0.0
220
1.0
230
-0.0000000000000002
  0
LINE
  5
3DCA
  8
0
  6
VERDECKT
 62
     1
 10
587.5112652587621369
 20
39.6503471930875691
 30
-0.0000000000000088
 11
587.5112652587621369
 21
58.6503471930875833
 31
-0.000000000000013
210
0.0
220
1.0
230
-0.0000000000000002
  0
LINE
  5
3DCB
  8
0
  6
VERDECKT
 62
     1
 10
605.5112652587621369
 20
38.6503471930877893
 30
-0.0000000000000086
 11
605.5112652587621369
 21
58.6503471930875691
 31
-0.000000000000013
210
0.0
220
1.0
230
-0.0000000000000002
  0
LINE
  5
3DCC
  8
0
  6
VERDECKT
 62
     1
 10
767.361265258762046
 20
91.6503471930875548
 30
-0.0000000000000204
 11
767.361265258762046
 21
36.6503471930875619
 31
-0.0000000000000081
210
0.0
220
1.0
230
-0.0000000000000002
  0
LINE
  5
3DCD
  8
0
  6
VERDECKT
 62
     1
 10
635.6612652587621142
 20
91.6503471930877822
 30
-0.0000000000000204
 11
635.6612652587621142
 21
36.650347193087768
 31
-0.0000000000000081
210
0.0
220
1.0
230
-0.0000000000000002
  0
LINE
  5
3DCE
  8
0
  6
VERDECKT
 62
     1
 10
631.1171249949104549
 20
190.8051106696061936
 30
-0.0000000000000424
 11
771.9054055226139326
 21
190.8051106696061936
 31
-0.0000000000000424
210
0.0
220
1.0
230
-0.0000000000000002
  0
LINE
  5
3DCF
  8
0
  6
VERDECKT
 62
     1
 10
770.5112652587622506
 20
148.6503471930876117
 30
-0.000000000000033
 11
770.5112652587622506
 21
125.1190666157582001
 31
-0.0000000000000278
210
0.0
220
1.0
230
-0.0000000000000002
  0
LINE
  5
3DD0
  8
0
  6
VERDECKT
 62
     1
 10
632.5112652587622506
 20
148.6503471930876117
 30
-0.000000000000033
 11
632.5112652587622506
 21
125.1190666157582001
 31
-0.0000000000000278
210
0.0
220
1.0
230
-0.0000000000000002
  0
ARC
  5
3DD1
  8
0
  6
VERDECKT
 62
     1
 10
-612.011265258764297
 20
148.6503471930882085
 30
0.0
 40
20.4999999999979501
210
0.0
220
-0.0000000000000002
230
-1.0
 50
155.212827692811203
 51
180.0000000000017906
  0
ARC
  5
3DD2
  8
0
  6
VERDECKT
 62
     1
 10
-791.0112652587597495
 20
148.6503471930882938
 30
0.0
 40
20.499999999997609
210
0.0
220
-0.0000000000000002
230
-1.0
 50
359.9999999999980105
 51
24.7871723071890813
  0
ARC
  5
3DD3
  8
0
  6
VERDECKT
 62
     1
 10
-655.5112652587672528
 20
168.9413471930886033
 30
0.0
 40
27.5000000000051195
210
0.0
220
-0.0000000000000002
230
-1.0
 50
334.8288522569372958
 51
359.9999999999992042
  0
ARC
  5
3DD4
  8
0
  6
VERDECKT
 62
     1
 10
-747.5112652587571347
 20
168.9413471930886033
 30
0.0
 40
27.5000000000051195
210
0.0
220
-0.0000000000000002
230
-1.0
 50
180.0000000000005969
 51
205.1711477430627042
  0
LINE
  5
3DD5
  8
0
  6
VERDECKT
 62
     1
 10
775.0112652587622506
 20
178.0479697486233022
 30
-0.0000000000000395
 11
775.0112652587622506
 21
168.9413471930882906
 31
-0.0000000000000375
210
0.0
220
1.0
230
-0.0000000000000002
  0
LINE
  5
3DD6
  8
0
  6
VERDECKT
 62
     1
 10
628.0112652587622506
 20
178.0479697486233022
 30
-0.0000000000000395
 11
628.0112652587622506
 21
168.9413471930882906
 31
-0.0000000000000375
210
0.0
220
1.0
230
-0.0000000000000002
  0
ARC
  5
3DD7
  8
0
  6
VERDECKT
 62
     1
 10
-655.5112652587630464
 20
178.0479697486231885
 30
0.0
 40
27.5000000000007994
210
0.0
220
-0.0000000000000002
230
-1.0
 50
0.0
 51
24.9999999999998295
  0
ARC
  5
3DD8
  8
0
  6
VERDECKT
 62
     1
 10
-747.5112652587614548
 20
178.0479697486231885
 30
0.0
 40
27.5000000000007887
210
0.0
220
-0.0000000000000002
230
-1.0
 50
154.9999999999998863
 51
179.9999999999996874
  0
LINE
  5
3DD9
  8
0
  6
VERDECKT
 62
     1
 10
771.9054055226139326
 20
190.8051106696063073
 30
-0.0000000000000424
 11
772.4347294022701362
 21
189.669971946492808
 31
-0.0000000000000421
210
0.0
220
1.0
230
-0.0000000000000002
  0
LINE
  5
3DDA
  8
0
  6
VERDECKT
 62
     1
 10
631.1171249949104549
 20
190.8051106696061936
 30
-0.0000000000000424
 11
630.587801115254365
 21
189.6699719464928933
 31
-0.0000000000000421
210
0.0
220
1.0
230
-0.0000000000000002
  0
LINE
  5
3DDB
  8
0
  6
VERDECKT
 62
     1
 10
631.1171249949104549
 20
190.8051106696061936
 30
-0.0000000000000424
 11
629.3045094208371211
 21
191.650347193087697
 31
-0.0000000000000426
210
0.0
220
1.0
230
-0.0000000000000002
  0
LINE
  5
3DDC
  8
0
  6
VERDECKT
 62
     1
 10
771.9054055226139326
 20
190.8051106696061936
 30
-0.0000000000000424
 11
773.7180210966872664
 21
191.650347193087697
 31
-0.0000000000000426
210
0.0
220
1.0
230
-0.0000000000000002
  0
LINE
  5
3DDD
  8
0
  6
VERDECKT
 62
     1
 10
766.0112652587622506
 20
110.0442531840775047
 30
-0.0000000000000244
 11
766.0112652587622506
 21
91.6503471930876259
 31
-0.0000000000000204
210
0.0
220
1.0
230
-0.0000000000000002
  0
LINE
  5
3DDE
  8
0
  6
VERDECKT
 62
     1
 10
637.0112652587622506
 20
110.0442531840775047
 30
-0.0000000000000244
 11
637.0112652587622506
 21
91.6503471930876259
 31
-0.0000000000000204
210
0.0
220
1.0
230
-0.0000000000000002
  0
ARC
  5
3DDF
  8
0
  6
VERDECKT
 62
     1
 10
-625.0112652587619095
 20
110.0442531840774052
 30
0.0
 40
12.0000000000003304
210
0.0
220
-0.0000000000000002
230
-1.0
 50
146.7580974647322023
 51
179.9999999999992895
  0
ARC
  5
3DE0
  8
0
  6
VERDECKT
 62
     1
 10
-778.0112652587625917
 20
110.0442531840774052
 30
0.0
 40
12.0000000000003393
210
0.0
220
-0.0000000000000002
230
-1.0
 50
0.0000000000007506
 51
33.241902535267883
  0
ARC
  5
3DE1
  8
0
  6
VERDECKT
 62
     1
 10
-648.0112652587608864
 20
125.1190666157584985
 30
0.0
 40
15.4999999999987601
210
0.0
220
-0.0000000000000002
230
-1.0
 50
326.7580974647324865
 51
359.9999999999985789
  0
ARC
  5
3DE2
  8
0
  6
VERDECKT
 62
     1
 10
-755.0112652587633875
 20
125.1190666157584985
 30
0.0
 40
15.4999999999988596
210
0.0
220
-0.0000000000000002
230
-1.0
 50
180.0000000000013074
 51
213.2419025352672008
  0
ENDBLK
  5
3DE4
  8
0
  0
ENDSEC
  0
SECTION
  2
ENTITIES
  0
TEXT
  5
8F
  8
VOLL
 10
78.076754716981128
 20
31.025947764705851
 30
0.0
 40
1.8
  1

  7
GREEKS
  0
INSERT
  5
FA4
  8
ADSK_ASSOC_ENTITY_BACKUPS
  2
*S3
 10
0.0
 20
0.0
 30
0.0
  0
INSERT
  5
3D98
  8
STEMPEL
  2
A$CCCB157BB
 10
298.3774719517454059
 20
-125.9117535577293978
 30
-32.3147420898446782
  0
INSERT
  5
3DE5
  8
STEMPEL
  2
A$C45DCA3C8
 10
298.3787388892437775
 20
160.4534688074307951
 30
-32.3147420898448274
  0
VIEWPORT
  5
702
 67
     1
  8
0
 10
100.1662219519621004
 20
142.8409631911844997
 30
0.0
 40
533.9969448798291296
 41
299.1239570917758783
 68
     1
 69
     1
1001
ACAD
1000
MVIEW
1002
{
1070
    16
1010
0.0
1020
0.0
1030
0.0
1010
0.0
1020
0.0
1030
1.0
1040
0.0
1040
299.1239570917758783
1040
100.1662219519621004
1040
142.8409631911844997
1040
50.0
1040
0.0
1040
0.0
1070
     0
1070
  1500
1070
     1
1070
     1
1070
     0
1070
     0
1070
     0
1070
     0
1040
0.0
1040
0.0
1040
0.0
1040
10.0
1040
10.0
1040
10.0
1040
10.0
1070
     0
1002
{
1002
}
1002
}
1001
GENIUS_GENOBJ-N-SDF_13
1002
{
1000
OWNER
1000
GEN
1002
}
1001
GENIUS_GENODEF_13
1002
{
1000
HIER
1070
     0
1002
}
1002
{
1000
MANEDIT
1070
     0
1002
}
1002
{
1000
NOSEL
1070
     0
1002
}
1002
{
1000
BEHIND
1070
     0
1002
}
1002
{
1000
OTHER
1070
     0
1002
}
1002
{
1000
REACTOR
1002
}
1001
GENIUS_GENSCREG_15
1000
PF
1040
1.0
1000
DF
1040
1.0
1000
MIN
1011
-122.5750372276848026
1021
0.0
1031
0.0
1021
44.9775351219234594
1031
0.0
1000
MAX
1011
383.7535769434712734
1021
0.0
1031
0.0
1021
267.7503228254332726
1031
0.0
1000
FLAGS
1070
     4
  0
ENDSEC
  0
EOF
