  0
SECTION
  2
HEADER
  9
$ACADVER
  1
AC1009
  9
$INSBASE
 10
0.0
 20
0.0
 30
0.0
  9
$EXTMIN
 10
849.7400072602536056
 20
-58.0712572295117297
 30
-32.3979257790264796
  9
$EXTMAX
 10
1069.8397035372340724
 20
337.2429210059844991
 30
-32.3818248106289275
  9
$LIMMIN
 10
0.0
 20
0.0
  9
$LIMMAX
 10
419.9999999999998863
 20
594.0
  9
$ORTHOMODE
 70
     1
  9
$REGENMODE
 70
     1
  9
$FILLMODE
 70
     1
  9
$QTEXTMODE
 70
     0
  9
$MIRRTEXT
 70
     1
  9
$DRAGMODE
 70
     2
  9
$LTSCALE
 40
10.0
  9
$OSMODE
 70
  2495
  9
$ATTMODE
 70
     1
  9
$TEXTSIZE
 40
3.5
  9
$TRACEWID
 40
0.5
  9
$TEXTSTYLE
  7
STANDARD
  9
$CLAYER
  8
STEMPEL
  9
$CELTYPE
  6
BYLAYER
  9
$CECOLOR
 62
   256
  9
$DIMSCALE
 40
1.0
  9
$DIMASZ
 40
3.5
  9
$DIMEXO
 40
1.0
  9
$DIMDLI
 40
7.0
  9
$DIMRND
 40
0.0
  9
$DIMDLE
 40
0.0
  9
$DIMEXE
 40
1.0
  9
$DIMTP
 40
0.0
  9
$DIMTM
 40
0.0
  9
$DIMTXT
 40
3.5
  9
$DIMCEN
 40
1.5
  9
$DIMTSZ
 40
0.0
  9
$DIMTOL
 70
     0
  9
$DIMLIM
 70
     0
  9
$DIMTIH
 70
     0
  9
$DIMTOH
 70
     0
  9
$DIMSE1
 70
     0
  9
$DIMSE2
 70
     0
  9
$DIMTAD
 70
     1
  9
$DIMZIN
 70
     8
  9
$DIMBLK
  1

  9
$DIMASO
 70
     1
  9
$DIMSHO
 70
     0
  9
$DIMPOST
  1

  9
$DIMAPOST
  1

  9
$DIMALT
 70
     0
  9
$DIMALTD
 70
     2
  9
$DIMALTF
 40
25.3999999999999986
  9
$DIMLFAC
 40
2.0
  9
$DIMTOFL
 70
     1
  9
$DIMTVP
 40
0.0
  9
$DIMTIX
 70
     0
  9
$DIMSOXD
 70
     0
  9
$DIMSAH
 70
     0
  9
$DIMBLK1
  1

  9
$DIMBLK2
  1

  9
$DIMSTYLE
  2
STANDARD
  9
$DIMCLRD
 70
     0
  9
$DIMCLRE
 70
     0
  9
$DIMCLRT
 70
     1
  9
$DIMTFAC
 40
0.5142857142857143
  9
$DIMGAP
 40
1.5
  9
$LUNITS
 70
     2
  9
$LUPREC
 70
     2
  9
$SKETCHINC
 40
1.0
  9
$FILLETRAD
 40
0.0
  9
$AUNITS
 70
     0
  9
$AUPREC
 70
     0
  9
$MENU
  1
ACAD
  9
$ELEVATION
 40
0.0
  9
$PELEVATION
 40
0.0
  9
$THICKNESS
 40
0.0
  9
$LIMCHECK
 70
     0
  9
$BLIPMODE
 70
     0
  9
$CHAMFERA
 40
0.0
  9
$CHAMFERB
 40
0.0
  9
$SKPOLY
 70
     0
  9
$TDCREATE
 40
2455397.8646990740671754
  9
$TDUPDATE
 40
2459627.4768171301111579
  9
$TDINDWG
 40
0.4737195949
  9
$TDUSRTIMER
 40
0.4737195949
  9
$USRTIMER
 70
     1
  9
$ANGBASE
 50
0.0
  9
$ANGDIR
 70
     0
  9
$PDMODE
 70
     0
  9
$PDSIZE
 40
0.0
  9
$PLINEWID
 40
0.0
  9
$COORDS
 70
     1
  9
$SPLFRAME
 70
     0
  9
$SPLINETYPE
 70
     6
  9
$SPLINESEGS
 70
     8
  9
$ATTDIA
 70
     1
  9
$ATTREQ
 70
     1
  9
$HANDLING
 70
     1
  9
$HANDSEED
  5
42D6
  9
$SURFTAB1
 70
     6
  9
$SURFTAB2
 70
     6
  9
$SURFTYPE
 70
     6
  9
$SURFU
 70
     6
  9
$SURFV
 70
     6
  9
$UCSNAME
  2

  9
$UCSORG
 10
0.0
 20
0.0
 30
0.0
  9
$UCSXDIR
 10
1.0
 20
0.0
 30
0.0
  9
$UCSYDIR
 10
0.0
 20
1.0
 30
0.0
  9
$PUCSNAME
  2

  9
$PUCSORG
 10
0.0
 20
0.0
 30
0.0
  9
$PUCSXDIR
 10
1.0
 20
0.0
 30
0.0
  9
$PUCSYDIR
 10
0.0
 20
1.0
 30
0.0
  9
$USERI1
 70
     0
  9
$USERI2
 70
     0
  9
$USERI3
 70
     0
  9
$USERI4
 70
     0
  9
$USERI5
 70
     0
  9
$USERR1
 40
0.0
  9
$USERR2
 40
0.0
  9
$USERR3
 40
0.0
  9
$USERR4
 40
0.0
  9
$USERR5
 40
0.0
  9
$WORLDVIEW
 70
     1
  9
$SHADEDGE
 70
     3
  9
$SHADEDIF
 70
    70
  9
$TILEMODE
 70
     1
  9
$MAXACTVP
 70
    16
  9
$PLIMCHECK
 70
     0
  9
$PEXTMIN
 10
1.0000000000000000E+20
 20
1.0000000000000000E+20
 30
1.0000000000000000E+20
  9
$PEXTMAX
 10
-1.0000000000000000E+20
 20
-1.0000000000000000E+20
 30
-1.0000000000000000E+20
  9
$PLIMMIN
 10
-5.027082920074462
 20
-6.4382776093749987
  9
$PLIMMAX
 10
204.9462447166442871
 20
290.4877172636719251
  9
$UNITMODE
 70
     0
  9
$VISRETAIN
 70
     0
  9
$PLINEGEN
 70
     0
  9
$PSLTSCALE
 70
     0
  0
ENDSEC
  0
SECTION
  2
TABLES
  0
TABLE
  2
VPORT
 70
     1
  0
VPORT
  2
*ACTIVE
 70
     0
 10
0.0
 20
0.0
 11
1.0
 21
1.0
 12
-0.3259046904998115
 22
-55.0683702381287716
 13
0.0
 23
0.0
 14
1.0
 24
1.0
 15
10.0
 25
10.0
 16
-0.0000000000002274
 26
0.0
 36
900.2108037714898501
 17
960.1157600892436221
 27
194.6542021263651066
 37
-16.1957428923816416
 40
398.1412164588729183
 41
1.7852028639618129
 42
50.0
 43
0.0
 44
0.0
 50
0.0
 51
0.0
 71
     0
 72
  1500
 73
     1
 74
     0
 75
     0
 76
     0
 77
     0
 78
     0
  0
ENDTAB
  0
TABLE
  2
LTYPE
 70
     7
  0
LTYPE
  2
CONTINUOUS
 70
     0
  3
Solid line
 72
    65
 73
     0
 40
0.0
  0
LTYPE
  2
PHANTOM2
 70
     0
  3
Phantom (.5x) ___ _ _ ___ _ _ ___ _ _ ___ _ _
 72
    65
 73
     6
 40
1.25
 49
0.625
 49
-0.125
 49
0.125
 49
-0.125
 49
0.125
 49
-0.125
  0
LTYPE
  2
AUSGEZOGEN
 70
     0
  3
Ausgezogene Linie
 72
    65
 73
     0
 40
0.0
  0
LTYPE
  2
VERDECKT
 70
     0
  3
Verdeckt __ __ __ __ __ __ __ __ __ __ __ __ __
 72
    65
 73
     2
 40
0.375
 49
0.25
 49
-0.125
  0
ENDTAB
  0
TABLE
  2
LAYER
 70
    14
  0
LAYER
  2
0
 70
     0
 62
     7
  6
CONTINUOUS
  0
LAYER
  2
VOLL
 70
     0
 62
     1
  6
CONTINUOUS
  0
LAYER
  2
STEMPEL
 70
     0
 62
     3
  6
CONTINUOUS
  0
LAYER
  2
DEFPOINTS
 70
     0
 62
     7
  6
CONTINUOUS
  0
LAYER
  2
ADSK_ASSOC_ENTITY_BACKUPS
 70
     1
 62
    -7
  6
CONTINUOUS
  0
ENDTAB
  0
TABLE
  2
STYLE
 70
     4
  0
STYLE
  2
STANDARD
 70
     0
 40
0.0
 41
0.8
 50
0.0
 71
     0
 42
3.5
  3
simplex.shx
  4

  0
STYLE
  2
GREEKS
 70
     0
 40
0.0
 41
0.8
 50
0.0
 71
     0
 42
2.5
  3
SIMPLEX.shx
  4

  0
ENDTAB
  0
TABLE
  2
VIEW
 70
     1
  0
ENDTAB
  0
TABLE
  2
UCS
 70
     0
  0
ENDTAB
  0
TABLE
  2
APPID
 70
    34
  0
APPID
  2
ACAD
 70
     0
  0
APPID
  2
ACAD_EXEMPT_FROM_CAD_STANDARDS
 70
     0
  0
APPID
  2
ACAD_NAV_VCDISPLAY
 70
     0
  0
APPID
  2
ACAECLAYERSTANDARD
 70
     0
  0
APPID
  2
ACCMTRANSPARENCY
 70
     0
  0
APPID
  2
ACAD_PSEXT
 70
     0
  0
APPID
  2
GRADIENTCOLOR1ACI
 70
     0
  0
APPID
  2
GRADIENTCOLOR2ACI
 70
     0
  0
APPID
  2
ACAD_MLEADERVER
 70
     0
  0
APPID
  2
ACAD_OBJECT_CHANGE_GUID
 70
     0
  0
APPID
  2
MCAD_NO_VIS
 70
     0
  0
APPID
  2
ACAD_TEMP_GRAPHIC
 70
     0
  0
APPID
  2
ACATTRIBSERVICES
 70
     0
  0
APPID
  2
DESIGNERASSEMBLIES
 70
     0
  0
APPID
  2
ACAD_DSTYLE_DIMJAG
 70
     0
  0
APPID
  2
ACAD_DSTYLE_DIMBREAK
 70
     0
  0
APPID
  2
GENIUS_GENSCREG_15
 70
     0
  0
APPID
  2
GENIUS_GENOBJ-N-SDF_13
 70
     0
  0
APPID
  2
GENIUS_GENODEF_13
 70
     0
  0
APPID
  2
RAK
 70
     0
  0
APPID
  2
ACAUTHENVIRON
 70
     0
  0
APPID
  2
ACDBDYNAMICBLOCKTRUENAME
 70
     0
  0
APPID
  2
ACDBDYNAMICBLOCKGUID
 70
     0
  0
APPID
  2
ACSYNERGY
 70
     0
  0
APPID
  2
SYNERGY_BODY_TBR_ID
 70
     0
  0
APPID
  2
ACAD_VIEW_EDGE_ID
 70
     0
  0
APPID
  2
ACSYNERGYSKETCH
 70
     0
  0
APPID
  2
ACAD_STEPID
 70
     0
  0
APPID
  2
ACAD_MODELDOC_XFORM
 70
     0
  0
APPID
  2
GENIUS_GENDTOL_13
 70
     0
  0
APPID
  2
ACAD_DSTYLE_DIMINSPECT
 70
     0
  0
APPID
  2
ACADANNOMONITORALERTICONDI
 70
     0
  0
APPID
  2
ACAD_DSTYLE_DIMTALN
 70
     0
  0
APPID
  2
AcDbAttr
 70
     0
  0
ENDTAB
  0
TABLE
  2
DIMSTYLE
 70
     3
  0
DIMSTYLE
  2
STANDARD
 70
     0
  3

  4

  5

  6

  7

 40
1.0
 41
0.18
 42
0.0625
 43
0.38
 44
0.18
 45
0.0
 46
0.0
 47
0.0
 48
0.0
140
0.18
141
0.09
142
0.0
143
25.3999999999999986
144
1.0
145
0.0
146
1.0
147
0.09
 71
     0
 72
     0
 73
     1
 74
     1
 75
     0
 76
     0
 77
     0
 78
     0
170
     0
171
     2
172
     0
173
     0
174
     0
175
     0
176
     0
177
     0
178
     0
  0
ENDTAB
  0
ENDSEC
  0
SECTION
  2
BLOCKS
  0
BLOCK
  8
0
  2
$MODEL_SPACE
 70
     0
 10
0.0
 20
0.0
 30
0.0
  3
$MODEL_SPACE
  1

  0
ENDBLK
  5
36
  8
0
  0
BLOCK
 67
     1
  8
0
  2
$PAPER_SPACE
 70
     0
 10
0.0
 20
0.0
 30
0.0
  3
$PAPER_SPACE
  1

  0
ENDBLK
  5
34
 67
     1
  8
0
  0
BLOCK
  8
0
  2
*S3
 70
     1
 10
0.0
 20
0.0
 30
0.0
  3
*S3
  1

  0
ENDBLK
  5
FA2
  8
0
  0
BLOCK
  8
0
  2
A$CF1F94A97
 70
     0
 10
0.0
 20
0.0
 30
0.0
  3
A$CF1F94A97
  1

  0
CIRCLE
  5
3ABC
  8
0
 10
637.8716549519731416
 20
218.674678561877414
 30
0.0000000000001705
 40
8.9999999999999432
  0
CIRCLE
  5
3ABD
  8
0
 10
637.8716549519731416
 20
91.3954579482988265
 30
0.0000000000001705
 40
8.9999999999999432
  0
CIRCLE
  5
3ABE
  8
0
 10
765.1508755655518144
 20
91.3954579482988265
 30
0.0000000000002061
 40
8.9999999999999432
  0
CIRCLE
  5
3ABF
  8
0
 10
765.1508755655518144
 20
218.674678561877414
 30
0.0000000000002061
 40
8.9999999999999432
  0
CIRCLE
  5
3AC0
  8
0
 10
791.5112652587622506
 20
155.0350682550881061
 30
0.0000000000002132
 40
8.9999999999999432
  0
CIRCLE
  5
3AC1
  8
0
 10
701.5112652587622506
 20
65.0350682550881203
 30
0.0000000000001847
 40
8.9999999999999432
  0
CIRCLE
  5
3AC2
  8
0
 10
611.5112652587622506
 20
155.0350682550881061
 30
0.0000000000001634
 40
8.9999999999999432
  0
CIRCLE
  5
3AC3
  8
0
 10
701.5112652587622506
 20
245.0350682550881061
 30
0.0000000000001847
 40
8.9999999999999432
  0
CIRCLE
  5
3AC4
  8
0
 10
701.5112652587622506
 20
155.0350682550881061
 30
0.0000000000001847
 40
110.0000000000000995
  0
CIRCLE
  5
3AC5
  8
0
 10
701.5112652587622506
 20
155.0350682550881061
 30
0.000000000000199
 40
58.9995501064834684
  0
CIRCLE
  5
3AC6
  8
0
 10
701.5112652587622506
 20
155.0350682550881061
 30
0.0000000000001847
 40
50.0
  0
CIRCLE
  5
3AC7
  8
0
 10
701.5112652587622506
 20
155.0350682550881061
 30
0.000000000000199
 40
53.4995501064834684
  0
CIRCLE
  5
3AC8
  8
0
 10
701.5112652587622506
 20
155.0350682550881061
 30
0.000000000000199
 40
54.2951553043722015
  0
CIRCLE
  5
3AC9
  8
0
 10
701.5112652587622506
 20
155.0350682550881061
 30
0.000000000000199
 40
55.6546169849272019
  0
CIRCLE
  5
3ACA
  8
0
  6
VERDECKT
 62
     1
 10
701.5112652587622506
 20
155.0350682550881061
 30
0.0000000000001847
 40
57.1500000000000625
  0
ARC
  5
3ACB
  8
0
  6
VERDECKT
 62
     1
 10
701.5112652587622506
 20
155.035068255088305
 30
0.0000000000001847
 40
81.9999999999999432
 50
92.7501767399097758
 51
132.2498232600902099
  0
ARC
  5
3ACC
  8
0
  6
VERDECKT
 62
     1
 10
701.511265258762478
 20
155.035068255088305
 30
0.0000000000001847
 40
81.9999999999998863
 50
47.7501767399094703
 51
87.2498232600902952
  0
ARC
  5
3ACD
  8
0
  6
VERDECKT
 62
     1
 10
701.5112652587625917
 20
155.0350682550881913
 30
0.0000000000001847
 40
81.9999999999997868
 50
2.7501767399097541
 51
42.2498232600904515
  0
ARC
  5
3ACE
  8
0
  6
VERDECKT
 62
     1
 10
701.511265258762478
 20
155.0350682550879924
 30
0.0000000000001847
 40
81.9999999999998863
 50
317.7501767399094774
 51
357.2498232600901815
  0
ARC
  5
3ACF
  8
0
  6
VERDECKT
 62
     1
 10
701.5112652587622506
 20
155.0350682550881061
 30
0.0000000000001847
 40
82.0000000000000853
 50
272.7501767399098185
 51
312.2498232600905226
  0
ARC
  5
3AD0
  8
0
  6
VERDECKT
 62
     1
 10
701.5112652587622506
 20
155.0350682550877082
 30
0.0000000000001847
 40
81.9999999999997442
 50
227.7501767399097048
 51
267.2498232600902952
  0
ARC
  5
3AD1
  8
0
  6
VERDECKT
 62
     1
 10
701.511265258762478
 20
155.0350682550881913
 30
0.0000000000001847
 40
82.00000000000027
 50
182.7501767399097901
 51
222.2498232600902099
  0
ARC
  5
3AD2
  8
0
  6
VERDECKT
 62
     1
 10
701.511265258762478
 20
155.0350682550879924
 30
0.0000000000001847
 40
82.0000000000003553
 50
137.7501767399097901
 51
177.2498232600900963
  0
CIRCLE
  5
3AD3
  8
0
  6
VERDECKT
 62
     1
 10
701.5112652587622506
 20
155.0350682550881061
 30
0.0000000000001847
 40
79.0
  0
CIRCLE
  5
3AD4
  8
0
  6
VERDECKT
 62
     1
 10
701.5112652587622506
 20
155.0350682550881061
 30
0.0000000000001847
 40
53.5500000000001535
  0
CIRCLE
  5
3AD5
  8
0
  6
VERDECKT
 62
     1
 10
701.5112652587622506
 20
155.0350682550881061
 30
0.000000000000199
 40
54.9995501064834684
  0
CIRCLE
  5
3AD6
  8
0
  6
VERDECKT
 62
     1
 10
701.5112652587622506
 20
155.0350682550881061
 30
0.0000000000001847
 40
51.4995501064834684
  0
CIRCLE
  5
3AD7
  8
0
  6
VERDECKT
 62
     1
 10
701.5112652587622506
 20
155.0350682550881061
 30
0.0000000000001847
 40
54.8877967309499013
  0
CIRCLE
  5
3AD8
  8
0
  6
VERDECKT
 62
     1
 10
701.5112652587622506
 20
155.0350682550881061
 30
0.0000000000001847
 40
53.5499999999999474
  0
CIRCLE
  5
3AD9
  8
0
  6
VERDECKT
 62
     1
 10
701.5112652587622506
 20
155.0350682550881061
 30
0.000000000000199
 40
57.4995501064834684
  0
CIRCLE
  5
3ADA
  8
0
  6
VERDECKT
 62
     1
 10
701.5112652587622506
 20
155.0350682550881061
 30
0.0000000000001847
 40
53.5001458153971186
  0
ENDBLK
  5
3ADC
  8
0
  0
BLOCK
  8
0
  2
A$C4CE59562
 70
     0
 10
0.0
 20
0.0
 30
0.0
  3
A$C4CE59562
  1

  0
LINE
  5
3AE0
  8
0
 10
644.3612652587621596
 20
88.6503471930877964
 30
-0.0000000000000197
 11
758.6612652587623415
 21
88.6503471930876827
 31
-0.0000000000000197
210
0.0
220
1.0
230
-0.0000000000000002
  0
POLYLINE
  8
0
  5
3B8C
  66
     1
 10
0.000000
 20
0.000000
 30
0.000000
  70
     8
  0
VERTEX
  8
0
  5
3B8D
 10
646.377
 20
39.6503
 30
-8.80000e-15
  70
    32
  0
VERTEX
  8
0
  5
3B8E
 10
646.372
 20
39.6420
 30
-8.79991e-15
  70
    32
  0
VERTEX
  8
0
  5
3B8F
 10
646.366
 20
39.6337
 30
-8.79965e-15
  70
    32
  0
VERTEX
  8
0
  5
3B90
 10
646.360
 20
39.6255
 30
-8.79923e-15
  70
    32
  0
VERTEX
  8
0
  5
3B91
 10
646.354
 20
39.6172
 30
-8.79865e-15
  70
    32
  0
VERTEX
  8
0
  5
3B92
 10
646.349
 20
39.6090
 30
-8.79791e-15
  70
    32
  0
VERTEX
  8
0
  5
3B93
 10
646.343
 20
39.6008
 30
-8.79703e-15
  70
    32
  0
VERTEX
  8
0
  5
3B94
 10
646.337
 20
39.5927
 30
-8.79601e-15
  70
    32
  0
VERTEX
  8
0
  5
3B95
 10
646.331
 20
39.5845
 30
-8.79485e-15
  70
    32
  0
VERTEX
  8
0
  5
3B96
 10
646.325
 20
39.5764
 30
-8.79356e-15
  70
    32
  0
VERTEX
  8
0
  5
3B97
 10
646.319
 20
39.5683
 30
-8.79216e-15
  70
    32
  0
VERTEX
  8
0
  5
3B98
 10
646.313
 20
39.5603
 30
-8.79063e-15
  70
    32
  0
VERTEX
  8
0
  5
3B99
 10
646.307
 20
39.5523
 30
-8.78900e-15
  70
    32
  0
VERTEX
  8
0
  5
3B9A
 10
646.301
 20
39.5443
 30
-8.78726e-15
  70
    32
  0
VERTEX
  8
0
  5
3B9B
 10
646.294
 20
39.5363
 30
-8.78542e-15
  70
    32
  0
VERTEX
  8
0
  5
3B9C
 10
646.288
 20
39.5283
 30
-8.78349e-15
  70
    32
  0
VERTEX
  8
0
  5
3B9D
 10
646.282
 20
39.5204
 30
-8.78148e-15
  70
    32
  0
VERTEX
  8
0
  5
3B9E
 10
646.276
 20
39.5125
 30
-8.77938e-15
  70
    32
  0
VERTEX
  8
0
  5
3B9F
 10
646.269
 20
39.5047
 30
-8.77722e-15
  70
    32
  0
VERTEX
  8
0
  5
3BA0
 10
646.263
 20
39.4968
 30
-8.77498e-15
  70
    32
  0
VERTEX
  8
0
  5
3BA1
 10
646.257
 20
39.4890
 30
-8.77268e-15
  70
    32
  0
VERTEX
  8
0
  5
3BA2
 10
646.250
 20
39.4812
 30
-8.77033e-15
  70
    32
  0
VERTEX
  8
0
  5
3BA3
 10
646.244
 20
39.4735
 30
-8.76793e-15
  70
    32
  0
VERTEX
  8
0
  5
3BA4
 10
646.237
 20
39.4658
 30
-8.76548e-15
  70
    32
  0
VERTEX
  8
0
  5
3BA5
 10
646.231
 20
39.4581
 30
-8.76300e-15
  70
    32
  0
VERTEX
  8
0
  5
3BA6
 10
646.224
 20
39.4504
 30
-8.76049e-15
  70
    32
  0
VERTEX
  8
0
  5
3BA7
 10
646.217
 20
39.4428
 30
-8.75795e-15
  70
    32
  0
VERTEX
  8
0
  5
3BA8
 10
646.211
 20
39.4352
 30
-8.75540e-15
  70
    32
  0
VERTEX
  8
0
  5
3BA9
 10
646.204
 20
39.4276
 30
-8.75283e-15
  70
    32
  0
VERTEX
  8
0
  5
3BAA
 10
646.197
 20
39.4200
 30
-8.75025e-15
  70
    32
  0
VERTEX
  8
0
  5
3BAB
 10
646.191
 20
39.4125
 30
-8.74767e-15
  70
    32
  0
VERTEX
  8
0
  5
3BAC
 10
646.184
 20
39.4050
 30
-8.74510e-15
  70
    32
  0
VERTEX
  8
0
  5
3BAD
 10
646.177
 20
39.3976
 30
-8.74254e-15
  70
    32
  0
VERTEX
  8
0
  5
3BAE
 10
646.170
 20
39.3902
 30
-8.74000e-15
  70
    32
  0
VERTEX
  8
0
  5
3BAF
 10
646.163
 20
39.3828
 30
-8.73748e-15
  70
    32
  0
VERTEX
  8
0
  5
3BB0
 10
646.156
 20
39.3754
 30
-8.73499e-15
  70
    32
  0
VERTEX
  8
0
  5
3BB1
 10
646.149
 20
39.3681
 30
-8.73254e-15
  70
    32
  0
VERTEX
  8
0
  5
3BB2
 10
646.142
 20
39.3608
 30
-8.73013e-15
  70
    32
  0
VERTEX
  8
0
  5
3BB3
 10
646.135
 20
39.3535
 30
-8.72777e-15
  70
    32
  0
VERTEX
  8
0
  5
3BB4
 10
646.128
 20
39.3462
 30
-8.72546e-15
  70
    32
  0
VERTEX
  8
0
  5
3BB5
 10
646.121
 20
39.3390
 30
-8.72321e-15
  70
    32
  0
VERTEX
  8
0
  5
3BB6
 10
646.114
 20
39.3319
 30
-8.72103e-15
  70
    32
  0
VERTEX
  8
0
  5
3BB7
 10
646.107
 20
39.3247
 30
-8.71892e-15
  70
    32
  0
VERTEX
  8
0
  5
3BB8
 10
646.099
 20
39.3176
 30
-8.71689e-15
  70
    32
  0
VERTEX
  8
0
  5
3BB9
 10
646.092
 20
39.3105
 30
-8.71494e-15
  70
    32
  0
VERTEX
  8
0
  5
3BBA
 10
646.085
 20
39.3035
 30
-8.71309e-15
  70
    32
  0
VERTEX
  8
0
  5
3BBB
 10
646.078
 20
39.2964
 30
-8.71133e-15
  70
    32
  0
VERTEX
  8
0
  5
3BBC
 10
646.070
 20
39.2894
 30
-8.70968e-15
  70
    32
  0
VERTEX
  8
0
  5
3BBD
 10
646.063
 20
39.2825
 30
-8.70813e-15
  70
    32
  0
VERTEX
  8
0
  5
3BBE
 10
646.055
 20
39.2756
 30
-8.70670e-15
  70
    32
  0
VERTEX
  8
0
  5
3BBF
 10
646.048
 20
39.2687
 30
-8.70539e-15
  70
    32
  0
VERTEX
  8
0
  5
3BC0
 10
646.040
 20
39.2618
 30
-8.70421e-15
  70
    32
  0
VERTEX
  8
0
  5
3BC1
 10
646.033
 20
39.2550
 30
-8.70316e-15
  70
    32
  0
VERTEX
  8
0
  5
3BC2
 10
646.025
 20
39.2482
 30
-8.70225e-15
  70
    32
  0
VERTEX
  8
0
  5
3BC3
 10
646.017
 20
39.2414
 30
-8.70148e-15
  70
    32
  0
VERTEX
  8
0
  5
3BC4
 10
646.010
 20
39.2347
 30
-8.70087e-15
  70
    32
  0
VERTEX
  8
0
  5
3BC5
 10
646.002
 20
39.2280
 30
-8.70042e-15
  70
    32
  0
VERTEX
  8
0
  5
3BC6
 10
645.994
 20
39.2214
 30
-8.70012e-15
  70
    32
  0
VERTEX
  8
0
  5
3BC7
 10
645.987
 20
39.2147
 30
-8.70000e-15
  70
    32
  0
VERTEX
  8
0
  5
3BC8
 10
645.979
 20
39.2082
 30
-8.69997e-15
  70
    32
  0
VERTEX
  8
0
  5
3BC9
 10
645.971
 20
39.2016
 30
-8.69986e-15
  70
    32
  0
VERTEX
  8
0
  5
3BCA
 10
645.963
 20
39.1951
 30
-8.69966e-15
  70
    32
  0
VERTEX
  8
0
  5
3BCB
 10
645.955
 20
39.1886
 30
-8.69938e-15
  70
    32
  0
VERTEX
  8
0
  5
3BCC
 10
645.947
 20
39.1821
 30
-8.69902e-15
  70
    32
  0
VERTEX
  8
0
  5
3BCD
 10
645.939
 20
39.1757
 30
-8.69859e-15
  70
    32
  0
VERTEX
  8
0
  5
3BCE
 10
645.931
 20
39.1693
 30
-8.69808e-15
  70
    32
  0
VERTEX
  8
0
  5
3BCF
 10
645.923
 20
39.1630
 30
-8.69749e-15
  70
    32
  0
VERTEX
  8
0
  5
3BD0
 10
645.915
 20
39.1567
 30
-8.69684e-15
  70
    32
  0
VERTEX
  8
0
  5
3BD1
 10
645.907
 20
39.1504
 30
-8.69611e-15
  70
    32
  0
VERTEX
  8
0
  5
3BD2
 10
645.898
 20
39.1442
 30
-8.69532e-15
  70
    32
  0
VERTEX
  8
0
  5
3BD3
 10
645.890
 20
39.1379
 30
-8.69446e-15
  70
    32
  0
VERTEX
  8
0
  5
3BD4
 10
645.882
 20
39.1318
 30
-8.69354e-15
  70
    32
  0
VERTEX
  8
0
  5
3BD5
 10
645.874
 20
39.1256
 30
-8.69256e-15
  70
    32
  0
VERTEX
  8
0
  5
3BD6
 10
645.865
 20
39.1195
 30
-8.69152e-15
  70
    32
  0
VERTEX
  8
0
  5
3BD7
 10
645.857
 20
39.1135
 30
-8.69043e-15
  70
    32
  0
VERTEX
  8
0
  5
3BD8
 10
645.848
 20
39.1074
 30
-8.68928e-15
  70
    32
  0
VERTEX
  8
0
  5
3BD9
 10
645.840
 20
39.1014
 30
-8.68808e-15
  70
    32
  0
VERTEX
  8
0
  5
3BDA
 10
645.832
 20
39.0955
 30
-8.68682e-15
  70
    32
  0
VERTEX
  8
0
  5
3BDB
 10
645.823
 20
39.0895
 30
-8.68552e-15
  70
    32
  0
VERTEX
  8
0
  5
3BDC
 10
645.814
 20
39.0837
 30
-8.68418e-15
  70
    32
  0
VERTEX
  8
0
  5
3BDD
 10
645.806
 20
39.0778
 30
-8.68279e-15
  70
    32
  0
VERTEX
  8
0
  5
3BDE
 10
645.797
 20
39.0720
 30
-8.68136e-15
  70
    32
  0
VERTEX
  8
0
  5
3BDF
 10
645.789
 20
39.0662
 30
-8.67989e-15
  70
    32
  0
VERTEX
  8
0
  5
3BE0
 10
645.780
 20
39.0605
 30
-8.67838e-15
  70
    32
  0
VERTEX
  8
0
  5
3BE1
 10
645.771
 20
39.0548
 30
-8.67684e-15
  70
    32
  0
VERTEX
  8
0
  5
3BE2
 10
645.762
 20
39.0491
 30
-8.67527e-15
  70
    32
  0
VERTEX
  8
0
  5
3BE3
 10
645.753
 20
39.0435
 30
-8.67366e-15
  70
    32
  0
VERTEX
  8
0
  5
3BE4
 10
645.745
 20
39.0379
 30
-8.67203e-15
  70
    32
  0
VERTEX
  8
0
  5
3BE5
 10
645.736
 20
39.0323
 30
-8.67037e-15
  70
    32
  0
VERTEX
  8
0
  5
3BE6
 10
645.727
 20
39.0268
 30
-8.66868e-15
  70
    32
  0
VERTEX
  8
0
  5
3BE7
 10
645.718
 20
39.0213
 30
-8.66697e-15
  70
    32
  0
VERTEX
  8
0
  5
3BE8
 10
645.709
 20
39.0158
 30
-8.66524e-15
  70
    32
  0
VERTEX
  8
0
  5
3BE9
 10
645.700
 20
39.0104
 30
-8.66350e-15
  70
    32
  0
VERTEX
  8
0
  5
3BEA
 10
645.691
 20
39.0050
 30
-8.66173e-15
  70
    32
  0
VERTEX
  8
0
  5
3BEB
 10
645.682
 20
38.9997
 30
-8.65996e-15
  70
    32
  0
VERTEX
  8
0
  5
3BEC
 10
645.673
 20
38.9944
 30
-8.65817e-15
  70
    32
  0
VERTEX
  8
0
  5
3BED
 10
645.663
 20
38.9891
 30
-8.65637e-15
  70
    32
  0
VERTEX
  8
0
  5
3BEE
 10
645.654
 20
38.9839
 30
-8.65457e-15
  70
    32
  0
VERTEX
  8
0
  5
3BEF
 10
645.645
 20
38.9787
 30
-8.65276e-15
  70
    32
  0
VERTEX
  8
0
  5
3BF0
 10
645.636
 20
38.9736
 30
-8.65094e-15
  70
    32
  0
VERTEX
  8
0
  5
3BF1
 10
645.626
 20
38.9685
 30
-8.64913e-15
  70
    32
  0
VERTEX
  8
0
  5
3BF2
 10
645.617
 20
38.9634
 30
-8.64732e-15
  70
    32
  0
VERTEX
  8
0
  5
3BF3
 10
645.608
 20
38.9584
 30
-8.64550e-15
  70
    32
  0
VERTEX
  8
0
  5
3BF4
 10
645.598
 20
38.9534
 30
-8.64370e-15
  70
    32
  0
VERTEX
  8
0
  5
3BF5
 10
645.589
 20
38.9484
 30
-8.64190e-15
  70
    32
  0
VERTEX
  8
0
  5
3BF6
 10
645.579
 20
38.9435
 30
-8.64011e-15
  70
    32
  0
VERTEX
  8
0
  5
3BF7
 10
645.570
 20
38.9386
 30
-8.63834e-15
  70
    32
  0
VERTEX
  8
0
  5
3BF8
 10
645.560
 20
38.9337
 30
-8.63657e-15
  70
    32
  0
VERTEX
  8
0
  5
3BF9
 10
645.551
 20
38.9289
 30
-8.63483e-15
  70
    32
  0
VERTEX
  8
0
  5
3BFA
 10
645.541
 20
38.9242
 30
-8.63310e-15
  70
    32
  0
VERTEX
  8
0
  5
3BFB
 10
645.531
 20
38.9194
 30
-8.63139e-15
  70
    32
  0
VERTEX
  8
0
  5
3BFC
 10
645.522
 20
38.9148
 30
-8.62970e-15
  70
    32
  0
VERTEX
  8
0
  5
3BFD
 10
645.512
 20
38.9101
 30
-8.62804e-15
  70
    32
  0
VERTEX
  8
0
  5
3BFE
 10
645.502
 20
38.9055
 30
-8.62640e-15
  70
    32
  0
VERTEX
  8
0
  5
3BFF
 10
645.492
 20
38.9009
 30
-8.62480e-15
  70
    32
  0
VERTEX
  8
0
  5
3C00
 10
645.483
 20
38.8964
 30
-8.62322e-15
  70
    32
  0
VERTEX
  8
0
  5
3C01
 10
645.473
 20
38.8919
 30
-8.62168e-15
  70
    32
  0
VERTEX
  8
0
  5
3C02
 10
645.463
 20
38.8874
 30
-8.62017e-15
  70
    32
  0
VERTEX
  8
0
  5
3C03
 10
645.453
 20
38.8830
 30
-8.61870e-15
  70
    32
  0
VERTEX
  8
0
  5
3C04
 10
645.443
 20
38.8787
 30
-8.61727e-15
  70
    32
  0
VERTEX
  8
0
  5
3C05
 10
645.433
 20
38.8743
 30
-8.61588e-15
  70
    32
  0
VERTEX
  8
0
  5
3C06
 10
645.423
 20
38.8700
 30
-8.61453e-15
  70
    32
  0
VERTEX
  8
0
  5
3C07
 10
645.413
 20
38.8658
 30
-8.61323e-15
  70
    32
  0
VERTEX
  8
0
  5
3C08
 10
645.403
 20
38.8616
 30
-8.61197e-15
  70
    32
  0
VERTEX
  8
0
  5
3C09
 10
645.393
 20
38.8574
 30
-8.61077e-15
  70
    32
  0
VERTEX
  8
0
  5
3C0A
 10
645.382
 20
38.8533
 30
-8.60962e-15
  70
    32
  0
VERTEX
  8
0
  5
3C0B
 10
645.372
 20
38.8492
 30
-8.60852e-15
  70
    32
  0
VERTEX
  8
0
  5
3C0C
 10
645.362
 20
38.8451
 30
-8.60748e-15
  70
    32
  0
VERTEX
  8
0
  5
3C0D
 10
645.352
 20
38.8411
 30
-8.60650e-15
  70
    32
  0
VERTEX
  8
0
  5
3C0E
 10
645.341
 20
38.8371
 30
-8.60557e-15
  70
    32
  0
VERTEX
  8
0
  5
3C0F
 10
645.331
 20
38.8332
 30
-8.60471e-15
  70
    32
  0
VERTEX
  8
0
  5
3C10
 10
645.321
 20
38.8293
 30
-8.60392e-15
  70
    32
  0
VERTEX
  8
0
  5
3C11
 10
645.310
 20
38.8255
 30
-8.60319e-15
  70
    32
  0
VERTEX
  8
0
  5
3C12
 10
645.300
 20
38.8217
 30
-8.60253e-15
  70
    32
  0
VERTEX
  8
0
  5
3C13
 10
645.289
 20
38.8179
 30
-8.60194e-15
  70
    32
  0
VERTEX
  8
0
  5
3C14
 10
645.279
 20
38.8142
 30
-8.60143e-15
  70
    32
  0
VERTEX
  8
0
  5
3C15
 10
645.268
 20
38.8105
 30
-8.60099e-15
  70
    32
  0
VERTEX
  8
0
  5
3C16
 10
645.258
 20
38.8068
 30
-8.60063e-15
  70
    32
  0
VERTEX
  8
0
  5
3C17
 10
645.247
 20
38.8032
 30
-8.60035e-15
  70
    32
  0
VERTEX
  8
0
  5
3C18
 10
645.237
 20
38.7997
 30
-8.60015e-15
  70
    32
  0
VERTEX
  8
0
  5
3C19
 10
645.226
 20
38.7962
 30
-8.60003e-15
  70
    32
  0
VERTEX
  8
0
  5
3C1A
 10
645.215
 20
38.7927
 30
-8.60000e-15
  70
    32
  0
VERTEX
  8
0
  5
3C1B
 10
645.205
 20
38.7893
 30
-8.60000e-15
  70
    32
  0
VERTEX
  8
0
  5
3C1C
 10
645.194
 20
38.7859
 30
-8.60000e-15
  70
    32
  0
VERTEX
  8
0
  5
3C1D
 10
645.183
 20
38.7825
 30
-8.60000e-15
  70
    32
  0
VERTEX
  8
0
  5
3C1E
 10
645.172
 20
38.7792
 30
-8.60000e-15
  70
    32
  0
VERTEX
  8
0
  5
3C1F
 10
645.161
 20
38.7759
 30
-8.60000e-15
  70
    32
  0
VERTEX
  8
0
  5
3C20
 10
645.151
 20
38.7727
 30
-8.60000e-15
  70
    32
  0
VERTEX
  8
0
  5
3C21
 10
645.140
 20
38.7695
 30
-8.60000e-15
  70
    32
  0
VERTEX
  8
0
  5
3C22
 10
645.129
 20
38.7664
 30
-8.60000e-15
  70
    32
  0
VERTEX
  8
0
  5
3C23
 10
645.118
 20
38.7633
 30
-8.60000e-15
  70
    32
  0
VERTEX
  8
0
  5
3C24
 10
645.107
 20
38.7602
 30
-8.60000e-15
  70
    32
  0
VERTEX
  8
0
  5
3C25
 10
645.096
 20
38.7572
 30
-8.60000e-15
  70
    32
  0
VERTEX
  8
0
  5
3C26
 10
645.085
 20
38.7543
 30
-8.60000e-15
  70
    32
  0
VERTEX
  8
0
  5
3C27
 10
645.073
 20
38.7513
 30
-8.60000e-15
  70
    32
  0
VERTEX
  8
0
  5
3C28
 10
645.062
 20
38.7484
 30
-8.60000e-15
  70
    32
  0
VERTEX
  8
0
  5
3C29
 10
645.051
 20
38.7456
 30
-8.60000e-15
  70
    32
  0
VERTEX
  8
0
  5
3C2A
 10
645.040
 20
38.7428
 30
-8.60000e-15
  70
    32
  0
VERTEX
  8
0
  5
3C2B
 10
645.029
 20
38.7400
 30
-8.60000e-15
  70
    32
  0
VERTEX
  8
0
  5
3C2C
 10
645.018
 20
38.7373
 30
-8.60000e-15
  70
    32
  0
VERTEX
  8
0
  5
3C2D
 10
645.006
 20
38.7346
 30
-8.60000e-15
  70
    32
  0
VERTEX
  8
0
  5
3C2E
 10
644.995
 20
38.7320
 30
-8.60000e-15
  70
    32
  0
VERTEX
  8
0
  5
3C2F
 10
644.984
 20
38.7294
 30
-8.60000e-15
  70
    32
  0
VERTEX
  8
0
  5
3C30
 10
644.972
 20
38.7268
 30
-8.60000e-15
  70
    32
  0
VERTEX
  8
0
  5
3C31
 10
644.961
 20
38.7243
 30
-8.60000e-15
  70
    32
  0
VERTEX
  8
0
  5
3C32
 10
644.949
 20
38.7219
 30
-8.60000e-15
  70
    32
  0
VERTEX
  8
0
  5
3C33
 10
644.938
 20
38.7194
 30
-8.60000e-15
  70
    32
  0
VERTEX
  8
0
  5
3C34
 10
644.926
 20
38.7171
 30
-8.60000e-15
  70
    32
  0
VERTEX
  8
0
  5
3C35
 10
644.915
 20
38.7147
 30
-8.60000e-15
  70
    32
  0
VERTEX
  8
0
  5
3C36
 10
644.903
 20
38.7124
 30
-8.60000e-15
  70
    32
  0
VERTEX
  8
0
  5
3C37
 10
644.892
 20
38.7102
 30
-8.60000e-15
  70
    32
  0
VERTEX
  8
0
  5
3C38
 10
644.880
 20
38.7079
 30
-8.60000e-15
  70
    32
  0
VERTEX
  8
0
  5
3C39
 10
644.869
 20
38.7058
 30
-8.60000e-15
  70
    32
  0
VERTEX
  8
0
  5
3C3A
 10
644.857
 20
38.7036
 30
-8.60000e-15
  70
    32
  0
VERTEX
  8
0
  5
3C3B
 10
644.845
 20
38.7015
 30
-8.60000e-15
  70
    32
  0
VERTEX
  8
0
  5
3C3C
 10
644.834
 20
38.6995
 30
-8.60000e-15
  70
    32
  0
VERTEX
  8
0
  5
3C3D
 10
644.822
 20
38.6975
 30
-8.60000e-15
  70
    32
  0
VERTEX
  8
0
  5
3C3E
 10
644.810
 20
38.6955
 30
-8.60000e-15
  70
    32
  0
VERTEX
  8
0
  5
3C3F
 10
644.798
 20
38.6936
 30
-8.60000e-15
  70
    32
  0
VERTEX
  8
0
  5
3C40
 10
644.786
 20
38.6917
 30
-8.60000e-15
  70
    32
  0
VERTEX
  8
0
  5
3C41
 10
644.775
 20
38.6899
 30
-8.60000e-15
  70
    32
  0
VERTEX
  8
0
  5
3C42
 10
644.763
 20
38.6881
 30
-8.60000e-15
  70
    32
  0
VERTEX
  8
0
  5
3C43
 10
644.751
 20
38.6863
 30
-8.60000e-15
  70
    32
  0
VERTEX
  8
0
  5
3C44
 10
644.739
 20
38.6846
 30
-8.60000e-15
  70
    32
  0
VERTEX
  8
0
  5
3C45
 10
644.727
 20
38.6829
 30
-8.60000e-15
  70
    32
  0
VERTEX
  8
0
  5
3C46
 10
644.715
 20
38.6813
 30
-8.60000e-15
  70
    32
  0
VERTEX
  8
0
  5
3C47
 10
644.703
 20
38.6797
 30
-8.60000e-15
  70
    32
  0
VERTEX
  8
0
  5
3C48
 10
644.691
 20
38.6782
 30
-8.60000e-15
  70
    32
  0
VERTEX
  8
0
  5
3C49
 10
644.679
 20
38.6767
 30
-8.60000e-15
  70
    32
  0
VERTEX
  8
0
  5
3C4A
 10
644.667
 20
38.6752
 30
-8.60000e-15
  70
    32
  0
VERTEX
  8
0
  5
3C4B
 10
644.655
 20
38.6738
 30
-8.60000e-15
  70
    32
  0
VERTEX
  8
0
  5
3C4C
 10
644.643
 20
38.6724
 30
-8.60000e-15
  70
    32
  0
VERTEX
  8
0
  5
3C4D
 10
644.630
 20
38.6711
 30
-8.60000e-15
  70
    32
  0
VERTEX
  8
0
  5
3C4E
 10
644.618
 20
38.6698
 30
-8.60000e-15
  70
    32
  0
VERTEX
  8
0
  5
3C4F
 10
644.606
 20
38.6685
 30
-8.60000e-15
  70
    32
  0
VERTEX
  8
0
  5
3C50
 10
644.594
 20
38.6673
 30
-8.60000e-15
  70
    32
  0
VERTEX
  8
0
  5
3C51
 10
644.582
 20
38.6661
 30
-8.60000e-15
  70
    32
  0
VERTEX
  8
0
  5
3C52
 10
644.569
 20
38.6650
 30
-8.60000e-15
  70
    32
  0
VERTEX
  8
0
  5
3C53
 10
644.557
 20
38.6639
 30
-8.60000e-15
  70
    32
  0
VERTEX
  8
0
  5
3C54
 10
644.545
 20
38.6629
 30
-8.60000e-15
  70
    32
  0
VERTEX
  8
0
  5
3C55
 10
644.532
 20
38.6619
 30
-8.60000e-15
  70
    32
  0
VERTEX
  8
0
  5
3C56
 10
644.520
 20
38.6609
 30
-8.60000e-15
  70
    32
  0
VERTEX
  8
0
  5
3C57
 10
644.508
 20
38.6600
 30
-8.60000e-15
  70
    32
  0
VERTEX
  8
0
  5
3C58
 10
644.495
 20
38.6591
 30
-8.60000e-15
  70
    32
  0
VERTEX
  8
0
  5
3C59
 10
644.483
 20
38.6583
 30
-8.60000e-15
  70
    32
  0
VERTEX
  8
0
  5
3C5A
 10
644.470
 20
38.6575
 30
-8.60000e-15
  70
    32
  0
VERTEX
  8
0
  5
3C5B
 10
644.458
 20
38.6567
 30
-8.60000e-15
  70
    32
  0
VERTEX
  8
0
  5
3C5C
 10
644.445
 20
38.6560
 30
-8.60000e-15
  70
    32
  0
VERTEX
  8
0
  5
3C5D
 10
644.433
 20
38.6554
 30
-8.60000e-15
  70
    32
  0
VERTEX
  8
0
  5
3C5E
 10
644.420
 20
38.6547
 30
-8.60000e-15
  70
    32
  0
VERTEX
  8
0
  5
3C5F
 10
644.408
 20
38.6542
 30
-8.60000e-15
  70
    32
  0
VERTEX
  8
0
  5
3C60
 10
644.395
 20
38.6536
 30
-8.60000e-15
  70
    32
  0
VERTEX
  8
0
  5
3C61
 10
644.382
 20
38.6531
 30
-8.60000e-15
  70
    32
  0
VERTEX
  8
0
  5
3C62
 10
644.370
 20
38.6526
 30
-8.60000e-15
  70
    32
  0
VERTEX
  8
0
  5
3C63
 10
644.357
 20
38.6522
 30
-8.60000e-15
  70
    32
  0
VERTEX
  8
0
  5
3C64
 10
644.344
 20
38.6519
 30
-8.60000e-15
  70
    32
  0
VERTEX
  8
0
  5
3C65
 10
644.332
 20
38.6515
 30
-8.60000e-15
  70
    32
  0
VERTEX
  8
0
  5
3C66
 10
644.319
 20
38.6512
 30
-8.60000e-15
  70
    32
  0
VERTEX
  8
0
  5
3C67
 10
644.306
 20
38.6510
 30
-8.60000e-15
  70
    32
  0
VERTEX
  8
0
  5
3C68
 10
644.293
 20
38.6508
 30
-8.60000e-15
  70
    32
  0
VERTEX
  8
0
  5
3C69
 10
644.281
 20
38.6506
 30
-8.60000e-15
  70
    32
  0
VERTEX
  8
0
  5
3C6A
 10
644.268
 20
38.6505
 30
-8.60000e-15
  70
    32
  0
VERTEX
  8
0
  5
3C6B
 10
644.255
 20
38.6504
 30
-8.60000e-15
  70
    32
  0
VERTEX
  8
0
  5
3C6C
 10
644.242
 20
38.6504
 30
-8.60000e-15
  70
    32
  0
VERTEX
  8
0
  5
3C6D
 10
644.229
 20
38.6504
 30
-8.60000e-15
  70
    32
  0
VERTEX
  8
0
  5
3C6E
 10
644.216
 20
38.6504
 30
-8.60000e-15
  70
    32
  0
VERTEX
  8
0
  5
3C6F
 10
644.203
 20
38.6505
 30
-8.60000e-15
  70
    32
  0
VERTEX
  8
0
  5
3C70
 10
644.190
 20
38.6506
 30
-8.60000e-15
  70
    32
  0
VERTEX
  8
0
  5
3C71
 10
644.177
 20
38.6508
 30
-8.60000e-15
  70
    32
  0
VERTEX
  8
0
  5
3C72
 10
644.164
 20
38.6510
 30
-8.60000e-15
  70
    32
  0
VERTEX
  8
0
  5
3C73
 10
644.151
 20
38.6512
 30
-8.60000e-15
  70
    32
  0
VERTEX
  8
0
  5
3C74
 10
644.138
 20
38.6515
 30
-8.60000e-15
  70
    32
  0
VERTEX
  8
0
  5
3C75
 10
644.125
 20
38.6519
 30
-8.60000e-15
  70
    32
  0
VERTEX
  8
0
  5
3C76
 10
644.112
 20
38.6522
 30
-8.60000e-15
  70
    32
  0
VERTEX
  8
0
  5
3C77
 10
644.099
 20
38.6526
 30
-8.60000e-15
  70
    32
  0
VERTEX
  8
0
  5
3C78
 10
644.085
 20
38.6531
 30
-8.60000e-15
  70
    32
  0
VERTEX
  8
0
  5
3C79
 10
644.072
 20
38.6536
 30
-8.60000e-15
  70
    32
  0
VERTEX
  8
0
  5
3C7A
 10
644.059
 20
38.6542
 30
-8.60000e-15
  70
    32
  0
VERTEX
  8
0
  5
3C7B
 10
644.045
 20
38.6547
 30
-8.60000e-15
  70
    32
  0
VERTEX
  8
0
  5
3C7C
 10
644.032
 20
38.6554
 30
-8.60000e-15
  70
    32
  0
VERTEX
  8
0
  5
3C7D
 10
644.019
 20
38.6560
 30
-8.60000e-15
  70
    32
  0
VERTEX
  8
0
  5
3C7E
 10
644.005
 20
38.6567
 30
-8.60000e-15
  70
    32
  0
VERTEX
  8
0
  5
3C7F
 10
643.992
 20
38.6575
 30
-8.60000e-15
  70
    32
  0
VERTEX
  8
0
  5
3C80
 10
643.978
 20
38.6583
 30
-8.60000e-15
  70
    32
  0
VERTEX
  8
0
  5
3C81
 10
643.965
 20
38.6591
 30
-8.60000e-15
  70
    32
  0
VERTEX
  8
0
  5
3C82
 10
643.951
 20
38.6600
 30
-8.60000e-15
  70
    32
  0
VERTEX
  8
0
  5
3C83
 10
643.938
 20
38.6609
 30
-8.60000e-15
  70
    32
  0
VERTEX
  8
0
  5
3C84
 10
643.924
 20
38.6619
 30
-8.60000e-15
  70
    32
  0
VERTEX
  8
0
  5
3C85
 10
643.911
 20
38.6629
 30
-8.60000e-15
  70
    32
  0
VERTEX
  8
0
  5
3C86
 10
643.897
 20
38.6639
 30
-8.60000e-15
  70
    32
  0
VERTEX
  8
0
  5
3C87
 10
643.883
 20
38.6650
 30
-8.60000e-15
  70
    32
  0
VERTEX
  8
0
  5
3C88
 10
643.870
 20
38.6661
 30
-8.60000e-15
  70
    32
  0
VERTEX
  8
0
  5
3C89
 10
643.856
 20
38.6673
 30
-8.60000e-15
  70
    32
  0
VERTEX
  8
0
  5
3C8A
 10
643.842
 20
38.6685
 30
-8.60000e-15
  70
    32
  0
VERTEX
  8
0
  5
3C8B
 10
643.828
 20
38.6698
 30
-8.60000e-15
  70
    32
  0
VERTEX
  8
0
  5
3C8C
 10
643.814
 20
38.6711
 30
-8.60000e-15
  70
    32
  0
VERTEX
  8
0
  5
3C8D
 10
643.801
 20
38.6724
 30
-8.60000e-15
  70
    32
  0
VERTEX
  8
0
  5
3C8E
 10
643.787
 20
38.6738
 30
-8.60000e-15
  70
    32
  0
VERTEX
  8
0
  5
3C8F
 10
643.773
 20
38.6752
 30
-8.60000e-15
  70
    32
  0
VERTEX
  8
0
  5
3C90
 10
643.759
 20
38.6767
 30
-8.60000e-15
  70
    32
  0
VERTEX
  8
0
  5
3C91
 10
643.745
 20
38.6782
 30
-8.60000e-15
  70
    32
  0
VERTEX
  8
0
  5
3C92
 10
643.731
 20
38.6797
 30
-8.60000e-15
  70
    32
  0
VERTEX
  8
0
  5
3C93
 10
643.717
 20
38.6813
 30
-8.60000e-15
  70
    32
  0
VERTEX
  8
0
  5
3C94
 10
643.703
 20
38.6829
 30
-8.60000e-15
  70
    32
  0
VERTEX
  8
0
  5
3C95
 10
643.689
 20
38.6846
 30
-8.60000e-15
  70
    32
  0
VERTEX
  8
0
  5
3C96
 10
643.675
 20
38.6863
 30
-8.60000e-15
  70
    32
  0
VERTEX
  8
0
  5
3C97
 10
643.660
 20
38.6881
 30
-8.60000e-15
  70
    32
  0
VERTEX
  8
0
  5
3C98
 10
643.646
 20
38.6899
 30
-8.60000e-15
  70
    32
  0
VERTEX
  8
0
  5
3C99
 10
643.632
 20
38.6917
 30
-8.60000e-15
  70
    32
  0
VERTEX
  8
0
  5
3C9A
 10
643.618
 20
38.6936
 30
-8.60000e-15
  70
    32
  0
VERTEX
  8
0
  5
3C9B
 10
643.604
 20
38.6955
 30
-8.60000e-15
  70
    32
  0
VERTEX
  8
0
  5
3C9C
 10
643.589
 20
38.6975
 30
-8.60000e-15
  70
    32
  0
VERTEX
  8
0
  5
3C9D
 10
643.575
 20
38.6995
 30
-8.60000e-15
  70
    32
  0
VERTEX
  8
0
  5
3C9E
 10
643.561
 20
38.7015
 30
-8.60000e-15
  70
    32
  0
VERTEX
  8
0
  5
3C9F
 10
643.546
 20
38.7036
 30
-8.60000e-15
  70
    32
  0
VERTEX
  8
0
  5
3CA0
 10
643.532
 20
38.7058
 30
-8.60000e-15
  70
    32
  0
VERTEX
  8
0
  5
3CA1
 10
643.518
 20
38.7079
 30
-8.60000e-15
  70
    32
  0
VERTEX
  8
0
  5
3CA2
 10
643.503
 20
38.7102
 30
-8.60000e-15
  70
    32
  0
VERTEX
  8
0
  5
3CA3
 10
643.489
 20
38.7124
 30
-8.60000e-15
  70
    32
  0
VERTEX
  8
0
  5
3CA4
 10
643.474
 20
38.7147
 30
-8.60000e-15
  70
    32
  0
VERTEX
  8
0
  5
3CA5
 10
643.460
 20
38.7171
 30
-8.60000e-15
  70
    32
  0
VERTEX
  8
0
  5
3CA6
 10
643.445
 20
38.7194
 30
-8.60000e-15
  70
    32
  0
VERTEX
  8
0
  5
3CA7
 10
643.431
 20
38.7219
 30
-8.60000e-15
  70
    32
  0
VERTEX
  8
0
  5
3CA8
 10
643.416
 20
38.7243
 30
-8.60000e-15
  70
    32
  0
VERTEX
  8
0
  5
3CA9
 10
643.402
 20
38.7268
 30
-8.60000e-15
  70
    32
  0
VERTEX
  8
0
  5
3CAA
 10
643.387
 20
38.7294
 30
-8.60000e-15
  70
    32
  0
VERTEX
  8
0
  5
3CAB
 10
643.372
 20
38.7320
 30
-8.60000e-15
  70
    32
  0
VERTEX
  8
0
  5
3CAC
 10
643.358
 20
38.7346
 30
-8.60000e-15
  70
    32
  0
VERTEX
  8
0
  5
3CAD
 10
643.343
 20
38.7373
 30
-8.60000e-15
  70
    32
  0
VERTEX
  8
0
  5
3CAE
 10
643.328
 20
38.7400
 30
-8.60000e-15
  70
    32
  0
VERTEX
  8
0
  5
3CAF
 10
643.313
 20
38.7428
 30
-8.60000e-15
  70
    32
  0
VERTEX
  8
0
  5
3CB0
 10
643.299
 20
38.7456
 30
-8.60000e-15
  70
    32
  0
VERTEX
  8
0
  5
3CB1
 10
643.284
 20
38.7484
 30
-8.60000e-15
  70
    32
  0
VERTEX
  8
0
  5
3CB2
 10
643.269
 20
38.7513
 30
-8.60000e-15
  70
    32
  0
VERTEX
  8
0
  5
3CB3
 10
643.254
 20
38.7543
 30
-8.60000e-15
  70
    32
  0
VERTEX
  8
0
  5
3CB4
 10
643.239
 20
38.7572
 30
-8.60000e-15
  70
    32
  0
VERTEX
  8
0
  5
3CB5
 10
643.225
 20
38.7602
 30
-8.60000e-15
  70
    32
  0
VERTEX
  8
0
  5
3CB6
 10
643.210
 20
38.7633
 30
-8.60000e-15
  70
    32
  0
VERTEX
  8
0
  5
3CB7
 10
643.195
 20
38.7664
 30
-8.60000e-15
  70
    32
  0
VERTEX
  8
0
  5
3CB8
 10
643.180
 20
38.7695
 30
-8.60000e-15
  70
    32
  0
VERTEX
  8
0
  5
3CB9
 10
643.165
 20
38.7727
 30
-8.60000e-15
  70
    32
  0
VERTEX
  8
0
  5
3CBA
 10
643.150
 20
38.7759
 30
-8.60000e-15
  70
    32
  0
VERTEX
  8
0
  5
3CBB
 10
643.135
 20
38.7792
 30
-8.60000e-15
  70
    32
  0
VERTEX
  8
0
  5
3CBC
 10
643.120
 20
38.7825
 30
-8.60000e-15
  70
    32
  0
VERTEX
  8
0
  5
3CBD
 10
643.105
 20
38.7859
 30
-8.60000e-15
  70
    32
  0
VERTEX
  8
0
  5
3CBE
 10
643.090
 20
38.7893
 30
-8.60000e-15
  70
    32
  0
VERTEX
  8
0
  5
3CBF
 10
643.075
 20
38.7927
 30
-8.60000e-15
  70
    32
  0
VERTEX
  8
0
  5
3CC0
 10
643.059
 20
38.7962
 30
-8.60003e-15
  70
    32
  0
VERTEX
  8
0
  5
3CC1
 10
643.044
 20
38.7997
 30
-8.60015e-15
  70
    32
  0
VERTEX
  8
0
  5
3CC2
 10
643.029
 20
38.8032
 30
-8.60035e-15
  70
    32
  0
VERTEX
  8
0
  5
3CC3
 10
643.014
 20
38.8068
 30
-8.60063e-15
  70
    32
  0
VERTEX
  8
0
  5
3CC4
 10
642.999
 20
38.8105
 30
-8.60099e-15
  70
    32
  0
VERTEX
  8
0
  5
3CC5
 10
642.984
 20
38.8142
 30
-8.60143e-15
  70
    32
  0
VERTEX
  8
0
  5
3CC6
 10
642.968
 20
38.8179
 30
-8.60194e-15
  70
    32
  0
VERTEX
  8
0
  5
3CC7
 10
642.953
 20
38.8217
 30
-8.60253e-15
  70
    32
  0
VERTEX
  8
0
  5
3CC8
 10
642.938
 20
38.8255
 30
-8.60319e-15
  70
    32
  0
VERTEX
  8
0
  5
3CC9
 10
642.922
 20
38.8293
 30
-8.60392e-15
  70
    32
  0
VERTEX
  8
0
  5
3CCA
 10
642.907
 20
38.8332
 30
-8.60471e-15
  70
    32
  0
VERTEX
  8
0
  5
3CCB
 10
642.892
 20
38.8371
 30
-8.60557e-15
  70
    32
  0
VERTEX
  8
0
  5
3CCC
 10
642.876
 20
38.8411
 30
-8.60650e-15
  70
    32
  0
VERTEX
  8
0
  5
3CCD
 10
642.861
 20
38.8451
 30
-8.60748e-15
  70
    32
  0
VERTEX
  8
0
  5
3CCE
 10
642.846
 20
38.8492
 30
-8.60852e-15
  70
    32
  0
VERTEX
  8
0
  5
3CCF
 10
642.830
 20
38.8533
 30
-8.60962e-15
  70
    32
  0
VERTEX
  8
0
  5
3CD0
 10
642.815
 20
38.8574
 30
-8.61077e-15
  70
    32
  0
VERTEX
  8
0
  5
3CD1
 10
642.799
 20
38.8616
 30
-8.61197e-15
  70
    32
  0
VERTEX
  8
0
  5
3CD2
 10
642.784
 20
38.8658
 30
-8.61323e-15
  70
    32
  0
VERTEX
  8
0
  5
3CD3
 10
642.768
 20
38.8700
 30
-8.61453e-15
  70
    32
  0
VERTEX
  8
0
  5
3CD4
 10
642.753
 20
38.8743
 30
-8.61588e-15
  70
    32
  0
VERTEX
  8
0
  5
3CD5
 10
642.737
 20
38.8787
 30
-8.61727e-15
  70
    32
  0
VERTEX
  8
0
  5
3CD6
 10
642.722
 20
38.8830
 30
-8.61870e-15
  70
    32
  0
VERTEX
  8
0
  5
3CD7
 10
642.706
 20
38.8874
 30
-8.62017e-15
  70
    32
  0
VERTEX
  8
0
  5
3CD8
 10
642.691
 20
38.8919
 30
-8.62168e-15
  70
    32
  0
VERTEX
  8
0
  5
3CD9
 10
642.675
 20
38.8964
 30
-8.62322e-15
  70
    32
  0
VERTEX
  8
0
  5
3CDA
 10
642.659
 20
38.9009
 30
-8.62480e-15
  70
    32
  0
VERTEX
  8
0
  5
3CDB
 10
642.644
 20
38.9055
 30
-8.62640e-15
  70
    32
  0
VERTEX
  8
0
  5
3CDC
 10
642.628
 20
38.9101
 30
-8.62804e-15
  70
    32
  0
VERTEX
  8
0
  5
3CDD
 10
642.612
 20
38.9148
 30
-8.62970e-15
  70
    32
  0
VERTEX
  8
0
  5
3CDE
 10
642.597
 20
38.9194
 30
-8.63139e-15
  70
    32
  0
VERTEX
  8
0
  5
3CDF
 10
642.581
 20
38.9242
 30
-8.63310e-15
  70
    32
  0
VERTEX
  8
0
  5
3CE0
 10
642.565
 20
38.9289
 30
-8.63483e-15
  70
    32
  0
VERTEX
  8
0
  5
3CE1
 10
642.550
 20
38.9337
 30
-8.63657e-15
  70
    32
  0
VERTEX
  8
0
  5
3CE2
 10
642.534
 20
38.9386
 30
-8.63834e-15
  70
    32
  0
VERTEX
  8
0
  5
3CE3
 10
642.518
 20
38.9435
 30
-8.64011e-15
  70
    32
  0
VERTEX
  8
0
  5
3CE4
 10
642.502
 20
38.9484
 30
-8.64190e-15
  70
    32
  0
VERTEX
  8
0
  5
3CE5
 10
642.487
 20
38.9534
 30
-8.64370e-15
  70
    32
  0
VERTEX
  8
0
  5
3CE6
 10
642.471
 20
38.9584
 30
-8.64550e-15
  70
    32
  0
VERTEX
  8
0
  5
3CE7
 10
642.455
 20
38.9634
 30
-8.64732e-15
  70
    32
  0
VERTEX
  8
0
  5
3CE8
 10
642.439
 20
38.9685
 30
-8.64913e-15
  70
    32
  0
VERTEX
  8
0
  5
3CE9
 10
642.423
 20
38.9736
 30
-8.65094e-15
  70
    32
  0
VERTEX
  8
0
  5
3CEA
 10
642.407
 20
38.9787
 30
-8.65276e-15
  70
    32
  0
VERTEX
  8
0
  5
3CEB
 10
642.392
 20
38.9839
 30
-8.65457e-15
  70
    32
  0
VERTEX
  8
0
  5
3CEC
 10
642.376
 20
38.9891
 30
-8.65637e-15
  70
    32
  0
VERTEX
  8
0
  5
3CED
 10
642.360
 20
38.9944
 30
-8.65817e-15
  70
    32
  0
VERTEX
  8
0
  5
3CEE
 10
642.344
 20
38.9997
 30
-8.65996e-15
  70
    32
  0
VERTEX
  8
0
  5
3CEF
 10
642.328
 20
39.0050
 30
-8.66173e-15
  70
    32
  0
VERTEX
  8
0
  5
3CF0
 10
642.312
 20
39.0104
 30
-8.66350e-15
  70
    32
  0
VERTEX
  8
0
  5
3CF1
 10
642.296
 20
39.0158
 30
-8.66524e-15
  70
    32
  0
VERTEX
  8
0
  5
3CF2
 10
642.280
 20
39.0213
 30
-8.66697e-15
  70
    32
  0
VERTEX
  8
0
  5
3CF3
 10
642.264
 20
39.0268
 30
-8.66868e-15
  70
    32
  0
VERTEX
  8
0
  5
3CF4
 10
642.248
 20
39.0323
 30
-8.67037e-15
  70
    32
  0
VERTEX
  8
0
  5
3CF5
 10
642.232
 20
39.0379
 30
-8.67203e-15
  70
    32
  0
VERTEX
  8
0
  5
3CF6
 10
642.216
 20
39.0435
 30
-8.67366e-15
  70
    32
  0
VERTEX
  8
0
  5
3CF7
 10
642.200
 20
39.0491
 30
-8.67527e-15
  70
    32
  0
VERTEX
  8
0
  5
3CF8
 10
642.184
 20
39.0548
 30
-8.67684e-15
  70
    32
  0
VERTEX
  8
0
  5
3CF9
 10
642.168
 20
39.0605
 30
-8.67838e-15
  70
    32
  0
VERTEX
  8
0
  5
3CFA
 10
642.152
 20
39.0662
 30
-8.67989e-15
  70
    32
  0
VERTEX
  8
0
  5
3CFB
 10
642.136
 20
39.0720
 30
-8.68136e-15
  70
    32
  0
VERTEX
  8
0
  5
3CFC
 10
642.120
 20
39.0778
 30
-8.68279e-15
  70
    32
  0
VERTEX
  8
0
  5
3CFD
 10
642.104
 20
39.0837
 30
-8.68418e-15
  70
    32
  0
VERTEX
  8
0
  5
3CFE
 10
642.088
 20
39.0895
 30
-8.68552e-15
  70
    32
  0
VERTEX
  8
0
  5
3CFF
 10
642.072
 20
39.0955
 30
-8.68682e-15
  70
    32
  0
VERTEX
  8
0
  5
3D00
 10
642.056
 20
39.1014
 30
-8.68808e-15
  70
    32
  0
VERTEX
  8
0
  5
3D01
 10
642.039
 20
39.1074
 30
-8.68928e-15
  70
    32
  0
VERTEX
  8
0
  5
3D02
 10
642.023
 20
39.1135
 30
-8.69043e-15
  70
    32
  0
VERTEX
  8
0
  5
3D03
 10
642.007
 20
39.1195
 30
-8.69152e-15
  70
    32
  0
VERTEX
  8
0
  5
3D04
 10
641.991
 20
39.1256
 30
-8.69256e-15
  70
    32
  0
VERTEX
  8
0
  5
3D05
 10
641.975
 20
39.1318
 30
-8.69354e-15
  70
    32
  0
VERTEX
  8
0
  5
3D06
 10
641.959
 20
39.1379
 30
-8.69446e-15
  70
    32
  0
VERTEX
  8
0
  5
3D07
 10
641.942
 20
39.1442
 30
-8.69532e-15
  70
    32
  0
VERTEX
  8
0
  5
3D08
 10
641.926
 20
39.1504
 30
-8.69611e-15
  70
    32
  0
VERTEX
  8
0
  5
3D09
 10
641.910
 20
39.1567
 30
-8.69684e-15
  70
    32
  0
VERTEX
  8
0
  5
3D0A
 10
641.894
 20
39.1630
 30
-8.69749e-15
  70
    32
  0
VERTEX
  8
0
  5
3D0B
 10
641.878
 20
39.1693
 30
-8.69808e-15
  70
    32
  0
VERTEX
  8
0
  5
3D0C
 10
641.861
 20
39.1757
 30
-8.69859e-15
  70
    32
  0
VERTEX
  8
0
  5
3D0D
 10
641.845
 20
39.1821
 30
-8.69902e-15
  70
    32
  0
VERTEX
  8
0
  5
3D0E
 10
641.829
 20
39.1886
 30
-8.69938e-15
  70
    32
  0
VERTEX
  8
0
  5
3D0F
 10
641.813
 20
39.1951
 30
-8.69966e-15
  70
    32
  0
VERTEX
  8
0
  5
3D10
 10
641.796
 20
39.2016
 30
-8.69986e-15
  70
    32
  0
VERTEX
  8
0
  5
3D11
 10
641.780
 20
39.2082
 30
-8.69997e-15
  70
    32
  0
VERTEX
  8
0
  5
3D12
 10
641.764
 20
39.2147
 30
-8.70000e-15
  70
    32
  0
VERTEX
  8
0
  5
3D13
 10
641.748
 20
39.2214
 30
-8.70012e-15
  70
    32
  0
VERTEX
  8
0
  5
3D14
 10
641.731
 20
39.2280
 30
-8.70042e-15
  70
    32
  0
VERTEX
  8
0
  5
3D15
 10
641.715
 20
39.2347
 30
-8.70087e-15
  70
    32
  0
VERTEX
  8
0
  5
3D16
 10
641.699
 20
39.2414
 30
-8.70148e-15
  70
    32
  0
VERTEX
  8
0
  5
3D17
 10
641.682
 20
39.2482
 30
-8.70225e-15
  70
    32
  0
VERTEX
  8
0
  5
3D18
 10
641.666
 20
39.2550
 30
-8.70316e-15
  70
    32
  0
VERTEX
  8
0
  5
3D19
 10
641.650
 20
39.2618
 30
-8.70421e-15
  70
    32
  0
VERTEX
  8
0
  5
3D1A
 10
641.633
 20
39.2687
 30
-8.70539e-15
  70
    32
  0
VERTEX
  8
0
  5
3D1B
 10
641.617
 20
39.2756
 30
-8.70670e-15
  70
    32
  0
VERTEX
  8
0
  5
3D1C
 10
641.601
 20
39.2825
 30
-8.70813e-15
  70
    32
  0
VERTEX
  8
0
  5
3D1D
 10
641.584
 20
39.2894
 30
-8.70968e-15
  70
    32
  0
VERTEX
  8
0
  5
3D1E
 10
641.568
 20
39.2964
 30
-8.71133e-15
  70
    32
  0
VERTEX
  8
0
  5
3D1F
 10
641.552
 20
39.3035
 30
-8.71309e-15
  70
    32
  0
VERTEX
  8
0
  5
3D20
 10
641.535
 20
39.3105
 30
-8.71494e-15
  70
    32
  0
VERTEX
  8
0
  5
3D21
 10
641.519
 20
39.3176
 30
-8.71689e-15
  70
    32
  0
VERTEX
  8
0
  5
3D22
 10
641.503
 20
39.3247
 30
-8.71892e-15
  70
    32
  0
VERTEX
  8
0
  5
3D23
 10
641.486
 20
39.3319
 30
-8.72103e-15
  70
    32
  0
VERTEX
  8
0
  5
3D24
 10
641.470
 20
39.3390
 30
-8.72321e-15
  70
    32
  0
VERTEX
  8
0
  5
3D25
 10
641.454
 20
39.3462
 30
-8.72546e-15
  70
    32
  0
VERTEX
  8
0
  5
3D26
 10
641.437
 20
39.3535
 30
-8.72777e-15
  70
    32
  0
VERTEX
  8
0
  5
3D27
 10
641.421
 20
39.3608
 30
-8.73013e-15
  70
    32
  0
VERTEX
  8
0
  5
3D28
 10
641.404
 20
39.3681
 30
-8.73254e-15
  70
    32
  0
VERTEX
  8
0
  5
3D29
 10
641.388
 20
39.3754
 30
-8.73499e-15
  70
    32
  0
VERTEX
  8
0
  5
3D2A
 10
641.372
 20
39.3828
 30
-8.73748e-15
  70
    32
  0
VERTEX
  8
0
  5
3D2B
 10
641.355
 20
39.3902
 30
-8.74000e-15
  70
    32
  0
VERTEX
  8
0
  5
3D2C
 10
641.339
 20
39.3976
 30
-8.74254e-15
  70
    32
  0
VERTEX
  8
0
  5
3D2D
 10
641.322
 20
39.4050
 30
-8.74510e-15
  70
    32
  0
VERTEX
  8
0
  5
3D2E
 10
641.306
 20
39.4125
 30
-8.74767e-15
  70
    32
  0
VERTEX
  8
0
  5
3D2F
 10
641.290
 20
39.4200
 30
-8.75025e-15
  70
    32
  0
VERTEX
  8
0
  5
3D30
 10
641.273
 20
39.4276
 30
-8.75283e-15
  70
    32
  0
VERTEX
  8
0
  5
3D31
 10
641.257
 20
39.4352
 30
-8.75540e-15
  70
    32
  0
VERTEX
  8
0
  5
3D32
 10
641.240
 20
39.4428
 30
-8.75795e-15
  70
    32
  0
VERTEX
  8
0
  5
3D33
 10
641.224
 20
39.4504
 30
-8.76049e-15
  70
    32
  0
VERTEX
  8
0
  5
3D34
 10
641.207
 20
39.4581
 30
-8.76300e-15
  70
    32
  0
VERTEX
  8
0
  5
3D35
 10
641.191
 20
39.4658
 30
-8.76548e-15
  70
    32
  0
VERTEX
  8
0
  5
3D36
 10
641.175
 20
39.4735
 30
-8.76793e-15
  70
    32
  0
VERTEX
  8
0
  5
3D37
 10
641.158
 20
39.4812
 30
-8.77033e-15
  70
    32
  0
VERTEX
  8
0
  5
3D38
 10
641.142
 20
39.4890
 30
-8.77268e-15
  70
    32
  0
VERTEX
  8
0
  5
3D39
 10
641.125
 20
39.4968
 30
-8.77498e-15
  70
    32
  0
VERTEX
  8
0
  5
3D3A
 10
641.109
 20
39.5047
 30
-8.77722e-15
  70
    32
  0
VERTEX
  8
0
  5
3D3B
 10
641.092
 20
39.5125
 30
-8.77938e-15
  70
    32
  0
VERTEX
  8
0
  5
3D3C
 10
641.076
 20
39.5204
 30
-8.78148e-15
  70
    32
  0
VERTEX
  8
0
  5
3D3D
 10
641.060
 20
39.5283
 30
-8.78349e-15
  70
    32
  0
VERTEX
  8
0
  5
3D3E
 10
641.043
 20
39.5363
 30
-8.78542e-15
  70
    32
  0
VERTEX
  8
0
  5
3D3F
 10
641.027
 20
39.5443
 30
-8.78726e-15
  70
    32
  0
VERTEX
  8
0
  5
3D40
 10
641.010
 20
39.5523
 30
-8.78900e-15
  70
    32
  0
VERTEX
  8
0
  5
3D41
 10
640.994
 20
39.5603
 30
-8.79063e-15
  70
    32
  0
VERTEX
  8
0
  5
3D42
 10
640.977
 20
39.5683
 30
-8.79216e-15
  70
    32
  0
VERTEX
  8
0
  5
3D43
 10
640.961
 20
39.5764
 30
-8.79356e-15
  70
    32
  0
VERTEX
  8
0
  5
3D44
 10
640.945
 20
39.5845
 30
-8.79485e-15
  70
    32
  0
VERTEX
  8
0
  5
3D45
 10
640.928
 20
39.5927
 30
-8.79601e-15
  70
    32
  0
VERTEX
  8
0
  5
3D46
 10
640.912
 20
39.6008
 30
-8.79703e-15
  70
    32
  0
VERTEX
  8
0
  5
3D47
 10
640.895
 20
39.6090
 30
-8.79791e-15
  70
    32
  0
VERTEX
  8
0
  5
3D48
 10
640.879
 20
39.6172
 30
-8.79865e-15
  70
    32
  0
VERTEX
  8
0
  5
3D49
 10
640.862
 20
39.6255
 30
-8.79923e-15
  70
    32
  0
VERTEX
  8
0
  5
3D4A
 10
640.846
 20
39.6337
 30
-8.79965e-15
  70
    32
  0
VERTEX
  8
0
  5
3D4B
 10
640.830
 20
39.6420
 30
-8.79991e-15
  70
    32
  0
VERTEX
  8
0
  5
3D4C
 10
640.813
 20
39.6503
 30
-8.80000e-15
  70
    32
  0
SEQEND
  8
0
  5
3D4D
  0
POLYLINE
  8
0
  5
3D4E
  66
     1
 10
0.000000
 20
0.000000
 30
0.000000
  70
     8
  0
VERTEX
  8
0
  5
3D4F
 10
762.209
 20
39.6503
 30
-8.80000e-15
  70
    32
  0
VERTEX
  8
0
  5
3D50
 10
762.193
 20
39.6420
 30
-8.79991e-15
  70
    32
  0
VERTEX
  8
0
  5
3D51
 10
762.176
 20
39.6337
 30
-8.79965e-15
  70
    32
  0
VERTEX
  8
0
  5
3D52
 10
762.160
 20
39.6255
 30
-8.79923e-15
  70
    32
  0
VERTEX
  8
0
  5
3D53
 10
762.144
 20
39.6172
 30
-8.79865e-15
  70
    32
  0
VERTEX
  8
0
  5
3D54
 10
762.127
 20
39.6090
 30
-8.79791e-15
  70
    32
  0
VERTEX
  8
0
  5
3D55
 10
762.111
 20
39.6008
 30
-8.79703e-15
  70
    32
  0
VERTEX
  8
0
  5
3D56
 10
762.094
 20
39.5927
 30
-8.79601e-15
  70
    32
  0
VERTEX
  8
0
  5
3D57
 10
762.078
 20
39.5845
 30
-8.79485e-15
  70
    32
  0
VERTEX
  8
0
  5
3D58
 10
762.062
 20
39.5764
 30
-8.79356e-15
  70
    32
  0
VERTEX
  8
0
  5
3D59
 10
762.045
 20
39.5683
 30
-8.79216e-15
  70
    32
  0
VERTEX
  8
0
  5
3D5A
 10
762.029
 20
39.5603
 30
-8.79063e-15
  70
    32
  0
VERTEX
  8
0
  5
3D5B
 10
762.012
 20
39.5523
 30
-8.78900e-15
  70
    32
  0
VERTEX
  8
0
  5
3D5C
 10
761.996
 20
39.5443
 30
-8.78726e-15
  70
    32
  0
VERTEX
  8
0
  5
3D5D
 10
761.979
 20
39.5363
 30
-8.78542e-15
  70
    32
  0
VERTEX
  8
0
  5
3D5E
 10
761.963
 20
39.5283
 30
-8.78349e-15
  70
    32
  0
VERTEX
  8
0
  5
3D5F
 10
761.947
 20
39.5204
 30
-8.78148e-15
  70
    32
  0
VERTEX
  8
0
  5
3D60
 10
761.930
 20
39.5125
 30
-8.77938e-15
  70
    32
  0
VERTEX
  8
0
  5
3D61
 10
761.914
 20
39.5047
 30
-8.77722e-15
  70
    32
  0
VERTEX
  8
0
  5
3D62
 10
761.897
 20
39.4968
 30
-8.77498e-15
  70
    32
  0
VERTEX
  8
0
  5
3D63
 10
761.881
 20
39.4890
 30
-8.77268e-15
  70
    32
  0
VERTEX
  8
0
  5
3D64
 10
761.864
 20
39.4812
 30
-8.77033e-15
  70
    32
  0
VERTEX
  8
0
  5
3D65
 10
761.848
 20
39.4735
 30
-8.76793e-15
  70
    32
  0
VERTEX
  8
0
  5
3D66
 10
761.832
 20
39.4658
 30
-8.76548e-15
  70
    32
  0
VERTEX
  8
0
  5
3D67
 10
761.815
 20
39.4581
 30
-8.76300e-15
  70
    32
  0
VERTEX
  8
0
  5
3D68
 10
761.799
 20
39.4504
 30
-8.76049e-15
  70
    32
  0
VERTEX
  8
0
  5
3D69
 10
761.782
 20
39.4428
 30
-8.75795e-15
  70
    32
  0
VERTEX
  8
0
  5
3D6A
 10
761.766
 20
39.4352
 30
-8.75540e-15
  70
    32
  0
VERTEX
  8
0
  5
3D6B
 10
761.749
 20
39.4276
 30
-8.75283e-15
  70
    32
  0
VERTEX
  8
0
  5
3D6C
 10
761.733
 20
39.4200
 30
-8.75025e-15
  70
    32
  0
VERTEX
  8
0
  5
3D6D
 10
761.717
 20
39.4125
 30
-8.74767e-15
  70
    32
  0
VERTEX
  8
0
  5
3D6E
 10
761.700
 20
39.4050
 30
-8.74510e-15
  70
    32
  0
VERTEX
  8
0
  5
3D6F
 10
761.684
 20
39.3976
 30
-8.74254e-15
  70
    32
  0
VERTEX
  8
0
  5
3D70
 10
761.667
 20
39.3902
 30
-8.74000e-15
  70
    32
  0
VERTEX
  8
0
  5
3D71
 10
761.651
 20
39.3828
 30
-8.73748e-15
  70
    32
  0
VERTEX
  8
0
  5
3D72
 10
761.635
 20
39.3754
 30
-8.73499e-15
  70
    32
  0
VERTEX
  8
0
  5
3D73
 10
761.618
 20
39.3681
 30
-8.73254e-15
  70
    32
  0
VERTEX
  8
0
  5
3D74
 10
761.602
 20
39.3608
 30
-8.73013e-15
  70
    32
  0
VERTEX
  8
0
  5
3D75
 10
761.585
 20
39.3535
 30
-8.72777e-15
  70
    32
  0
VERTEX
  8
0
  5
3D76
 10
761.569
 20
39.3462
 30
-8.72546e-15
  70
    32
  0
VERTEX
  8
0
  5
3D77
 10
761.553
 20
39.3390
 30
-8.72321e-15
  70
    32
  0
VERTEX
  8
0
  5
3D78
 10
761.536
 20
39.3319
 30
-8.72103e-15
  70
    32
  0
VERTEX
  8
0
  5
3D79
 10
761.520
 20
39.3247
 30
-8.71892e-15
  70
    32
  0
VERTEX
  8
0
  5
3D7A
 10
761.503
 20
39.3176
 30
-8.71689e-15
  70
    32
  0
VERTEX
  8
0
  5
3D7B
 10
761.487
 20
39.3105
 30
-8.71494e-15
  70
    32
  0
VERTEX
  8
0
  5
3D7C
 10
761.471
 20
39.3035
 30
-8.71309e-15
  70
    32
  0
VERTEX
  8
0
  5
3D7D
 10
761.454
 20
39.2964
 30
-8.71133e-15
  70
    32
  0
VERTEX
  8
0
  5
3D7E
 10
761.438
 20
39.2894
 30
-8.70968e-15
  70
    32
  0
VERTEX
  8
0
  5
3D7F
 10
761.422
 20
39.2825
 30
-8.70813e-15
  70
    32
  0
VERTEX
  8
0
  5
3D80
 10
761.405
 20
39.2756
 30
-8.70670e-15
  70
    32
  0
VERTEX
  8
0
  5
3D81
 10
761.389
 20
39.2687
 30
-8.70539e-15
  70
    32
  0
VERTEX
  8
0
  5
3D82
 10
761.373
 20
39.2618
 30
-8.70421e-15
  70
    32
  0
VERTEX
  8
0
  5
3D83
 10
761.356
 20
39.2550
 30
-8.70316e-15
  70
    32
  0
VERTEX
  8
0
  5
3D84
 10
761.340
 20
39.2482
 30
-8.70225e-15
  70
    32
  0
VERTEX
  8
0
  5
3D85
 10
761.324
 20
39.2414
 30
-8.70148e-15
  70
    32
  0
VERTEX
  8
0
  5
3D86
 10
761.308
 20
39.2347
 30
-8.70087e-15
  70
    32
  0
VERTEX
  8
0
  5
3D87
 10
761.291
 20
39.2280
 30
-8.70042e-15
  70
    32
  0
VERTEX
  8
0
  5
3D88
 10
761.275
 20
39.2214
 30
-8.70012e-15
  70
    32
  0
VERTEX
  8
0
  5
3D89
 10
761.259
 20
39.2147
 30
-8.70000e-15
  70
    32
  0
VERTEX
  8
0
  5
3D8A
 10
761.242
 20
39.2082
 30
-8.69997e-15
  70
    32
  0
VERTEX
  8
0
  5
3D8B
 10
761.226
 20
39.2016
 30
-8.69986e-15
  70
    32
  0
VERTEX
  8
0
  5
3D8C
 10
761.210
 20
39.1951
 30
-8.69966e-15
  70
    32
  0
VERTEX
  8
0
  5
3D8D
 10
761.194
 20
39.1886
 30
-8.69938e-15
  70
    32
  0
VERTEX
  8
0
  5
3D8E
 10
761.177
 20
39.1821
 30
-8.69902e-15
  70
    32
  0
VERTEX
  8
0
  5
3D8F
 10
761.161
 20
39.1757
 30
-8.69859e-15
  70
    32
  0
VERTEX
  8
0
  5
3D90
 10
761.145
 20
39.1693
 30
-8.69808e-15
  70
    32
  0
VERTEX
  8
0
  5
3D91
 10
761.129
 20
39.1630
 30
-8.69749e-15
  70
    32
  0
VERTEX
  8
0
  5
3D92
 10
761.113
 20
39.1567
 30
-8.69684e-15
  70
    32
  0
VERTEX
  8
0
  5
3D93
 10
761.096
 20
39.1504
 30
-8.69611e-15
  70
    32
  0
VERTEX
  8
0
  5
3D94
 10
761.080
 20
39.1442
 30
-8.69532e-15
  70
    32
  0
VERTEX
  8
0
  5
3D95
 10
761.064
 20
39.1379
 30
-8.69446e-15
  70
    32
  0
VERTEX
  8
0
  5
3D96
 10
761.048
 20
39.1318
 30
-8.69354e-15
  70
    32
  0
VERTEX
  8
0
  5
3D97
 10
761.032
 20
39.1256
 30
-8.69256e-15
  70
    32
  0
VERTEX
  8
0
  5
3D98
 10
761.015
 20
39.1195
 30
-8.69152e-15
  70
    32
  0
VERTEX
  8
0
  5
3D99
 10
760.999
 20
39.1135
 30
-8.69043e-15
  70
    32
  0
VERTEX
  8
0
  5
3D9A
 10
760.983
 20
39.1074
 30
-8.68928e-15
  70
    32
  0
VERTEX
  8
0
  5
3D9B
 10
760.967
 20
39.1014
 30
-8.68808e-15
  70
    32
  0
VERTEX
  8
0
  5
3D9C
 10
760.951
 20
39.0955
 30
-8.68682e-15
  70
    32
  0
VERTEX
  8
0
  5
3D9D
 10
760.935
 20
39.0895
 30
-8.68552e-15
  70
    32
  0
VERTEX
  8
0
  5
3D9E
 10
760.919
 20
39.0837
 30
-8.68418e-15
  70
    32
  0
VERTEX
  8
0
  5
3D9F
 10
760.903
 20
39.0778
 30
-8.68279e-15
  70
    32
  0
VERTEX
  8
0
  5
3DA0
 10
760.887
 20
39.0720
 30
-8.68136e-15
  70
    32
  0
VERTEX
  8
0
  5
3DA1
 10
760.870
 20
39.0662
 30
-8.67989e-15
  70
    32
  0
VERTEX
  8
0
  5
3DA2
 10
760.854
 20
39.0605
 30
-8.67838e-15
  70
    32
  0
VERTEX
  8
0
  5
3DA3
 10
760.838
 20
39.0548
 30
-8.67684e-15
  70
    32
  0
VERTEX
  8
0
  5
3DA4
 10
760.822
 20
39.0491
 30
-8.67527e-15
  70
    32
  0
VERTEX
  8
0
  5
3DA5
 10
760.806
 20
39.0435
 30
-8.67366e-15
  70
    32
  0
VERTEX
  8
0
  5
3DA6
 10
760.790
 20
39.0379
 30
-8.67203e-15
  70
    32
  0
VERTEX
  8
0
  5
3DA7
 10
760.774
 20
39.0323
 30
-8.67037e-15
  70
    32
  0
VERTEX
  8
0
  5
3DA8
 10
760.758
 20
39.0268
 30
-8.66868e-15
  70
    32
  0
VERTEX
  8
0
  5
3DA9
 10
760.742
 20
39.0213
 30
-8.66697e-15
  70
    32
  0
VERTEX
  8
0
  5
3DAA
 10
760.726
 20
39.0158
 30
-8.66524e-15
  70
    32
  0
VERTEX
  8
0
  5
3DAB
 10
760.710
 20
39.0104
 30
-8.66350e-15
  70
    32
  0
VERTEX
  8
0
  5
3DAC
 10
760.695
 20
39.0050
 30
-8.66173e-15
  70
    32
  0
VERTEX
  8
0
  5
3DAD
 10
760.679
 20
38.9997
 30
-8.65996e-15
  70
    32
  0
VERTEX
  8
0
  5
3DAE
 10
760.663
 20
38.9944
 30
-8.65817e-15
  70
    32
  0
VERTEX
  8
0
  5
3DAF
 10
760.647
 20
38.9891
 30
-8.65637e-15
  70
    32
  0
VERTEX
  8
0
  5
3DB0
 10
760.631
 20
38.9839
 30
-8.65457e-15
  70
    32
  0
VERTEX
  8
0
  5
3DB1
 10
760.615
 20
38.9787
 30
-8.65276e-15
  70
    32
  0
VERTEX
  8
0
  5
3DB2
 10
760.599
 20
38.9736
 30
-8.65094e-15
  70
    32
  0
VERTEX
  8
0
  5
3DB3
 10
760.583
 20
38.9685
 30
-8.64913e-15
  70
    32
  0
VERTEX
  8
0
  5
3DB4
 10
760.568
 20
38.9634
 30
-8.64732e-15
  70
    32
  0
VERTEX
  8
0
  5
3DB5
 10
760.552
 20
38.9584
 30
-8.64550e-15
  70
    32
  0
VERTEX
  8
0
  5
3DB6
 10
760.536
 20
38.9534
 30
-8.64370e-15
  70
    32
  0
VERTEX
  8
0
  5
3DB7
 10
760.520
 20
38.9484
 30
-8.64190e-15
  70
    32
  0
VERTEX
  8
0
  5
3DB8
 10
760.504
 20
38.9435
 30
-8.64011e-15
  70
    32
  0
VERTEX
  8
0
  5
3DB9
 10
760.489
 20
38.9386
 30
-8.63834e-15
  70
    32
  0
VERTEX
  8
0
  5
3DBA
 10
760.473
 20
38.9337
 30
-8.63657e-15
  70
    32
  0
VERTEX
  8
0
  5
3DBB
 10
760.457
 20
38.9289
 30
-8.63483e-15
  70
    32
  0
VERTEX
  8
0
  5
3DBC
 10
760.441
 20
38.9242
 30
-8.63310e-15
  70
    32
  0
VERTEX
  8
0
  5
3DBD
 10
760.426
 20
38.9194
 30
-8.63139e-15
  70
    32
  0
VERTEX
  8
0
  5
3DBE
 10
760.410
 20
38.9148
 30
-8.62970e-15
  70
    32
  0
VERTEX
  8
0
  5
3DBF
 10
760.394
 20
38.9101
 30
-8.62804e-15
  70
    32
  0
VERTEX
  8
0
  5
3DC0
 10
760.379
 20
38.9055
 30
-8.62640e-15
  70
    32
  0
VERTEX
  8
0
  5
3DC1
 10
760.363
 20
38.9009
 30
-8.62480e-15
  70
    32
  0
VERTEX
  8
0
  5
3DC2
 10
760.348
 20
38.8964
 30
-8.62322e-15
  70
    32
  0
VERTEX
  8
0
  5
3DC3
 10
760.332
 20
38.8919
 30
-8.62168e-15
  70
    32
  0
VERTEX
  8
0
  5
3DC4
 10
760.316
 20
38.8874
 30
-8.62017e-15
  70
    32
  0
VERTEX
  8
0
  5
3DC5
 10
760.301
 20
38.8830
 30
-8.61870e-15
  70
    32
  0
VERTEX
  8
0
  5
3DC6
 10
760.285
 20
38.8787
 30
-8.61727e-15
  70
    32
  0
VERTEX
  8
0
  5
3DC7
 10
760.270
 20
38.8743
 30
-8.61588e-15
  70
    32
  0
VERTEX
  8
0
  5
3DC8
 10
760.254
 20
38.8700
 30
-8.61453e-15
  70
    32
  0
VERTEX
  8
0
  5
3DC9
 10
760.239
 20
38.8658
 30
-8.61323e-15
  70
    32
  0
VERTEX
  8
0
  5
3DCA
 10
760.223
 20
38.8616
 30
-8.61197e-15
  70
    32
  0
VERTEX
  8
0
  5
3DCB
 10
760.208
 20
38.8574
 30
-8.61077e-15
  70
    32
  0
VERTEX
  8
0
  5
3DCC
 10
760.192
 20
38.8533
 30
-8.60962e-15
  70
    32
  0
VERTEX
  8
0
  5
3DCD
 10
760.177
 20
38.8492
 30
-8.60852e-15
  70
    32
  0
VERTEX
  8
0
  5
3DCE
 10
760.162
 20
38.8451
 30
-8.60748e-15
  70
    32
  0
VERTEX
  8
0
  5
3DCF
 10
760.146
 20
38.8411
 30
-8.60650e-15
  70
    32
  0
VERTEX
  8
0
  5
3DD0
 10
760.131
 20
38.8371
 30
-8.60557e-15
  70
    32
  0
VERTEX
  8
0
  5
3DD1
 10
760.115
 20
38.8332
 30
-8.60471e-15
  70
    32
  0
VERTEX
  8
0
  5
3DD2
 10
760.100
 20
38.8293
 30
-8.60392e-15
  70
    32
  0
VERTEX
  8
0
  5
3DD3
 10
760.085
 20
38.8255
 30
-8.60319e-15
  70
    32
  0
VERTEX
  8
0
  5
3DD4
 10
760.070
 20
38.8217
 30
-8.60253e-15
  70
    32
  0
VERTEX
  8
0
  5
3DD5
 10
760.054
 20
38.8179
 30
-8.60194e-15
  70
    32
  0
VERTEX
  8
0
  5
3DD6
 10
760.039
 20
38.8142
 30
-8.60143e-15
  70
    32
  0
VERTEX
  8
0
  5
3DD7
 10
760.024
 20
38.8105
 30
-8.60099e-15
  70
    32
  0
VERTEX
  8
0
  5
3DD8
 10
760.009
 20
38.8068
 30
-8.60063e-15
  70
    32
  0
VERTEX
  8
0
  5
3DD9
 10
759.993
 20
38.8032
 30
-8.60035e-15
  70
    32
  0
VERTEX
  8
0
  5
3DDA
 10
759.978
 20
38.7997
 30
-8.60015e-15
  70
    32
  0
VERTEX
  8
0
  5
3DDB
 10
759.963
 20
38.7962
 30
-8.60003e-15
  70
    32
  0
VERTEX
  8
0
  5
3DDC
 10
759.948
 20
38.7927
 30
-8.60000e-15
  70
    32
  0
VERTEX
  8
0
  5
3DDD
 10
759.933
 20
38.7893
 30
-8.60000e-15
  70
    32
  0
VERTEX
  8
0
  5
3DDE
 10
759.918
 20
38.7859
 30
-8.60000e-15
  70
    32
  0
VERTEX
  8
0
  5
3DDF
 10
759.903
 20
38.7825
 30
-8.60000e-15
  70
    32
  0
VERTEX
  8
0
  5
3DE0
 10
759.888
 20
38.7792
 30
-8.60000e-15
  70
    32
  0
VERTEX
  8
0
  5
3DE1
 10
759.873
 20
38.7759
 30
-8.60000e-15
  70
    32
  0
VERTEX
  8
0
  5
3DE2
 10
759.858
 20
38.7727
 30
-8.60000e-15
  70
    32
  0
VERTEX
  8
0
  5
3DE3
 10
759.843
 20
38.7695
 30
-8.60000e-15
  70
    32
  0
VERTEX
  8
0
  5
3DE4
 10
759.828
 20
38.7664
 30
-8.60000e-15
  70
    32
  0
VERTEX
  8
0
  5
3DE5
 10
759.813
 20
38.7633
 30
-8.60000e-15
  70
    32
  0
VERTEX
  8
0
  5
3DE6
 10
759.798
 20
38.7602
 30
-8.60000e-15
  70
    32
  0
VERTEX
  8
0
  5
3DE7
 10
759.783
 20
38.7572
 30
-8.60000e-15
  70
    32
  0
VERTEX
  8
0
  5
3DE8
 10
759.768
 20
38.7543
 30
-8.60000e-15
  70
    32
  0
VERTEX
  8
0
  5
3DE9
 10
759.753
 20
38.7513
 30
-8.60000e-15
  70
    32
  0
VERTEX
  8
0
  5
3DEA
 10
759.739
 20
38.7484
 30
-8.60000e-15
  70
    32
  0
VERTEX
  8
0
  5
3DEB
 10
759.724
 20
38.7456
 30
-8.60000e-15
  70
    32
  0
VERTEX
  8
0
  5
3DEC
 10
759.709
 20
38.7428
 30
-8.60000e-15
  70
    32
  0
VERTEX
  8
0
  5
3DED
 10
759.694
 20
38.7400
 30
-8.60000e-15
  70
    32
  0
VERTEX
  8
0
  5
3DEE
 10
759.680
 20
38.7373
 30
-8.60000e-15
  70
    32
  0
VERTEX
  8
0
  5
3DEF
 10
759.665
 20
38.7346
 30
-8.60000e-15
  70
    32
  0
VERTEX
  8
0
  5
3DF0
 10
759.650
 20
38.7320
 30
-8.60000e-15
  70
    32
  0
VERTEX
  8
0
  5
3DF1
 10
759.636
 20
38.7294
 30
-8.60000e-15
  70
    32
  0
VERTEX
  8
0
  5
3DF2
 10
759.621
 20
38.7268
 30
-8.60000e-15
  70
    32
  0
VERTEX
  8
0
  5
3DF3
 10
759.606
 20
38.7243
 30
-8.60000e-15
  70
    32
  0
VERTEX
  8
0
  5
3DF4
 10
759.592
 20
38.7219
 30
-8.60000e-15
  70
    32
  0
VERTEX
  8
0
  5
3DF5
 10
759.577
 20
38.7194
 30
-8.60000e-15
  70
    32
  0
VERTEX
  8
0
  5
3DF6
 10
759.563
 20
38.7171
 30
-8.60000e-15
  70
    32
  0
VERTEX
  8
0
  5
3DF7
 10
759.548
 20
38.7147
 30
-8.60000e-15
  70
    32
  0
VERTEX
  8
0
  5
3DF8
 10
759.534
 20
38.7124
 30
-8.60000e-15
  70
    32
  0
VERTEX
  8
0
  5
3DF9
 10
759.519
 20
38.7102
 30
-8.60000e-15
  70
    32
  0
VERTEX
  8
0
  5
3DFA
 10
759.505
 20
38.7079
 30
-8.60000e-15
  70
    32
  0
VERTEX
  8
0
  5
3DFB
 10
759.491
 20
38.7058
 30
-8.60000e-15
  70
    32
  0
VERTEX
  8
0
  5
3DFC
 10
759.476
 20
38.7036
 30
-8.60000e-15
  70
    32
  0
VERTEX
  8
0
  5
3DFD
 10
759.462
 20
38.7015
 30
-8.60000e-15
  70
    32
  0
VERTEX
  8
0
  5
3DFE
 10
759.447
 20
38.6995
 30
-8.60000e-15
  70
    32
  0
VERTEX
  8
0
  5
3DFF
 10
759.433
 20
38.6975
 30
-8.60000e-15
  70
    32
  0
VERTEX
  8
0
  5
3E00
 10
759.419
 20
38.6955
 30
-8.60000e-15
  70
    32
  0
VERTEX
  8
0
  5
3E01
 10
759.405
 20
38.6936
 30
-8.60000e-15
  70
    32
  0
VERTEX
  8
0
  5
3E02
 10
759.390
 20
38.6917
 30
-8.60000e-15
  70
    32
  0
VERTEX
  8
0
  5
3E03
 10
759.376
 20
38.6899
 30
-8.60000e-15
  70
    32
  0
VERTEX
  8
0
  5
3E04
 10
759.362
 20
38.6881
 30
-8.60000e-15
  70
    32
  0
VERTEX
  8
0
  5
3E05
 10
759.348
 20
38.6863
 30
-8.60000e-15
  70
    32
  0
VERTEX
  8
0
  5
3E06
 10
759.334
 20
38.6846
 30
-8.60000e-15
  70
    32
  0
VERTEX
  8
0
  5
3E07
 10
759.320
 20
38.6829
 30
-8.60000e-15
  70
    32
  0
VERTEX
  8
0
  5
3E08
 10
759.306
 20
38.6813
 30
-8.60000e-15
  70
    32
  0
VERTEX
  8
0
  5
3E09
 10
759.292
 20
38.6797
 30
-8.60000e-15
  70
    32
  0
VERTEX
  8
0
  5
3E0A
 10
759.278
 20
38.6782
 30
-8.60000e-15
  70
    32
  0
VERTEX
  8
0
  5
3E0B
 10
759.264
 20
38.6767
 30
-8.60000e-15
  70
    32
  0
VERTEX
  8
0
  5
3E0C
 10
759.250
 20
38.6752
 30
-8.60000e-15
  70
    32
  0
VERTEX
  8
0
  5
3E0D
 10
759.236
 20
38.6738
 30
-8.60000e-15
  70
    32
  0
VERTEX
  8
0
  5
3E0E
 10
759.222
 20
38.6724
 30
-8.60000e-15
  70
    32
  0
VERTEX
  8
0
  5
3E0F
 10
759.208
 20
38.6711
 30
-8.60000e-15
  70
    32
  0
VERTEX
  8
0
  5
3E10
 10
759.194
 20
38.6698
 30
-8.60000e-15
  70
    32
  0
VERTEX
  8
0
  5
3E11
 10
759.181
 20
38.6685
 30
-8.60000e-15
  70
    32
  0
VERTEX
  8
0
  5
3E12
 10
759.167
 20
38.6673
 30
-8.60000e-15
  70
    32
  0
VERTEX
  8
0
  5
3E13
 10
759.153
 20
38.6661
 30
-8.60000e-15
  70
    32
  0
VERTEX
  8
0
  5
3E14
 10
759.139
 20
38.6650
 30
-8.60000e-15
  70
    32
  0
VERTEX
  8
0
  5
3E15
 10
759.126
 20
38.6639
 30
-8.60000e-15
  70
    32
  0
VERTEX
  8
0
  5
3E16
 10
759.112
 20
38.6629
 30
-8.60000e-15
  70
    32
  0
VERTEX
  8
0
  5
3E17
 10
759.098
 20
38.6619
 30
-8.60000e-15
  70
    32
  0
VERTEX
  8
0
  5
3E18
 10
759.085
 20
38.6609
 30
-8.60000e-15
  70
    32
  0
VERTEX
  8
0
  5
3E19
 10
759.071
 20
38.6600
 30
-8.60000e-15
  70
    32
  0
VERTEX
  8
0
  5
3E1A
 10
759.058
 20
38.6591
 30
-8.60000e-15
  70
    32
  0
VERTEX
  8
0
  5
3E1B
 10
759.044
 20
38.6583
 30
-8.60000e-15
  70
    32
  0
VERTEX
  8
0
  5
3E1C
 10
759.031
 20
38.6575
 30
-8.60000e-15
  70
    32
  0
VERTEX
  8
0
  5
3E1D
 10
759.017
 20
38.6567
 30
-8.60000e-15
  70
    32
  0
VERTEX
  8
0
  5
3E1E
 10
759.004
 20
38.6560
 30
-8.60000e-15
  70
    32
  0
VERTEX
  8
0
  5
3E1F
 10
758.990
 20
38.6554
 30
-8.60000e-15
  70
    32
  0
VERTEX
  8
0
  5
3E20
 10
758.977
 20
38.6547
 30
-8.60000e-15
  70
    32
  0
VERTEX
  8
0
  5
3E21
 10
758.964
 20
38.6542
 30
-8.60000e-15
  70
    32
  0
VERTEX
  8
0
  5
3E22
 10
758.950
 20
38.6536
 30
-8.60000e-15
  70
    32
  0
VERTEX
  8
0
  5
3E23
 10
758.937
 20
38.6531
 30
-8.60000e-15
  70
    32
  0
VERTEX
  8
0
  5
3E24
 10
758.924
 20
38.6526
 30
-8.60000e-15
  70
    32
  0
VERTEX
  8
0
  5
3E25
 10
758.911
 20
38.6522
 30
-8.60000e-15
  70
    32
  0
VERTEX
  8
0
  5
3E26
 10
758.898
 20
38.6519
 30
-8.60000e-15
  70
    32
  0
VERTEX
  8
0
  5
3E27
 10
758.884
 20
38.6515
 30
-8.60000e-15
  70
    32
  0
VERTEX
  8
0
  5
3E28
 10
758.871
 20
38.6512
 30
-8.60000e-15
  70
    32
  0
VERTEX
  8
0
  5
3E29
 10
758.858
 20
38.6510
 30
-8.60000e-15
  70
    32
  0
VERTEX
  8
0
  5
3E2A
 10
758.845
 20
38.6508
 30
-8.60000e-15
  70
    32
  0
VERTEX
  8
0
  5
3E2B
 10
758.832
 20
38.6506
 30
-8.60000e-15
  70
    32
  0
VERTEX
  8
0
  5
3E2C
 10
758.819
 20
38.6505
 30
-8.60000e-15
  70
    32
  0
VERTEX
  8
0
  5
3E2D
 10
758.806
 20
38.6504
 30
-8.60000e-15
  70
    32
  0
VERTEX
  8
0
  5
3E2E
 10
758.793
 20
38.6504
 30
-8.60000e-15
  70
    32
  0
VERTEX
  8
0
  5
3E2F
 10
758.780
 20
38.6504
 30
-8.60000e-15
  70
    32
  0
VERTEX
  8
0
  5
3E30
 10
758.768
 20
38.6504
 30
-8.60000e-15
  70
    32
  0
VERTEX
  8
0
  5
3E31
 10
758.755
 20
38.6505
 30
-8.60000e-15
  70
    32
  0
VERTEX
  8
0
  5
3E32
 10
758.742
 20
38.6506
 30
-8.60000e-15
  70
    32
  0
VERTEX
  8
0
  5
3E33
 10
758.729
 20
38.6508
 30
-8.60000e-15
  70
    32
  0
VERTEX
  8
0
  5
3E34
 10
758.716
 20
38.6510
 30
-8.60000e-15
  70
    32
  0
VERTEX
  8
0
  5
3E35
 10
758.704
 20
38.6512
 30
-8.60000e-15
  70
    32
  0
VERTEX
  8
0
  5
3E36
 10
758.691
 20
38.6515
 30
-8.60000e-15
  70
    32
  0
VERTEX
  8
0
  5
3E37
 10
758.678
 20
38.6519
 30
-8.60000e-15
  70
    32
  0
VERTEX
  8
0
  5
3E38
 10
758.665
 20
38.6522
 30
-8.60000e-15
  70
    32
  0
VERTEX
  8
0
  5
3E39
 10
758.653
 20
38.6526
 30
-8.60000e-15
  70
    32
  0
VERTEX
  8
0
  5
3E3A
 10
758.640
 20
38.6531
 30
-8.60000e-15
  70
    32
  0
VERTEX
  8
0
  5
3E3B
 10
758.628
 20
38.6536
 30
-8.60000e-15
  70
    32
  0
VERTEX
  8
0
  5
3E3C
 10
758.615
 20
38.6542
 30
-8.60000e-15
  70
    32
  0
VERTEX
  8
0
  5
3E3D
 10
758.602
 20
38.6547
 30
-8.60000e-15
  70
    32
  0
VERTEX
  8
0
  5
3E3E
 10
758.590
 20
38.6554
 30
-8.60000e-15
  70
    32
  0
VERTEX
  8
0
  5
3E3F
 10
758.577
 20
38.6560
 30
-8.60000e-15
  70
    32
  0
VERTEX
  8
0
  5
3E40
 10
758.565
 20
38.6567
 30
-8.60000e-15
  70
    32
  0
VERTEX
  8
0
  5
3E41
 10
758.552
 20
38.6575
 30
-8.60000e-15
  70
    32
  0
VERTEX
  8
0
  5
3E42
 10
758.540
 20
38.6583
 30
-8.60000e-15
  70
    32
  0
VERTEX
  8
0
  5
3E43
 10
758.527
 20
38.6591
 30
-8.60000e-15
  70
    32
  0
VERTEX
  8
0
  5
3E44
 10
758.515
 20
38.6600
 30
-8.60000e-15
  70
    32
  0
VERTEX
  8
0
  5
3E45
 10
758.503
 20
38.6609
 30
-8.60000e-15
  70
    32
  0
VERTEX
  8
0
  5
3E46
 10
758.490
 20
38.6619
 30
-8.60000e-15
  70
    32
  0
VERTEX
  8
0
  5
3E47
 10
758.478
 20
38.6629
 30
-8.60000e-15
  70
    32
  0
VERTEX
  8
0
  5
3E48
 10
758.465
 20
38.6639
 30
-8.60000e-15
  70
    32
  0
VERTEX
  8
0
  5
3E49
 10
758.453
 20
38.6650
 30
-8.60000e-15
  70
    32
  0
VERTEX
  8
0
  5
3E4A
 10
758.441
 20
38.6661
 30
-8.60000e-15
  70
    32
  0
VERTEX
  8
0
  5
3E4B
 10
758.429
 20
38.6673
 30
-8.60000e-15
  70
    32
  0
VERTEX
  8
0
  5
3E4C
 10
758.416
 20
38.6685
 30
-8.60000e-15
  70
    32
  0
VERTEX
  8
0
  5
3E4D
 10
758.404
 20
38.6698
 30
-8.60000e-15
  70
    32
  0
VERTEX
  8
0
  5
3E4E
 10
758.392
 20
38.6711
 30
-8.60000e-15
  70
    32
  0
VERTEX
  8
0
  5
3E4F
 10
758.380
 20
38.6724
 30
-8.60000e-15
  70
    32
  0
VERTEX
  8
0
  5
3E50
 10
758.368
 20
38.6738
 30
-8.60000e-15
  70
    32
  0
VERTEX
  8
0
  5
3E51
 10
758.356
 20
38.6752
 30
-8.60000e-15
  70
    32
  0
VERTEX
  8
0
  5
3E52
 10
758.344
 20
38.6767
 30
-8.60000e-15
  70
    32
  0
VERTEX
  8
0
  5
3E53
 10
758.332
 20
38.6782
 30
-8.60000e-15
  70
    32
  0
VERTEX
  8
0
  5
3E54
 10
758.319
 20
38.6797
 30
-8.60000e-15
  70
    32
  0
VERTEX
  8
0
  5
3E55
 10
758.307
 20
38.6813
 30
-8.60000e-15
  70
    32
  0
VERTEX
  8
0
  5
3E56
 10
758.296
 20
38.6829
 30
-8.60000e-15
  70
    32
  0
VERTEX
  8
0
  5
3E57
 10
758.284
 20
38.6846
 30
-8.60000e-15
  70
    32
  0
VERTEX
  8
0
  5
3E58
 10
758.272
 20
38.6863
 30
-8.60000e-15
  70
    32
  0
VERTEX
  8
0
  5
3E59
 10
758.260
 20
38.6881
 30
-8.60000e-15
  70
    32
  0
VERTEX
  8
0
  5
3E5A
 10
758.248
 20
38.6899
 30
-8.60000e-15
  70
    32
  0
VERTEX
  8
0
  5
3E5B
 10
758.236
 20
38.6917
 30
-8.60000e-15
  70
    32
  0
VERTEX
  8
0
  5
3E5C
 10
758.224
 20
38.6936
 30
-8.60000e-15
  70
    32
  0
VERTEX
  8
0
  5
3E5D
 10
758.212
 20
38.6955
 30
-8.60000e-15
  70
    32
  0
VERTEX
  8
0
  5
3E5E
 10
758.201
 20
38.6975
 30
-8.60000e-15
  70
    32
  0
VERTEX
  8
0
  5
3E5F
 10
758.189
 20
38.6995
 30
-8.60000e-15
  70
    32
  0
VERTEX
  8
0
  5
3E60
 10
758.177
 20
38.7015
 30
-8.60000e-15
  70
    32
  0
VERTEX
  8
0
  5
3E61
 10
758.166
 20
38.7036
 30
-8.60000e-15
  70
    32
  0
VERTEX
  8
0
  5
3E62
 10
758.154
 20
38.7058
 30
-8.60000e-15
  70
    32
  0
VERTEX
  8
0
  5
3E63
 10
758.142
 20
38.7079
 30
-8.60000e-15
  70
    32
  0
VERTEX
  8
0
  5
3E64
 10
758.131
 20
38.7102
 30
-8.60000e-15
  70
    32
  0
VERTEX
  8
0
  5
3E65
 10
758.119
 20
38.7124
 30
-8.60000e-15
  70
    32
  0
VERTEX
  8
0
  5
3E66
 10
758.108
 20
38.7147
 30
-8.60000e-15
  70
    32
  0
VERTEX
  8
0
  5
3E67
 10
758.096
 20
38.7171
 30
-8.60000e-15
  70
    32
  0
VERTEX
  8
0
  5
3E68
 10
758.085
 20
38.7194
 30
-8.60000e-15
  70
    32
  0
VERTEX
  8
0
  5
3E69
 10
758.073
 20
38.7219
 30
-8.60000e-15
  70
    32
  0
VERTEX
  8
0
  5
3E6A
 10
758.062
 20
38.7243
 30
-8.60000e-15
  70
    32
  0
VERTEX
  8
0
  5
3E6B
 10
758.050
 20
38.7268
 30
-8.60000e-15
  70
    32
  0
VERTEX
  8
0
  5
3E6C
 10
758.039
 20
38.7294
 30
-8.60000e-15
  70
    32
  0
VERTEX
  8
0
  5
3E6D
 10
758.028
 20
38.7320
 30
-8.60000e-15
  70
    32
  0
VERTEX
  8
0
  5
3E6E
 10
758.016
 20
38.7346
 30
-8.60000e-15
  70
    32
  0
VERTEX
  8
0
  5
3E6F
 10
758.005
 20
38.7373
 30
-8.60000e-15
  70
    32
  0
VERTEX
  8
0
  5
3E70
 10
757.994
 20
38.7400
 30
-8.60000e-15
  70
    32
  0
VERTEX
  8
0
  5
3E71
 10
757.983
 20
38.7428
 30
-8.60000e-15
  70
    32
  0
VERTEX
  8
0
  5
3E72
 10
757.971
 20
38.7456
 30
-8.60000e-15
  70
    32
  0
VERTEX
  8
0
  5
3E73
 10
757.960
 20
38.7484
 30
-8.60000e-15
  70
    32
  0
VERTEX
  8
0
  5
3E74
 10
757.949
 20
38.7513
 30
-8.60000e-15
  70
    32
  0
VERTEX
  8
0
  5
3E75
 10
757.938
 20
38.7543
 30
-8.60000e-15
  70
    32
  0
VERTEX
  8
0
  5
3E76
 10
757.927
 20
38.7572
 30
-8.60000e-15
  70
    32
  0
VERTEX
  8
0
  5
3E77
 10
757.916
 20
38.7602
 30
-8.60000e-15
  70
    32
  0
VERTEX
  8
0
  5
3E78
 10
757.905
 20
38.7633
 30
-8.60000e-15
  70
    32
  0
VERTEX
  8
0
  5
3E79
 10
757.894
 20
38.7664
 30
-8.60000e-15
  70
    32
  0
VERTEX
  8
0
  5
3E7A
 10
757.883
 20
38.7695
 30
-8.60000e-15
  70
    32
  0
VERTEX
  8
0
  5
3E7B
 10
757.872
 20
38.7727
 30
-8.60000e-15
  70
    32
  0
VERTEX
  8
0
  5
3E7C
 10
757.861
 20
38.7759
 30
-8.60000e-15
  70
    32
  0
VERTEX
  8
0
  5
3E7D
 10
757.850
 20
38.7792
 30
-8.60000e-15
  70
    32
  0
VERTEX
  8
0
  5
3E7E
 10
757.839
 20
38.7825
 30
-8.60000e-15
  70
    32
  0
VERTEX
  8
0
  5
3E7F
 10
757.829
 20
38.7859
 30
-8.60000e-15
  70
    32
  0
VERTEX
  8
0
  5
3E80
 10
757.818
 20
38.7893
 30
-8.60000e-15
  70
    32
  0
VERTEX
  8
0
  5
3E81
 10
757.807
 20
38.7927
 30
-8.60000e-15
  70
    32
  0
VERTEX
  8
0
  5
3E82
 10
757.796
 20
38.7962
 30
-8.60003e-15
  70
    32
  0
VERTEX
  8
0
  5
3E83
 10
757.786
 20
38.7997
 30
-8.60015e-15
  70
    32
  0
VERTEX
  8
0
  5
3E84
 10
757.775
 20
38.8032
 30
-8.60035e-15
  70
    32
  0
VERTEX
  8
0
  5
3E85
 10
757.765
 20
38.8068
 30
-8.60063e-15
  70
    32
  0
VERTEX
  8
0
  5
3E86
 10
757.754
 20
38.8105
 30
-8.60099e-15
  70
    32
  0
VERTEX
  8
0
  5
3E87
 10
757.744
 20
38.8142
 30
-8.60143e-15
  70
    32
  0
VERTEX
  8
0
  5
3E88
 10
757.733
 20
38.8179
 30
-8.60194e-15
  70
    32
  0
VERTEX
  8
0
  5
3E89
 10
757.723
 20
38.8217
 30
-8.60253e-15
  70
    32
  0
VERTEX
  8
0
  5
3E8A
 10
757.712
 20
38.8255
 30
-8.60319e-15
  70
    32
  0
VERTEX
  8
0
  5
3E8B
 10
757.702
 20
38.8293
 30
-8.60392e-15
  70
    32
  0
VERTEX
  8
0
  5
3E8C
 10
757.691
 20
38.8332
 30
-8.60471e-15
  70
    32
  0
VERTEX
  8
0
  5
3E8D
 10
757.681
 20
38.8371
 30
-8.60557e-15
  70
    32
  0
VERTEX
  8
0
  5
3E8E
 10
757.671
 20
38.8411
 30
-8.60650e-15
  70
    32
  0
VERTEX
  8
0
  5
3E8F
 10
757.661
 20
38.8451
 30
-8.60748e-15
  70
    32
  0
VERTEX
  8
0
  5
3E90
 10
757.650
 20
38.8492
 30
-8.60852e-15
  70
    32
  0
VERTEX
  8
0
  5
3E91
 10
757.640
 20
38.8533
 30
-8.60962e-15
  70
    32
  0
VERTEX
  8
0
  5
3E92
 10
757.630
 20
38.8574
 30
-8.61077e-15
  70
    32
  0
VERTEX
  8
0
  5
3E93
 10
757.620
 20
38.8616
 30
-8.61197e-15
  70
    32
  0
VERTEX
  8
0
  5
3E94
 10
757.610
 20
38.8658
 30
-8.61323e-15
  70
    32
  0
VERTEX
  8
0
  5
3E95
 10
757.600
 20
38.8700
 30
-8.61453e-15
  70
    32
  0
VERTEX
  8
0
  5
3E96
 10
757.590
 20
38.8743
 30
-8.61588e-15
  70
    32
  0
VERTEX
  8
0
  5
3E97
 10
757.580
 20
38.8787
 30
-8.61727e-15
  70
    32
  0
VERTEX
  8
0
  5
3E98
 10
757.570
 20
38.8830
 30
-8.61870e-15
  70
    32
  0
VERTEX
  8
0
  5
3E99
 10
757.560
 20
38.8874
 30
-8.62017e-15
  70
    32
  0
VERTEX
  8
0
  5
3E9A
 10
757.550
 20
38.8919
 30
-8.62168e-15
  70
    32
  0
VERTEX
  8
0
  5
3E9B
 10
757.540
 20
38.8964
 30
-8.62322e-15
  70
    32
  0
VERTEX
  8
0
  5
3E9C
 10
757.530
 20
38.9009
 30
-8.62480e-15
  70
    32
  0
VERTEX
  8
0
  5
3E9D
 10
757.520
 20
38.9055
 30
-8.62640e-15
  70
    32
  0
VERTEX
  8
0
  5
3E9E
 10
757.511
 20
38.9101
 30
-8.62804e-15
  70
    32
  0
VERTEX
  8
0
  5
3E9F
 10
757.501
 20
38.9148
 30
-8.62970e-15
  70
    32
  0
VERTEX
  8
0
  5
3EA0
 10
757.491
 20
38.9194
 30
-8.63139e-15
  70
    32
  0
VERTEX
  8
0
  5
3EA1
 10
757.482
 20
38.9242
 30
-8.63310e-15
  70
    32
  0
VERTEX
  8
0
  5
3EA2
 10
757.472
 20
38.9289
 30
-8.63483e-15
  70
    32
  0
VERTEX
  8
0
  5
3EA3
 10
757.462
 20
38.9337
 30
-8.63657e-15
  70
    32
  0
VERTEX
  8
0
  5
3EA4
 10
757.453
 20
38.9386
 30
-8.63834e-15
  70
    32
  0
VERTEX
  8
0
  5
3EA5
 10
757.443
 20
38.9435
 30
-8.64011e-15
  70
    32
  0
VERTEX
  8
0
  5
3EA6
 10
757.434
 20
38.9484
 30
-8.64190e-15
  70
    32
  0
VERTEX
  8
0
  5
3EA7
 10
757.424
 20
38.9534
 30
-8.64370e-15
  70
    32
  0
VERTEX
  8
0
  5
3EA8
 10
757.415
 20
38.9584
 30
-8.64550e-15
  70
    32
  0
VERTEX
  8
0
  5
3EA9
 10
757.406
 20
38.9634
 30
-8.64732e-15
  70
    32
  0
VERTEX
  8
0
  5
3EAA
 10
757.396
 20
38.9685
 30
-8.64913e-15
  70
    32
  0
VERTEX
  8
0
  5
3EAB
 10
757.387
 20
38.9736
 30
-8.65094e-15
  70
    32
  0
VERTEX
  8
0
  5
3EAC
 10
757.378
 20
38.9787
 30
-8.65276e-15
  70
    32
  0
VERTEX
  8
0
  5
3EAD
 10
757.368
 20
38.9839
 30
-8.65457e-15
  70
    32
  0
VERTEX
  8
0
  5
3EAE
 10
757.359
 20
38.9891
 30
-8.65637e-15
  70
    32
  0
VERTEX
  8
0
  5
3EAF
 10
757.350
 20
38.9944
 30
-8.65817e-15
  70
    32
  0
VERTEX
  8
0
  5
3EB0
 10
757.341
 20
38.9997
 30
-8.65996e-15
  70
    32
  0
VERTEX
  8
0
  5
3EB1
 10
757.332
 20
39.0050
 30
-8.66173e-15
  70
    32
  0
VERTEX
  8
0
  5
3EB2
 10
757.323
 20
39.0104
 30
-8.66350e-15
  70
    32
  0
VERTEX
  8
0
  5
3EB3
 10
757.314
 20
39.0158
 30
-8.66524e-15
  70
    32
  0
VERTEX
  8
0
  5
3EB4
 10
757.305
 20
39.0213
 30
-8.66697e-15
  70
    32
  0
VERTEX
  8
0
  5
3EB5
 10
757.296
 20
39.0268
 30
-8.66868e-15
  70
    32
  0
VERTEX
  8
0
  5
3EB6
 10
757.287
 20
39.0323
 30
-8.67037e-15
  70
    32
  0
VERTEX
  8
0
  5
3EB7
 10
757.278
 20
39.0379
 30
-8.67203e-15
  70
    32
  0
VERTEX
  8
0
  5
3EB8
 10
757.269
 20
39.0435
 30
-8.67366e-15
  70
    32
  0
VERTEX
  8
0
  5
3EB9
 10
757.260
 20
39.0491
 30
-8.67527e-15
  70
    32
  0
VERTEX
  8
0
  5
3EBA
 10
757.251
 20
39.0548
 30
-8.67684e-15
  70
    32
  0
VERTEX
  8
0
  5
3EBB
 10
757.243
 20
39.0605
 30
-8.67838e-15
  70
    32
  0
VERTEX
  8
0
  5
3EBC
 10
757.234
 20
39.0662
 30
-8.67989e-15
  70
    32
  0
VERTEX
  8
0
  5
3EBD
 10
757.225
 20
39.0720
 30
-8.68136e-15
  70
    32
  0
VERTEX
  8
0
  5
3EBE
 10
757.217
 20
39.0778
 30
-8.68279e-15
  70
    32
  0
VERTEX
  8
0
  5
3EBF
 10
757.208
 20
39.0837
 30
-8.68418e-15
  70
    32
  0
VERTEX
  8
0
  5
3EC0
 10
757.200
 20
39.0895
 30
-8.68552e-15
  70
    32
  0
VERTEX
  8
0
  5
3EC1
 10
757.191
 20
39.0955
 30
-8.68682e-15
  70
    32
  0
VERTEX
  8
0
  5
3EC2
 10
757.183
 20
39.1014
 30
-8.68808e-15
  70
    32
  0
VERTEX
  8
0
  5
3EC3
 10
757.174
 20
39.1074
 30
-8.68928e-15
  70
    32
  0
VERTEX
  8
0
  5
3EC4
 10
757.166
 20
39.1135
 30
-8.69043e-15
  70
    32
  0
VERTEX
  8
0
  5
3EC5
 10
757.157
 20
39.1195
 30
-8.69152e-15
  70
    32
  0
VERTEX
  8
0
  5
3EC6
 10
757.149
 20
39.1256
 30
-8.69256e-15
  70
    32
  0
VERTEX
  8
0
  5
3EC7
 10
757.141
 20
39.1318
 30
-8.69354e-15
  70
    32
  0
VERTEX
  8
0
  5
3EC8
 10
757.132
 20
39.1379
 30
-8.69446e-15
  70
    32
  0
VERTEX
  8
0
  5
3EC9
 10
757.124
 20
39.1442
 30
-8.69532e-15
  70
    32
  0
VERTEX
  8
0
  5
3ECA
 10
757.116
 20
39.1504
 30
-8.69611e-15
  70
    32
  0
VERTEX
  8
0
  5
3ECB
 10
757.108
 20
39.1567
 30
-8.69684e-15
  70
    32
  0
VERTEX
  8
0
  5
3ECC
 10
757.100
 20
39.1630
 30
-8.69749e-15
  70
    32
  0
VERTEX
  8
0
  5
3ECD
 10
757.092
 20
39.1693
 30
-8.69808e-15
  70
    32
  0
VERTEX
  8
0
  5
3ECE
 10
757.084
 20
39.1757
 30
-8.69859e-15
  70
    32
  0
VERTEX
  8
0
  5
3ECF
 10
757.076
 20
39.1821
 30
-8.69902e-15
  70
    32
  0
VERTEX
  8
0
  5
3ED0
 10
757.068
 20
39.1886
 30
-8.69938e-15
  70
    32
  0
VERTEX
  8
0
  5
3ED1
 10
757.060
 20
39.1951
 30
-8.69966e-15
  70
    32
  0
VERTEX
  8
0
  5
3ED2
 10
757.052
 20
39.2016
 30
-8.69986e-15
  70
    32
  0
VERTEX
  8
0
  5
3ED3
 10
757.044
 20
39.2082
 30
-8.69997e-15
  70
    32
  0
VERTEX
  8
0
  5
3ED4
 10
757.036
 20
39.2147
 30
-8.70000e-15
  70
    32
  0
VERTEX
  8
0
  5
3ED5
 10
757.028
 20
39.2214
 30
-8.70012e-15
  70
    32
  0
VERTEX
  8
0
  5
3ED6
 10
757.020
 20
39.2280
 30
-8.70042e-15
  70
    32
  0
VERTEX
  8
0
  5
3ED7
 10
757.013
 20
39.2347
 30
-8.70087e-15
  70
    32
  0
VERTEX
  8
0
  5
3ED8
 10
757.005
 20
39.2414
 30
-8.70148e-15
  70
    32
  0
VERTEX
  8
0
  5
3ED9
 10
756.997
 20
39.2482
 30
-8.70225e-15
  70
    32
  0
VERTEX
  8
0
  5
3EDA
 10
756.990
 20
39.2550
 30
-8.70316e-15
  70
    32
  0
VERTEX
  8
0
  5
3EDB
 10
756.982
 20
39.2618
 30
-8.70421e-15
  70
    32
  0
VERTEX
  8
0
  5
3EDC
 10
756.975
 20
39.2687
 30
-8.70539e-15
  70
    32
  0
VERTEX
  8
0
  5
3EDD
 10
756.967
 20
39.2756
 30
-8.70670e-15
  70
    32
  0
VERTEX
  8
0
  5
3EDE
 10
756.960
 20
39.2825
 30
-8.70813e-15
  70
    32
  0
VERTEX
  8
0
  5
3EDF
 10
756.952
 20
39.2894
 30
-8.70968e-15
  70
    32
  0
VERTEX
  8
0
  5
3EE0
 10
756.945
 20
39.2964
 30
-8.71133e-15
  70
    32
  0
VERTEX
  8
0
  5
3EE1
 10
756.938
 20
39.3035
 30
-8.71309e-15
  70
    32
  0
VERTEX
  8
0
  5
3EE2
 10
756.930
 20
39.3105
 30
-8.71494e-15
  70
    32
  0
VERTEX
  8
0
  5
3EE3
 10
756.923
 20
39.3176
 30
-8.71689e-15
  70
    32
  0
VERTEX
  8
0
  5
3EE4
 10
756.916
 20
39.3247
 30
-8.71892e-15
  70
    32
  0
VERTEX
  8
0
  5
3EE5
 10
756.909
 20
39.3319
 30
-8.72103e-15
  70
    32
  0
VERTEX
  8
0
  5
3EE6
 10
756.902
 20
39.3390
 30
-8.72321e-15
  70
    32
  0
VERTEX
  8
0
  5
3EE7
 10
756.894
 20
39.3462
 30
-8.72546e-15
  70
    32
  0
VERTEX
  8
0
  5
3EE8
 10
756.887
 20
39.3535
 30
-8.72777e-15
  70
    32
  0
VERTEX
  8
0
  5
3EE9
 10
756.880
 20
39.3608
 30
-8.73013e-15
  70
    32
  0
VERTEX
  8
0
  5
3EEA
 10
756.873
 20
39.3681
 30
-8.73254e-15
  70
    32
  0
VERTEX
  8
0
  5
3EEB
 10
756.866
 20
39.3754
 30
-8.73499e-15
  70
    32
  0
VERTEX
  8
0
  5
3EEC
 10
756.859
 20
39.3828
 30
-8.73748e-15
  70
    32
  0
VERTEX
  8
0
  5
3EED
 10
756.852
 20
39.3902
 30
-8.74000e-15
  70
    32
  0
VERTEX
  8
0
  5
3EEE
 10
756.846
 20
39.3976
 30
-8.74254e-15
  70
    32
  0
VERTEX
  8
0
  5
3EEF
 10
756.839
 20
39.4050
 30
-8.74510e-15
  70
    32
  0
VERTEX
  8
0
  5
3EF0
 10
756.832
 20
39.4125
 30
-8.74767e-15
  70
    32
  0
VERTEX
  8
0
  5
3EF1
 10
756.825
 20
39.4200
 30
-8.75025e-15
  70
    32
  0
VERTEX
  8
0
  5
3EF2
 10
756.818
 20
39.4276
 30
-8.75283e-15
  70
    32
  0
VERTEX
  8
0
  5
3EF3
 10
756.812
 20
39.4352
 30
-8.75540e-15
  70
    32
  0
VERTEX
  8
0
  5
3EF4
 10
756.805
 20
39.4428
 30
-8.75795e-15
  70
    32
  0
VERTEX
  8
0
  5
3EF5
 10
756.798
 20
39.4504
 30
-8.76049e-15
  70
    32
  0
VERTEX
  8
0
  5
3EF6
 10
756.792
 20
39.4581
 30
-8.76300e-15
  70
    32
  0
VERTEX
  8
0
  5
3EF7
 10
756.785
 20
39.4658
 30
-8.76548e-15
  70
    32
  0
VERTEX
  8
0
  5
3EF8
 10
756.779
 20
39.4735
 30
-8.76793e-15
  70
    32
  0
VERTEX
  8
0
  5
3EF9
 10
756.772
 20
39.4812
 30
-8.77033e-15
  70
    32
  0
VERTEX
  8
0
  5
3EFA
 10
756.766
 20
39.4890
 30
-8.77268e-15
  70
    32
  0
VERTEX
  8
0
  5
3EFB
 10
756.760
 20
39.4968
 30
-8.77498e-15
  70
    32
  0
VERTEX
  8
0
  5
3EFC
 10
756.753
 20
39.5047
 30
-8.77722e-15
  70
    32
  0
VERTEX
  8
0
  5
3EFD
 10
756.747
 20
39.5125
 30
-8.77938e-15
  70
    32
  0
VERTEX
  8
0
  5
3EFE
 10
756.741
 20
39.5204
 30
-8.78148e-15
  70
    32
  0
VERTEX
  8
0
  5
3EFF
 10
756.734
 20
39.5283
 30
-8.78349e-15
  70
    32
  0
VERTEX
  8
0
  5
3F00
 10
756.728
 20
39.5363
 30
-8.78542e-15
  70
    32
  0
VERTEX
  8
0
  5
3F01
 10
756.722
 20
39.5443
 30
-8.78726e-15
  70
    32
  0
VERTEX
  8
0
  5
3F02
 10
756.716
 20
39.5523
 30
-8.78900e-15
  70
    32
  0
VERTEX
  8
0
  5
3F03
 10
756.710
 20
39.5603
 30
-8.79063e-15
  70
    32
  0
VERTEX
  8
0
  5
3F04
 10
756.704
 20
39.5683
 30
-8.79216e-15
  70
    32
  0
VERTEX
  8
0
  5
3F05
 10
756.698
 20
39.5764
 30
-8.79356e-15
  70
    32
  0
VERTEX
  8
0
  5
3F06
 10
756.692
 20
39.5845
 30
-8.79485e-15
  70
    32
  0
VERTEX
  8
0
  5
3F07
 10
756.686
 20
39.5927
 30
-8.79601e-15
  70
    32
  0
VERTEX
  8
0
  5
3F08
 10
756.680
 20
39.6008
 30
-8.79703e-15
  70
    32
  0
VERTEX
  8
0
  5
3F09
 10
756.674
 20
39.6090
 30
-8.79791e-15
  70
    32
  0
VERTEX
  8
0
  5
3F0A
 10
756.668
 20
39.6172
 30
-8.79865e-15
  70
    32
  0
VERTEX
  8
0
  5
3F0B
 10
756.662
 20
39.6255
 30
-8.79923e-15
  70
    32
  0
VERTEX
  8
0
  5
3F0C
 10
756.657
 20
39.6337
 30
-8.79965e-15
  70
    32
  0
VERTEX
  8
0
  5
3F0D
 10
756.651
 20
39.6420
 30
-8.79991e-15
  70
    32
  0
VERTEX
  8
0
  5
3F0E
 10
756.645
 20
39.6503
 30
-8.80000e-15
  70
    32
  0
SEQEND
  8
0
  5
3F0F
  0
POLYLINE
  8
0
  5
3F10
  66
     1
 10
0.000000
 20
0.000000
 30
0.000000
  70
     8
  0
VERTEX
  8
0
  5
3F11
 10
782.511
 20
38.6503
 30
-8.60000e-15
  70
    32
  0
VERTEX
  8
0
  5
3F12
 10
782.511
 20
38.6504
 30
-8.60000e-15
  70
    32
  0
VERTEX
  8
0
  5
3F13
 10
782.511
 20
38.6504
 30
-8.60000e-15
  70
    32
  0
VERTEX
  8
0
  5
3F14
 10
782.511
 20
38.6505
 30
-8.60000e-15
  70
    32
  0
VERTEX
  8
0
  5
3F15
 10
782.511
 20
38.6506
 30
-8.60000e-15
  70
    32
  0
VERTEX
  8
0
  5
3F16
 10
782.512
 20
38.6507
 30
-8.60000e-15
  70
    32
  0
VERTEX
  8
0
  5
3F17
 10
782.512
 20
38.6509
 30
-8.60000e-15
  70
    32
  0
VERTEX
  8
0
  5
3F18
 10
782.512
 20
38.6511
 30
-8.60000e-15
  70
    32
  0
VERTEX
  8
0
  5
3F19
 10
782.512
 20
38.6514
 30
-8.60000e-15
  70
    32
  0
VERTEX
  8
0
  5
3F1A
 10
782.512
 20
38.6516
 30
-8.60000e-15
  70
    32
  0
VERTEX
  8
0
  5
3F1B
 10
782.513
 20
38.6520
 30
-8.60000e-15
  70
    32
  0
VERTEX
  8
0
  5
3F1C
 10
782.513
 20
38.6523
 30
-8.60000e-15
  70
    32
  0
VERTEX
  8
0
  5
3F1D
 10
782.513
 20
38.6527
 30
-8.60000e-15
  70
    32
  0
VERTEX
  8
0
  5
3F1E
 10
782.514
 20
38.6531
 30
-8.60000e-15
  70
    32
  0
VERTEX
  8
0
  5
3F1F
 10
782.514
 20
38.6535
 30
-8.60000e-15
  70
    32
  0
VERTEX
  8
0
  5
3F20
 10
782.515
 20
38.6540
 30
-8.60000e-15
  70
    32
  0
VERTEX
  8
0
  5
3F21
 10
782.515
 20
38.6545
 30
-8.60000e-15
  70
    32
  0
VERTEX
  8
0
  5
3F22
 10
782.515
 20
38.6550
 30
-8.60000e-15
  70
    32
  0
VERTEX
  8
0
  5
3F23
 10
782.516
 20
38.6555
 30
-8.60000e-15
  70
    32
  0
VERTEX
  8
0
  5
3F24
 10
782.516
 20
38.6561
 30
-8.60000e-15
  70
    32
  0
VERTEX
  8
0
  5
3F25
 10
782.517
 20
38.6568
 30
-8.60000e-15
  70
    32
  0
VERTEX
  8
0
  5
3F26
 10
782.518
 20
38.6574
 30
-8.60000e-15
  70
    32
  0
VERTEX
  8
0
  5
3F27
 10
782.518
 20
38.6581
 30
-8.60000e-15
  70
    32
  0
VERTEX
  8
0
  5
3F28
 10
782.519
 20
38.6588
 30
-8.60000e-15
  70
    32
  0
VERTEX
  8
0
  5
3F29
 10
782.520
 20
38.6596
 30
-8.60000e-15
  70
    32
  0
VERTEX
  8
0
  5
3F2A
 10
782.520
 20
38.6604
 30
-8.60000e-15
  70
    32
  0
VERTEX
  8
0
  5
3F2B
 10
782.521
 20
38.6612
 30
-8.60000e-15
  70
    32
  0
VERTEX
  8
0
  5
3F2C
 10
782.522
 20
38.6620
 30
-8.60000e-15
  70
    32
  0
VERTEX
  8
0
  5
3F2D
 10
782.523
 20
38.6629
 30
-8.60000e-15
  70
    32
  0
VERTEX
  8
0
  5
3F2E
 10
782.523
 20
38.6638
 30
-8.60000e-15
  70
    32
  0
VERTEX
  8
0
  5
3F2F
 10
782.524
 20
38.6648
 30
-8.60000e-15
  70
    32
  0
VERTEX
  8
0
  5
3F30
 10
782.525
 20
38.6658
 30
-8.60000e-15
  70
    32
  0
VERTEX
  8
0
  5
3F31
 10
782.526
 20
38.6668
 30
-8.60000e-15
  70
    32
  0
VERTEX
  8
0
  5
3F32
 10
782.527
 20
38.6678
 30
-8.60000e-15
  70
    32
  0
VERTEX
  8
0
  5
3F33
 10
782.528
 20
38.6689
 30
-8.60000e-15
  70
    32
  0
VERTEX
  8
0
  5
3F34
 10
782.529
 20
38.6700
 30
-8.60000e-15
  70
    32
  0
VERTEX
  8
0
  5
3F35
 10
782.530
 20
38.6711
 30
-8.60000e-15
  70
    32
  0
VERTEX
  8
0
  5
3F36
 10
782.531
 20
38.6723
 30
-8.60000e-15
  70
    32
  0
VERTEX
  8
0
  5
3F37
 10
782.532
 20
38.6735
 30
-8.60000e-15
  70
    32
  0
VERTEX
  8
0
  5
3F38
 10
782.533
 20
38.6748
 30
-8.60000e-15
  70
    32
  0
VERTEX
  8
0
  5
3F39
 10
782.534
 20
38.6760
 30
-8.60000e-15
  70
    32
  0
VERTEX
  8
0
  5
3F3A
 10
782.536
 20
38.6773
 30
-8.60000e-15
  70
    32
  0
VERTEX
  8
0
  5
3F3B
 10
782.537
 20
38.6787
 30
-8.60000e-15
  70
    32
  0
VERTEX
  8
0
  5
3F3C
 10
782.538
 20
38.6800
 30
-8.60000e-15
  70
    32
  0
VERTEX
  8
0
  5
3F3D
 10
782.539
 20
38.6814
 30
-8.60000e-15
  70
    32
  0
VERTEX
  8
0
  5
3F3E
 10
782.541
 20
38.6828
 30
-8.60000e-15
  70
    32
  0
VERTEX
  8
0
  5
3F3F
 10
782.542
 20
38.6843
 30
-8.60000e-15
  70
    32
  0
VERTEX
  8
0
  5
3F40
 10
782.543
 20
38.6858
 30
-8.60000e-15
  70
    32
  0
VERTEX
  8
0
  5
3F41
 10
782.545
 20
38.6873
 30
-8.60000e-15
  70
    32
  0
VERTEX
  8
0
  5
3F42
 10
782.546
 20
38.6889
 30
-8.60000e-15
  70
    32
  0
VERTEX
  8
0
  5
3F43
 10
782.547
 20
38.6905
 30
-8.60000e-15
  70
    32
  0
VERTEX
  8
0
  5
3F44
 10
782.549
 20
38.6921
 30
-8.60000e-15
  70
    32
  0
VERTEX
  8
0
  5
3F45
 10
782.550
 20
38.6937
 30
-8.60000e-15
  70
    32
  0
VERTEX
  8
0
  5
3F46
 10
782.552
 20
38.6954
 30
-8.60000e-15
  70
    32
  0
VERTEX
  8
0
  5
3F47
 10
782.553
 20
38.6972
 30
-8.60000e-15
  70
    32
  0
VERTEX
  8
0
  5
3F48
 10
782.555
 20
38.6989
 30
-8.60000e-15
  70
    32
  0
VERTEX
  8
0
  5
3F49
 10
782.557
 20
38.7007
 30
-8.60000e-15
  70
    32
  0
VERTEX
  8
0
  5
3F4A
 10
782.558
 20
38.7025
 30
-8.60000e-15
  70
    32
  0
VERTEX
  8
0
  5
3F4B
 10
782.560
 20
38.7043
 30
-8.60000e-15
  70
    32
  0
VERTEX
  8
0
  5
3F4C
 10
782.562
 20
38.7062
 30
-8.60000e-15
  70
    32
  0
VERTEX
  8
0
  5
3F4D
 10
782.563
 20
38.7081
 30
-8.60000e-15
  70
    32
  0
VERTEX
  8
0
  5
3F4E
 10
782.565
 20
38.7101
 30
-8.60000e-15
  70
    32
  0
VERTEX
  8
0
  5
3F4F
 10
782.567
 20
38.7121
 30
-8.60000e-15
  70
    32
  0
VERTEX
  8
0
  5
3F50
 10
782.569
 20
38.7141
 30
-8.60000e-15
  70
    32
  0
VERTEX
  8
0
  5
3F51
 10
782.570
 20
38.7161
 30
-8.60000e-15
  70
    32
  0
VERTEX
  8
0
  5
3F52
 10
782.572
 20
38.7182
 30
-8.60000e-15
  70
    32
  0
VERTEX
  8
0
  5
3F53
 10
782.574
 20
38.7203
 30
-8.60000e-15
  70
    32
  0
VERTEX
  8
0
  5
3F54
 10
782.576
 20
38.7224
 30
-8.60000e-15
  70
    32
  0
VERTEX
  8
0
  5
3F55
 10
782.578
 20
38.7246
 30
-8.60000e-15
  70
    32
  0
VERTEX
  8
0
  5
3F56
 10
782.580
 20
38.7268
 30
-8.60000e-15
  70
    32
  0
VERTEX
  8
0
  5
3F57
 10
782.582
 20
38.7290
 30
-8.60000e-15
  70
    32
  0
VERTEX
  8
0
  5
3F58
 10
782.584
 20
38.7313
 30
-8.60000e-15
  70
    32
  0
VERTEX
  8
0
  5
3F59
 10
782.586
 20
38.7336
 30
-8.60000e-15
  70
    32
  0
VERTEX
  8
0
  5
3F5A
 10
782.588
 20
38.7359
 30
-8.60000e-15
  70
    32
  0
VERTEX
  8
0
  5
3F5B
 10
782.590
 20
38.7383
 30
-8.60000e-15
  70
    32
  0
VERTEX
  8
0
  5
3F5C
 10
782.593
 20
38.7407
 30
-8.60000e-15
  70
    32
  0
VERTEX
  8
0
  5
3F5D
 10
782.595
 20
38.7431
 30
-8.60000e-15
  70
    32
  0
VERTEX
  8
0
  5
3F5E
 10
782.597
 20
38.7456
 30
-8.60000e-15
  70
    32
  0
VERTEX
  8
0
  5
3F5F
 10
782.599
 20
38.7481
 30
-8.60000e-15
  70
    32
  0
VERTEX
  8
0
  5
3F60
 10
782.602
 20
38.7506
 30
-8.60000e-15
  70
    32
  0
VERTEX
  8
0
  5
3F61
 10
782.604
 20
38.7531
 30
-8.60000e-15
  70
    32
  0
VERTEX
  8
0
  5
3F62
 10
782.606
 20
38.7557
 30
-8.60000e-15
  70
    32
  0
VERTEX
  8
0
  5
3F63
 10
782.609
 20
38.7583
 30
-8.60000e-15
  70
    32
  0
VERTEX
  8
0
  5
3F64
 10
782.611
 20
38.7610
 30
-8.60000e-15
  70
    32
  0
VERTEX
  8
0
  5
3F65
 10
782.613
 20
38.7637
 30
-8.60000e-15
  70
    32
  0
VERTEX
  8
0
  5
3F66
 10
782.616
 20
38.7664
 30
-8.60000e-15
  70
    32
  0
VERTEX
  8
0
  5
3F67
 10
782.618
 20
38.7691
 30
-8.60000e-15
  70
    32
  0
VERTEX
  8
0
  5
3F68
 10
782.621
 20
38.7719
 30
-8.60000e-15
  70
    32
  0
VERTEX
  8
0
  5
3F69
 10
782.623
 20
38.7747
 30
-8.60000e-15
  70
    32
  0
VERTEX
  8
0
  5
3F6A
 10
782.626
 20
38.7776
 30
-8.60000e-15
  70
    32
  0
VERTEX
  8
0
  5
3F6B
 10
782.628
 20
38.7805
 30
-8.60000e-15
  70
    32
  0
VERTEX
  8
0
  5
3F6C
 10
782.631
 20
38.7834
 30
-8.60000e-15
  70
    32
  0
VERTEX
  8
0
  5
3F6D
 10
782.634
 20
38.7863
 30
-8.60000e-15
  70
    32
  0
VERTEX
  8
0
  5
3F6E
 10
782.636
 20
38.7893
 30
-8.60000e-15
  70
    32
  0
VERTEX
  8
0
  5
3F6F
 10
782.639
 20
38.7923
 30
-8.60000e-15
  70
    32
  0
VERTEX
  8
0
  5
3F70
 10
782.642
 20
38.7953
 30
-8.60002e-15
  70
    32
  0
VERTEX
  8
0
  5
3F71
 10
782.645
 20
38.7984
 30
-8.60010e-15
  70
    32
  0
VERTEX
  8
0
  5
3F72
 10
782.647
 20
38.8015
 30
-8.60024e-15
  70
    32
  0
VERTEX
  8
0
  5
3F73
 10
782.650
 20
38.8047
 30
-8.60045e-15
  70
    32
  0
VERTEX
  8
0
  5
3F74
 10
782.653
 20
38.8078
 30
-8.60072e-15
  70
    32
  0
VERTEX
  8
0
  5
3F75
 10
782.656
 20
38.8110
 30
-8.60105e-15
  70
    32
  0
VERTEX
  8
0
  5
3F76
 10
782.659
 20
38.8143
 30
-8.60144e-15
  70
    32
  0
VERTEX
  8
0
  5
3F77
 10
782.662
 20
38.8175
 30
-8.60189e-15
  70
    32
  0
VERTEX
  8
0
  5
3F78
 10
782.665
 20
38.8208
 30
-8.60240e-15
  70
    32
  0
VERTEX
  8
0
  5
3F79
 10
782.668
 20
38.8241
 30
-8.60295e-15
  70
    32
  0
VERTEX
  8
0
  5
3F7A
 10
782.671
 20
38.8275
 30
-8.60357e-15
  70
    32
  0
VERTEX
  8
0
  5
3F7B
 10
782.674
 20
38.8309
 30
-8.60423e-15
  70
    32
  0
VERTEX
  8
0
  5
3F7C
 10
782.677
 20
38.8343
 30
-8.60495e-15
  70
    32
  0
VERTEX
  8
0
  5
3F7D
 10
782.680
 20
38.8378
 30
-8.60572e-15
  70
    32
  0
VERTEX
  8
0
  5
3F7E
 10
782.683
 20
38.8412
 30
-8.60653e-15
  70
    32
  0
VERTEX
  8
0
  5
3F7F
 10
782.686
 20
38.8448
 30
-8.60739e-15
  70
    32
  0
VERTEX
  8
0
  5
3F80
 10
782.690
 20
38.8483
 30
-8.60830e-15
  70
    32
  0
VERTEX
  8
0
  5
3F81
 10
782.693
 20
38.8519
 30
-8.60924e-15
  70
    32
  0
VERTEX
  8
0
  5
3F82
 10
782.696
 20
38.8555
 30
-8.61023e-15
  70
    32
  0
VERTEX
  8
0
  5
3F83
 10
782.699
 20
38.8591
 30
-8.61127e-15
  70
    32
  0
VERTEX
  8
0
  5
3F84
 10
782.703
 20
38.8628
 30
-8.61234e-15
  70
    32
  0
VERTEX
  8
0
  5
3F85
 10
782.706
 20
38.8665
 30
-8.61345e-15
  70
    32
  0
VERTEX
  8
0
  5
3F86
 10
782.709
 20
38.8702
 30
-8.61459e-15
  70
    32
  0
VERTEX
  8
0
  5
3F87
 10
782.713
 20
38.8740
 30
-8.61577e-15
  70
    32
  0
VERTEX
  8
0
  5
3F88
 10
782.716
 20
38.8778
 30
-8.61698e-15
  70
    32
  0
VERTEX
  8
0
  5
3F89
 10
782.720
 20
38.8816
 30
-8.61823e-15
  70
    32
  0
VERTEX
  8
0
  5
3F8A
 10
782.723
 20
38.8855
 30
-8.61951e-15
  70
    32
  0
VERTEX
  8
0
  5
3F8B
 10
782.727
 20
38.8894
 30
-8.62081e-15
  70
    32
  0
VERTEX
  8
0
  5
3F8C
 10
782.730
 20
38.8933
 30
-8.62215e-15
  70
    32
  0
VERTEX
  8
0
  5
3F8D
 10
782.734
 20
38.8972
 30
-8.62351e-15
  70
    32
  0
VERTEX
  8
0
  5
3F8E
 10
782.737
 20
38.9012
 30
-8.62489e-15
  70
    32
  0
VERTEX
  8
0
  5
3F8F
 10
782.741
 20
38.9052
 30
-8.62630e-15
  70
    32
  0
VERTEX
  8
0
  5
3F90
 10
782.745
 20
38.9092
 30
-8.62773e-15
  70
    32
  0
VERTEX
  8
0
  5
3F91
 10
782.748
 20
38.9133
 30
-8.62918e-15
  70
    32
  0
VERTEX
  8
0
  5
3F92
 10
782.752
 20
38.9174
 30
-8.63065e-15
  70
    32
  0
VERTEX
  8
0
  5
3F93
 10
782.756
 20
38.9215
 30
-8.63214e-15
  70
    32
  0
VERTEX
  8
0
  5
3F94
 10
782.759
 20
38.9257
 30
-8.63364e-15
  70
    32
  0
VERTEX
  8
0
  5
3F95
 10
782.763
 20
38.9299
 30
-8.63516e-15
  70
    32
  0
VERTEX
  8
0
  5
3F96
 10
782.767
 20
38.9341
 30
-8.63670e-15
  70
    32
  0
VERTEX
  8
0
  5
3F97
 10
782.771
 20
38.9383
 30
-8.63824e-15
  70
    32
  0
VERTEX
  8
0
  5
3F98
 10
782.775
 20
38.9426
 30
-8.63980e-15
  70
    32
  0
VERTEX
  8
0
  5
3F99
 10
782.779
 20
38.9469
 30
-8.64136e-15
  70
    32
  0
VERTEX
  8
0
  5
3F9A
 10
782.783
 20
38.9512
 30
-8.64294e-15
  70
    32
  0
VERTEX
  8
0
  5
3F9B
 10
782.787
 20
38.9556
 30
-8.64452e-15
  70
    32
  0
VERTEX
  8
0
  5
3F9C
 10
782.790
 20
38.9600
 30
-8.64610e-15
  70
    32
  0
VERTEX
  8
0
  5
3F9D
 10
782.794
 20
38.9644
 30
-8.64769e-15
  70
    32
  0
VERTEX
  8
0
  5
3F9E
 10
782.799
 20
38.9689
 30
-8.64928e-15
  70
    32
  0
VERTEX
  8
0
  5
3F9F
 10
782.803
 20
38.9734
 30
-8.65087e-15
  70
    32
  0
VERTEX
  8
0
  5
3FA0
 10
782.807
 20
38.9779
 30
-8.65246e-15
  70
    32
  0
VERTEX
  8
0
  5
3FA1
 10
782.811
 20
38.9824
 30
-8.65405e-15
  70
    32
  0
VERTEX
  8
0
  5
3FA2
 10
782.815
 20
38.9870
 30
-8.65563e-15
  70
    32
  0
VERTEX
  8
0
  5
3FA3
 10
782.819
 20
38.9916
 30
-8.65721e-15
  70
    32
  0
VERTEX
  8
0
  5
3FA4
 10
782.823
 20
38.9962
 30
-8.65878e-15
  70
    32
  0
VERTEX
  8
0
  5
3FA5
 10
782.827
 20
39.0009
 30
-8.66035e-15
  70
    32
  0
VERTEX
  8
0
  5
3FA6
 10
782.832
 20
39.0055
 30
-8.66190e-15
  70
    32
  0
VERTEX
  8
0
  5
3FA7
 10
782.836
 20
39.0103
 30
-8.66345e-15
  70
    32
  0
VERTEX
  8
0
  5
3FA8
 10
782.840
 20
39.0150
 30
-8.66498e-15
  70
    32
  0
VERTEX
  8
0
  5
3FA9
 10
782.845
 20
39.0198
 30
-8.66650e-15
  70
    32
  0
VERTEX
  8
0
  5
3FAA
 10
782.849
 20
39.0246
 30
-8.66800e-15
  70
    32
  0
VERTEX
  8
0
  5
3FAB
 10
782.853
 20
39.0294
 30
-8.66949e-15
  70
    32
  0
VERTEX
  8
0
  5
3FAC
 10
782.858
 20
39.0343
 30
-8.67095e-15
  70
    32
  0
VERTEX
  8
0
  5
3FAD
 10
782.862
 20
39.0391
 30
-8.67240e-15
  70
    32
  0
VERTEX
  8
0
  5
3FAE
 10
782.866
 20
39.0440
 30
-8.67383e-15
  70
    32
  0
VERTEX
  8
0
  5
3FAF
 10
782.871
 20
39.0490
 30
-8.67524e-15
  70
    32
  0
VERTEX
  8
0
  5
3FB0
 10
782.875
 20
39.0540
 30
-8.67662e-15
  70
    32
  0
VERTEX
  8
0
  5
3FB1
 10
782.880
 20
39.0590
 30
-8.67798e-15
  70
    32
  0
VERTEX
  8
0
  5
3FB2
 10
782.884
 20
39.0640
 30
-8.67931e-15
  70
    32
  0
VERTEX
  8
0
  5
3FB3
 10
782.889
 20
39.0690
 30
-8.68061e-15
  70
    32
  0
VERTEX
  8
0
  5
3FB4
 10
782.894
 20
39.0741
 30
-8.68189e-15
  70
    32
  0
VERTEX
  8
0
  5
3FB5
 10
782.898
 20
39.0792
 30
-8.68313e-15
  70
    32
  0
VERTEX
  8
0
  5
3FB6
 10
782.903
 20
39.0844
 30
-8.68434e-15
  70
    32
  0
VERTEX
  8
0
  5
3FB7
 10
782.908
 20
39.0895
 30
-8.68552e-15
  70
    32
  0
VERTEX
  8
0
  5
3FB8
 10
782.912
 20
39.0947
 30
-8.68666e-15
  70
    32
  0
VERTEX
  8
0
  5
3FB9
 10
782.917
 20
39.0999
 30
-8.68776e-15
  70
    32
  0
VERTEX
  8
0
  5
3FBA
 10
782.922
 20
39.1052
 30
-8.68883e-15
  70
    32
  0
VERTEX
  8
0
  5
3FBB
 10
782.927
 20
39.1104
 30
-8.68986e-15
  70
    32
  0
VERTEX
  8
0
  5
3FBC
 10
782.931
 20
39.1157
 30
-8.69085e-15
  70
    32
  0
VERTEX
  8
0
  5
3FBD
 10
782.936
 20
39.1211
 30
-8.69179e-15
  70
    32
  0
VERTEX
  8
0
  5
3FBE
 10
782.941
 20
39.1264
 30
-8.69269e-15
  70
    32
  0
VERTEX
  8
0
  5
3FBF
 10
782.946
 20
39.1318
 30
-8.69355e-15
  70
    32
  0
VERTEX
  8
0
  5
3FC0
 10
782.951
 20
39.1372
 30
-8.69436e-15
  70
    32
  0
VERTEX
  8
0
  5
3FC1
 10
782.956
 20
39.1427
 30
-8.69512e-15
  70
    32
  0
VERTEX
  8
0
  5
3FC2
 10
782.961
 20
39.1481
 30
-8.69583e-15
  70
    32
  0
VERTEX
  8
0
  5
3FC3
 10
782.966
 20
39.1536
 30
-8.69649e-15
  70
    32
  0
VERTEX
  8
0
  5
3FC4
 10
782.971
 20
39.1591
 30
-8.69710e-15
  70
    32
  0
VERTEX
  8
0
  5
3FC5
 10
782.976
 20
39.1647
 30
-8.69765e-15
  70
    32
  0
VERTEX
  8
0
  5
3FC6
 10
782.981
 20
39.1702
 30
-8.69815e-15
  70
    32
  0
VERTEX
  8
0
  5
3FC7
 10
782.986
 20
39.1758
 30
-8.69860e-15
  70
    32
  0
VERTEX
  8
0
  5
3FC8
 10
782.991
 20
39.1815
 30
-8.69898e-15
  70
    32
  0
VERTEX
  8
0
  5
3FC9
 10
782.996
 20
39.1871
 30
-8.69931e-15
  70
    32
  0
VERTEX
  8
0
  5
3FCA
 10
783.001
 20
39.1928
 30
-8.69957e-15
  70
    32
  0
VERTEX
  8
0
  5
3FCB
 10
783.006
 20
39.1985
 30
-8.69978e-15
  70
    32
  0
VERTEX
  8
0
  5
3FCC
 10
783.011
 20
39.2042
 30
-8.69991e-15
  70
    32
  0
VERTEX
  8
0
  5
3FCD
 10
783.017
 20
39.2100
 30
-8.69999e-15
  70
    32
  0
VERTEX
  8
0
  5
3FCE
 10
783.022
 20
39.2158
 30
-8.70001e-15
  70
    32
  0
VERTEX
  8
0
  5
3FCF
 10
783.027
 20
39.2216
 30
-8.70013e-15
  70
    32
  0
VERTEX
  8
0
  5
3FD0
 10
783.032
 20
39.2274
 30
-8.70038e-15
  70
    32
  0
VERTEX
  8
0
  5
3FD1
 10
783.038
 20
39.2333
 30
-8.70076e-15
  70
    32
  0
VERTEX
  8
0
  5
3FD2
 10
783.043
 20
39.2391
 30
-8.70126e-15
  70
    32
  0
VERTEX
  8
0
  5
3FD3
 10
783.048
 20
39.2451
 30
-8.70187e-15
  70
    32
  0
VERTEX
  8
0
  5
3FD4
 10
783.054
 20
39.2510
 30
-8.70260e-15
  70
    32
  0
VERTEX
  8
0
  5
3FD5
 10
783.059
 20
39.2570
 30
-8.70345e-15
  70
    32
  0
VERTEX
  8
0
  5
3FD6
 10
783.065
 20
39.2629
 30
-8.70439e-15
  70
    32
  0
VERTEX
  8
0
  5
3FD7
 10
783.070
 20
39.2690
 30
-8.70544e-15
  70
    32
  0
VERTEX
  8
0
  5
3FD8
 10
783.076
 20
39.2750
 30
-8.70659e-15
  70
    32
  0
VERTEX
  8
0
  5
3FD9
 10
783.081
 20
39.2811
 30
-8.70783e-15
  70
    32
  0
VERTEX
  8
0
  5
3FDA
 10
783.087
 20
39.2872
 30
-8.70915e-15
  70
    32
  0
VERTEX
  8
0
  5
3FDB
 10
783.092
 20
39.2933
 30
-8.71057e-15
  70
    32
  0
VERTEX
  8
0
  5
3FDC
 10
783.098
 20
39.2994
 30
-8.71206e-15
  70
    32
  0
VERTEX
  8
0
  5
3FDD
 10
783.103
 20
39.3056
 30
-8.71364e-15
  70
    32
  0
VERTEX
  8
0
  5
3FDE
 10
783.109
 20
39.3118
 30
-8.71528e-15
  70
    32
  0
VERTEX
  8
0
  5
3FDF
 10
783.115
 20
39.3180
 30
-8.71700e-15
  70
    32
  0
VERTEX
  8
0
  5
3FE0
 10
783.120
 20
39.3242
 30
-8.71877e-15
  70
    32
  0
VERTEX
  8
0
  5
3FE1
 10
783.126
 20
39.3305
 30
-8.72061e-15
  70
    32
  0
VERTEX
  8
0
  5
3FE2
 10
783.132
 20
39.3368
 30
-8.72251e-15
  70
    32
  0
VERTEX
  8
0
  5
3FE3
 10
783.137
 20
39.3431
 30
-8.72446e-15
  70
    32
  0
VERTEX
  8
0
  5
3FE4
 10
783.143
 20
39.3494
 30
-8.72646e-15
  70
    32
  0
VERTEX
  8
0
  5
3FE5
 10
783.149
 20
39.3558
 30
-8.72850e-15
  70
    32
  0
VERTEX
  8
0
  5
3FE6
 10
783.155
 20
39.3621
 30
-8.73058e-15
  70
    32
  0
VERTEX
  8
0
  5
3FE7
 10
783.161
 20
39.3685
 30
-8.73270e-15
  70
    32
  0
VERTEX
  8
0
  5
3FE8
 10
783.166
 20
39.3750
 30
-8.73485e-15
  70
    32
  0
VERTEX
  8
0
  5
3FE9
 10
783.172
 20
39.3814
 30
-8.73702e-15
  70
    32
  0
VERTEX
  8
0
  5
3FEA
 10
783.178
 20
39.3879
 30
-8.73923e-15
  70
    32
  0
VERTEX
  8
0
  5
3FEB
 10
783.184
 20
39.3944
 30
-8.74145e-15
  70
    32
  0
VERTEX
  8
0
  5
3FEC
 10
783.190
 20
39.4009
 30
-8.74368e-15
  70
    32
  0
VERTEX
  8
0
  5
3FED
 10
783.196
 20
39.4075
 30
-8.74593e-15
  70
    32
  0
VERTEX
  8
0
  5
3FEE
 10
783.202
 20
39.4140
 30
-8.74819e-15
  70
    32
  0
VERTEX
  8
0
  5
3FEF
 10
783.208
 20
39.4206
 30
-8.75045e-15
  70
    32
  0
VERTEX
  8
0
  5
3FF0
 10
783.214
 20
39.4272
 30
-8.75270e-15
  70
    32
  0
VERTEX
  8
0
  5
3FF1
 10
783.220
 20
39.4339
 30
-8.75496e-15
  70
    32
  0
VERTEX
  8
0
  5
3FF2
 10
783.226
 20
39.4405
 30
-8.75720e-15
  70
    32
  0
VERTEX
  8
0
  5
3FF3
 10
783.232
 20
39.4472
 30
-8.75943e-15
  70
    32
  0
VERTEX
  8
0
  5
3FF4
 10
783.238
 20
39.4539
 30
-8.76165e-15
  70
    32
  0
VERTEX
  8
0
  5
3FF5
 10
783.244
 20
39.4606
 30
-8.76384e-15
  70
    32
  0
VERTEX
  8
0
  5
3FF6
 10
783.250
 20
39.4674
 30
-8.76601e-15
  70
    32
  0
VERTEX
  8
0
  5
3FF7
 10
783.256
 20
39.4742
 30
-8.76814e-15
  70
    32
  0
VERTEX
  8
0
  5
3FF8
 10
783.263
 20
39.4810
 30
-8.77025e-15
  70
    32
  0
VERTEX
  8
0
  5
3FF9
 10
783.269
 20
39.4878
 30
-8.77231e-15
  70
    32
  0
VERTEX
  8
0
  5
3FFA
 10
783.275
 20
39.4946
 30
-8.77434e-15
  70
    32
  0
VERTEX
  8
0
  5
3FFB
 10
783.281
 20
39.5015
 30
-8.77632e-15
  70
    32
  0
VERTEX
  8
0
  5
3FFC
 10
783.288
 20
39.5084
 30
-8.77825e-15
  70
    32
  0
VERTEX
  8
0
  5
3FFD
 10
783.294
 20
39.5153
 30
-8.78012e-15
  70
    32
  0
VERTEX
  8
0
  5
3FFE
 10
783.300
 20
39.5222
 30
-8.78194e-15
  70
    32
  0
VERTEX
  8
0
  5
3FFF
 10
783.306
 20
39.5291
 30
-8.78369e-15
  70
    32
  0
VERTEX
  8
0
  5
4000
 10
783.313
 20
39.5361
 30
-8.78538e-15
  70
    32
  0
VERTEX
  8
0
  5
4001
 10
783.319
 20
39.5431
 30
-8.78699e-15
  70
    32
  0
VERTEX
  8
0
  5
4002
 10
783.326
 20
39.5501
 30
-8.78854e-15
  70
    32
  0
VERTEX
  8
0
  5
4003
 10
783.332
 20
39.5571
 30
-8.79000e-15
  70
    32
  0
VERTEX
  8
0
  5
4004
 10
783.338
 20
39.5642
 30
-8.79138e-15
  70
    32
  0
VERTEX
  8
0
  5
4005
 10
783.345
 20
39.5712
 30
-8.79268e-15
  70
    32
  0
VERTEX
  8
0
  5
4006
 10
783.351
 20
39.5783
 30
-8.79388e-15
  70
    32
  0
VERTEX
  8
0
  5
4007
 10
783.358
 20
39.5854
 30
-8.79499e-15
  70
    32
  0
VERTEX
  8
0
  5
4008
 10
783.364
 20
39.5926
 30
-8.79599e-15
  70
    32
  0
VERTEX
  8
0
  5
4009
 10
783.371
 20
39.5997
 30
-8.79690e-15
  70
    32
  0
VERTEX
  8
0
  5
400A
 10
783.377
 20
39.6069
 30
-8.79770e-15
  70
    32
  0
VERTEX
  8
0
  5
400B
 10
783.384
 20
39.6141
 30
-8.79838e-15
  70
    32
  0
VERTEX
  8
0
  5
400C
 10
783.390
 20
39.6213
 30
-8.79895e-15
  70
    32
  0
VERTEX
  8
0
  5
400D
 10
783.397
 20
39.6285
 30
-8.79941e-15
  70
    32
  0
VERTEX
  8
0
  5
400E
 10
783.404
 20
39.6358
 30
-8.79973e-15
  70
    32
  0
VERTEX
  8
0
  5
400F
 10
783.410
 20
39.6431
 30
-8.79993e-15
  70
    32
  0
VERTEX
  8
0
  5
4010
 10
783.417
 20
39.6503
 30
-8.80000e-15
  70
    32
  0
SEQEND
  8
0
  5
4011
  0
POLYLINE
  8
0
  5
4012
  66
     1
 10
0.000000
 20
0.000000
 30
0.000000
  70
     8
  0
VERTEX
  8
0
  5
4013
 10
705.446
 20
39.6503
 30
-8.80000e-15
  70
    32
  0
VERTEX
  8
0
  5
4014
 10
705.430
 20
39.6420
 30
-8.79991e-15
  70
    32
  0
VERTEX
  8
0
  5
4015
 10
705.414
 20
39.6337
 30
-8.79965e-15
  70
    32
  0
VERTEX
  8
0
  5
4016
 10
705.399
 20
39.6255
 30
-8.79923e-15
  70
    32
  0
VERTEX
  8
0
  5
4017
 10
705.383
 20
39.6172
 30
-8.79865e-15
  70
    32
  0
VERTEX
  8
0
  5
4018
 10
705.367
 20
39.6090
 30
-8.79791e-15
  70
    32
  0
VERTEX
  8
0
  5
4019
 10
705.352
 20
39.6008
 30
-8.79703e-15
  70
    32
  0
VERTEX
  8
0
  5
401A
 10
705.336
 20
39.5927
 30
-8.79601e-15
  70
    32
  0
VERTEX
  8
0
  5
401B
 10
705.320
 20
39.5845
 30
-8.79485e-15
  70
    32
  0
VERTEX
  8
0
  5
401C
 10
705.304
 20
39.5764
 30
-8.79356e-15
  70
    32
  0
VERTEX
  8
0
  5
401D
 10
705.288
 20
39.5683
 30
-8.79216e-15
  70
    32
  0
VERTEX
  8
0
  5
401E
 10
705.272
 20
39.5603
 30
-8.79063e-15
  70
    32
  0
VERTEX
  8
0
  5
401F
 10
705.256
 20
39.5523
 30
-8.78900e-15
  70
    32
  0
VERTEX
  8
0
  5
4020
 10
705.240
 20
39.5443
 30
-8.78726e-15
  70
    32
  0
VERTEX
  8
0
  5
4021
 10
705.224
 20
39.5363
 30
-8.78542e-15
  70
    32
  0
VERTEX
  8
0
  5
4022
 10
705.208
 20
39.5283
 30
-8.78349e-15
  70
    32
  0
VERTEX
  8
0
  5
4023
 10
705.192
 20
39.5204
 30
-8.78148e-15
  70
    32
  0
VERTEX
  8
0
  5
4024
 10
705.176
 20
39.5125
 30
-8.77938e-15
  70
    32
  0
VERTEX
  8
0
  5
4025
 10
705.160
 20
39.5047
 30
-8.77722e-15
  70
    32
  0
VERTEX
  8
0
  5
4026
 10
705.144
 20
39.4968
 30
-8.77498e-15
  70
    32
  0
VERTEX
  8
0
  5
4027
 10
705.128
 20
39.4890
 30
-8.77268e-15
  70
    32
  0
VERTEX
  8
0
  5
4028
 10
705.112
 20
39.4812
 30
-8.77033e-15
  70
    32
  0
VERTEX
  8
0
  5
4029
 10
705.096
 20
39.4735
 30
-8.76793e-15
  70
    32
  0
VERTEX
  8
0
  5
402A
 10
705.079
 20
39.4658
 30
-8.76548e-15
  70
    32
  0
VERTEX
  8
0
  5
402B
 10
705.063
 20
39.4581
 30
-8.76300e-15
  70
    32
  0
VERTEX
  8
0
  5
402C
 10
705.047
 20
39.4504
 30
-8.76049e-15
  70
    32
  0
VERTEX
  8
0
  5
402D
 10
705.031
 20
39.4428
 30
-8.75795e-15
  70
    32
  0
VERTEX
  8
0
  5
402E
 10
705.014
 20
39.4352
 30
-8.75540e-15
  70
    32
  0
VERTEX
  8
0
  5
402F
 10
704.998
 20
39.4276
 30
-8.75283e-15
  70
    32
  0
VERTEX
  8
0
  5
4030
 10
704.982
 20
39.4200
 30
-8.75025e-15
  70
    32
  0
VERTEX
  8
0
  5
4031
 10
704.965
 20
39.4125
 30
-8.74767e-15
  70
    32
  0
VERTEX
  8
0
  5
4032
 10
704.949
 20
39.4050
 30
-8.74510e-15
  70
    32
  0
VERTEX
  8
0
  5
4033
 10
704.932
 20
39.3976
 30
-8.74254e-15
  70
    32
  0
VERTEX
  8
0
  5
4034
 10
704.916
 20
39.3902
 30
-8.74000e-15
  70
    32
  0
VERTEX
  8
0
  5
4035
 10
704.899
 20
39.3828
 30
-8.73748e-15
  70
    32
  0
VERTEX
  8
0
  5
4036
 10
704.883
 20
39.3754
 30
-8.73499e-15
  70
    32
  0
VERTEX
  8
0
  5
4037
 10
704.866
 20
39.3681
 30
-8.73254e-15
  70
    32
  0
VERTEX
  8
0
  5
4038
 10
704.850
 20
39.3608
 30
-8.73013e-15
  70
    32
  0
VERTEX
  8
0
  5
4039
 10
704.833
 20
39.3535
 30
-8.72777e-15
  70
    32
  0
VERTEX
  8
0
  5
403A
 10
704.817
 20
39.3462
 30
-8.72546e-15
  70
    32
  0
VERTEX
  8
0
  5
403B
 10
704.800
 20
39.3390
 30
-8.72321e-15
  70
    32
  0
VERTEX
  8
0
  5
403C
 10
704.783
 20
39.3319
 30
-8.72103e-15
  70
    32
  0
VERTEX
  8
0
  5
403D
 10
704.767
 20
39.3247
 30
-8.71892e-15
  70
    32
  0
VERTEX
  8
0
  5
403E
 10
704.750
 20
39.3176
 30
-8.71689e-15
  70
    32
  0
VERTEX
  8
0
  5
403F
 10
704.733
 20
39.3105
 30
-8.71494e-15
  70
    32
  0
VERTEX
  8
0
  5
4040
 10
704.717
 20
39.3035
 30
-8.71309e-15
  70
    32
  0
VERTEX
  8
0
  5
4041
 10
704.700
 20
39.2964
 30
-8.71133e-15
  70
    32
  0
VERTEX
  8
0
  5
4042
 10
704.683
 20
39.2894
 30
-8.70968e-15
  70
    32
  0
VERTEX
  8
0
  5
4043
 10
704.666
 20
39.2825
 30
-8.70813e-15
  70
    32
  0
VERTEX
  8
0
  5
4044
 10
704.649
 20
39.2756
 30
-8.70670e-15
  70
    32
  0
VERTEX
  8
0
  5
4045
 10
704.633
 20
39.2687
 30
-8.70539e-15
  70
    32
  0
VERTEX
  8
0
  5
4046
 10
704.616
 20
39.2618
 30
-8.70421e-15
  70
    32
  0
VERTEX
  8
0
  5
4047
 10
704.599
 20
39.2550
 30
-8.70316e-15
  70
    32
  0
VERTEX
  8
0
  5
4048
 10
704.582
 20
39.2482
 30
-8.70225e-15
  70
    32
  0
VERTEX
  8
0
  5
4049
 10
704.565
 20
39.2414
 30
-8.70148e-15
  70
    32
  0
VERTEX
  8
0
  5
404A
 10
704.548
 20
39.2347
 30
-8.70087e-15
  70
    32
  0
VERTEX
  8
0
  5
404B
 10
704.531
 20
39.2280
 30
-8.70042e-15
  70
    32
  0
VERTEX
  8
0
  5
404C
 10
704.514
 20
39.2214
 30
-8.70012e-15
  70
    32
  0
VERTEX
  8
0
  5
404D
 10
704.497
 20
39.2147
 30
-8.70000e-15
  70
    32
  0
VERTEX
  8
0
  5
404E
 10
704.480
 20
39.2082
 30
-8.69997e-15
  70
    32
  0
VERTEX
  8
0
  5
404F
 10
704.463
 20
39.2016
 30
-8.69986e-15
  70
    32
  0
VERTEX
  8
0
  5
4050
 10
704.446
 20
39.1951
 30
-8.69966e-15
  70
    32
  0
VERTEX
  8
0
  5
4051
 10
704.429
 20
39.1886
 30
-8.69938e-15
  70
    32
  0
VERTEX
  8
0
  5
4052
 10
704.412
 20
39.1821
 30
-8.69902e-15
  70
    32
  0
VERTEX
  8
0
  5
4053
 10
704.395
 20
39.1757
 30
-8.69859e-15
  70
    32
  0
VERTEX
  8
0
  5
4054
 10
704.377
 20
39.1693
 30
-8.69808e-15
  70
    32
  0
VERTEX
  8
0
  5
4055
 10
704.360
 20
39.1630
 30
-8.69749e-15
  70
    32
  0
VERTEX
  8
0
  5
4056
 10
704.343
 20
39.1567
 30
-8.69684e-15
  70
    32
  0
VERTEX
  8
0
  5
4057
 10
704.326
 20
39.1504
 30
-8.69611e-15
  70
    32
  0
VERTEX
  8
0
  5
4058
 10
704.309
 20
39.1442
 30
-8.69532e-15
  70
    32
  0
VERTEX
  8
0
  5
4059
 10
704.291
 20
39.1379
 30
-8.69446e-15
  70
    32
  0
VERTEX
  8
0
  5
405A
 10
704.274
 20
39.1318
 30
-8.69354e-15
  70
    32
  0
VERTEX
  8
0
  5
405B
 10
704.257
 20
39.1256
 30
-8.69256e-15
  70
    32
  0
VERTEX
  8
0
  5
405C
 10
704.239
 20
39.1195
 30
-8.69152e-15
  70
    32
  0
VERTEX
  8
0
  5
405D
 10
704.222
 20
39.1135
 30
-8.69043e-15
  70
    32
  0
VERTEX
  8
0
  5
405E
 10
704.205
 20
39.1074
 30
-8.68928e-15
  70
    32
  0
VERTEX
  8
0
  5
405F
 10
704.187
 20
39.1014
 30
-8.68808e-15
  70
    32
  0
VERTEX
  8
0
  5
4060
 10
704.170
 20
39.0955
 30
-8.68682e-15
  70
    32
  0
VERTEX
  8
0
  5
4061
 10
704.152
 20
39.0895
 30
-8.68552e-15
  70
    32
  0
VERTEX
  8
0
  5
4062
 10
704.135
 20
39.0837
 30
-8.68418e-15
  70
    32
  0
VERTEX
  8
0
  5
4063
 10
704.118
 20
39.0778
 30
-8.68279e-15
  70
    32
  0
VERTEX
  8
0
  5
4064
 10
704.100
 20
39.0720
 30
-8.68136e-15
  70
    32
  0
VERTEX
  8
0
  5
4065
 10
704.083
 20
39.0662
 30
-8.67989e-15
  70
    32
  0
VERTEX
  8
0
  5
4066
 10
704.065
 20
39.0605
 30
-8.67838e-15
  70
    32
  0
VERTEX
  8
0
  5
4067
 10
704.048
 20
39.0548
 30
-8.67684e-15
  70
    32
  0
VERTEX
  8
0
  5
4068
 10
704.030
 20
39.0491
 30
-8.67527e-15
  70
    32
  0
VERTEX
  8
0
  5
4069
 10
704.012
 20
39.0435
 30
-8.67366e-15
  70
    32
  0
VERTEX
  8
0
  5
406A
 10
703.995
 20
39.0379
 30
-8.67203e-15
  70
    32
  0
VERTEX
  8
0
  5
406B
 10
703.977
 20
39.0323
 30
-8.67037e-15
  70
    32
  0
VERTEX
  8
0
  5
406C
 10
703.960
 20
39.0268
 30
-8.66868e-15
  70
    32
  0
VERTEX
  8
0
  5
406D
 10
703.942
 20
39.0213
 30
-8.66697e-15
  70
    32
  0
VERTEX
  8
0
  5
406E
 10
703.924
 20
39.0158
 30
-8.66524e-15
  70
    32
  0
VERTEX
  8
0
  5
406F
 10
703.907
 20
39.0104
 30
-8.66350e-15
  70
    32
  0
VERTEX
  8
0
  5
4070
 10
703.889
 20
39.0050
 30
-8.66173e-15
  70
    32
  0
VERTEX
  8
0
  5
4071
 10
703.871
 20
38.9997
 30
-8.65996e-15
  70
    32
  0
VERTEX
  8
0
  5
4072
 10
703.854
 20
38.9944
 30
-8.65817e-15
  70
    32
  0
VERTEX
  8
0
  5
4073
 10
703.836
 20
38.9891
 30
-8.65637e-15
  70
    32
  0
VERTEX
  8
0
  5
4074
 10
703.818
 20
38.9839
 30
-8.65457e-15
  70
    32
  0
VERTEX
  8
0
  5
4075
 10
703.800
 20
38.9787
 30
-8.65276e-15
  70
    32
  0
VERTEX
  8
0
  5
4076
 10
703.783
 20
38.9736
 30
-8.65094e-15
  70
    32
  0
VERTEX
  8
0
  5
4077
 10
703.765
 20
38.9685
 30
-8.64913e-15
  70
    32
  0
VERTEX
  8
0
  5
4078
 10
703.747
 20
38.9634
 30
-8.64732e-15
  70
    32
  0
VERTEX
  8
0
  5
4079
 10
703.729
 20
38.9584
 30
-8.64550e-15
  70
    32
  0
VERTEX
  8
0
  5
407A
 10
703.711
 20
38.9534
 30
-8.64370e-15
  70
    32
  0
VERTEX
  8
0
  5
407B
 10
703.694
 20
38.9484
 30
-8.64190e-15
  70
    32
  0
VERTEX
  8
0
  5
407C
 10
703.676
 20
38.9435
 30
-8.64011e-15
  70
    32
  0
VERTEX
  8
0
  5
407D
 10
703.658
 20
38.9386
 30
-8.63834e-15
  70
    32
  0
VERTEX
  8
0
  5
407E
 10
703.640
 20
38.9337
 30
-8.63657e-15
  70
    32
  0
VERTEX
  8
0
  5
407F
 10
703.622
 20
38.9289
 30
-8.63483e-15
  70
    32
  0
VERTEX
  8
0
  5
4080
 10
703.604
 20
38.9242
 30
-8.63310e-15
  70
    32
  0
VERTEX
  8
0
  5
4081
 10
703.586
 20
38.9194
 30
-8.63139e-15
  70
    32
  0
VERTEX
  8
0
  5
4082
 10
703.568
 20
38.9148
 30
-8.62970e-15
  70
    32
  0
VERTEX
  8
0
  5
4083
 10
703.550
 20
38.9101
 30
-8.62804e-15
  70
    32
  0
VERTEX
  8
0
  5
4084
 10
703.532
 20
38.9055
 30
-8.62640e-15
  70
    32
  0
VERTEX
  8
0
  5
4085
 10
703.514
 20
38.9009
 30
-8.62480e-15
  70
    32
  0
VERTEX
  8
0
  5
4086
 10
703.496
 20
38.8964
 30
-8.62322e-15
  70
    32
  0
VERTEX
  8
0
  5
4087
 10
703.478
 20
38.8919
 30
-8.62168e-15
  70
    32
  0
VERTEX
  8
0
  5
4088
 10
703.460
 20
38.8874
 30
-8.62017e-15
  70
    32
  0
VERTEX
  8
0
  5
4089
 10
703.442
 20
38.8830
 30
-8.61870e-15
  70
    32
  0
VERTEX
  8
0
  5
408A
 10
703.424
 20
38.8787
 30
-8.61727e-15
  70
    32
  0
VERTEX
  8
0
  5
408B
 10
703.406
 20
38.8743
 30
-8.61588e-15
  70
    32
  0
VERTEX
  8
0
  5
408C
 10
703.388
 20
38.8700
 30
-8.61453e-15
  70
    32
  0
VERTEX
  8
0
  5
408D
 10
703.370
 20
38.8658
 30
-8.61323e-15
  70
    32
  0
VERTEX
  8
0
  5
408E
 10
703.352
 20
38.8616
 30
-8.61197e-15
  70
    32
  0
VERTEX
  8
0
  5
408F
 10
703.334
 20
38.8574
 30
-8.61077e-15
  70
    32
  0
VERTEX
  8
0
  5
4090
 10
703.316
 20
38.8533
 30
-8.60962e-15
  70
    32
  0
VERTEX
  8
0
  5
4091
 10
703.298
 20
38.8492
 30
-8.60852e-15
  70
    32
  0
VERTEX
  8
0
  5
4092
 10
703.280
 20
38.8451
 30
-8.60748e-15
  70
    32
  0
VERTEX
  8
0
  5
4093
 10
703.262
 20
38.8411
 30
-8.60650e-15
  70
    32
  0
VERTEX
  8
0
  5
4094
 10
703.243
 20
38.8371
 30
-8.60557e-15
  70
    32
  0
VERTEX
  8
0
  5
4095
 10
703.225
 20
38.8332
 30
-8.60471e-15
  70
    32
  0
VERTEX
  8
0
  5
4096
 10
703.207
 20
38.8293
 30
-8.60392e-15
  70
    32
  0
VERTEX
  8
0
  5
4097
 10
703.189
 20
38.8255
 30
-8.60319e-15
  70
    32
  0
VERTEX
  8
0
  5
4098
 10
703.171
 20
38.8217
 30
-8.60253e-15
  70
    32
  0
VERTEX
  8
0
  5
4099
 10
703.153
 20
38.8179
 30
-8.60194e-15
  70
    32
  0
VERTEX
  8
0
  5
409A
 10
703.134
 20
38.8142
 30
-8.60143e-15
  70
    32
  0
VERTEX
  8
0
  5
409B
 10
703.116
 20
38.8105
 30
-8.60099e-15
  70
    32
  0
VERTEX
  8
0
  5
409C
 10
703.098
 20
38.8068
 30
-8.60063e-15
  70
    32
  0
VERTEX
  8
0
  5
409D
 10
703.080
 20
38.8032
 30
-8.60035e-15
  70
    32
  0
VERTEX
  8
0
  5
409E
 10
703.062
 20
38.7997
 30
-8.60015e-15
  70
    32
  0
VERTEX
  8
0
  5
409F
 10
703.043
 20
38.7962
 30
-8.60003e-15
  70
    32
  0
VERTEX
  8
0
  5
40A0
 10
703.025
 20
38.7927
 30
-8.60000e-15
  70
    32
  0
VERTEX
  8
0
  5
40A1
 10
703.007
 20
38.7893
 30
-8.60000e-15
  70
    32
  0
VERTEX
  8
0
  5
40A2
 10
702.989
 20
38.7859
 30
-8.60000e-15
  70
    32
  0
VERTEX
  8
0
  5
40A3
 10
702.970
 20
38.7825
 30
-8.60000e-15
  70
    32
  0
VERTEX
  8
0
  5
40A4
 10
702.952
 20
38.7792
 30
-8.60000e-15
  70
    32
  0
VERTEX
  8
0
  5
40A5
 10
702.934
 20
38.7759
 30
-8.60000e-15
  70
    32
  0
VERTEX
  8
0
  5
40A6
 10
702.915
 20
38.7727
 30
-8.60000e-15
  70
    32
  0
VERTEX
  8
0
  5
40A7
 10
702.897
 20
38.7695
 30
-8.60000e-15
  70
    32
  0
VERTEX
  8
0
  5
40A8
 10
702.879
 20
38.7664
 30
-8.60000e-15
  70
    32
  0
VERTEX
  8
0
  5
40A9
 10
702.860
 20
38.7633
 30
-8.60000e-15
  70
    32
  0
VERTEX
  8
0
  5
40AA
 10
702.842
 20
38.7602
 30
-8.60000e-15
  70
    32
  0
VERTEX
  8
0
  5
40AB
 10
702.824
 20
38.7572
 30
-8.60000e-15
  70
    32
  0
VERTEX
  8
0
  5
40AC
 10
702.805
 20
38.7543
 30
-8.60000e-15
  70
    32
  0
VERTEX
  8
0
  5
40AD
 10
702.787
 20
38.7513
 30
-8.60000e-15
  70
    32
  0
VERTEX
  8
0
  5
40AE
 10
702.769
 20
38.7484
 30
-8.60000e-15
  70
    32
  0
VERTEX
  8
0
  5
40AF
 10
702.750
 20
38.7456
 30
-8.60000e-15
  70
    32
  0
VERTEX
  8
0
  5
40B0
 10
702.732
 20
38.7428
 30
-8.60000e-15
  70
    32
  0
VERTEX
  8
0
  5
40B1
 10
702.714
 20
38.7400
 30
-8.60000e-15
  70
    32
  0
VERTEX
  8
0
  5
40B2
 10
702.695
 20
38.7373
 30
-8.60000e-15
  70
    32
  0
VERTEX
  8
0
  5
40B3
 10
702.677
 20
38.7346
 30
-8.60000e-15
  70
    32
  0
VERTEX
  8
0
  5
40B4
 10
702.659
 20
38.7320
 30
-8.60000e-15
  70
    32
  0
VERTEX
  8
0
  5
40B5
 10
702.640
 20
38.7294
 30
-8.60000e-15
  70
    32
  0
VERTEX
  8
0
  5
40B6
 10
702.622
 20
38.7268
 30
-8.60000e-15
  70
    32
  0
VERTEX
  8
0
  5
40B7
 10
702.604
 20
38.7243
 30
-8.60000e-15
  70
    32
  0
VERTEX
  8
0
  5
40B8
 10
702.585
 20
38.7219
 30
-8.60000e-15
  70
    32
  0
VERTEX
  8
0
  5
40B9
 10
702.567
 20
38.7194
 30
-8.60000e-15
  70
    32
  0
VERTEX
  8
0
  5
40BA
 10
702.548
 20
38.7171
 30
-8.60000e-15
  70
    32
  0
VERTEX
  8
0
  5
40BB
 10
702.530
 20
38.7147
 30
-8.60000e-15
  70
    32
  0
VERTEX
  8
0
  5
40BC
 10
702.512
 20
38.7124
 30
-8.60000e-15
  70
    32
  0
VERTEX
  8
0
  5
40BD
 10
702.493
 20
38.7102
 30
-8.60000e-15
  70
    32
  0
VERTEX
  8
0
  5
40BE
 10
702.475
 20
38.7079
 30
-8.60000e-15
  70
    32
  0
VERTEX
  8
0
  5
40BF
 10
702.456
 20
38.7058
 30
-8.60000e-15
  70
    32
  0
VERTEX
  8
0
  5
40C0
 10
702.438
 20
38.7036
 30
-8.60000e-15
  70
    32
  0
VERTEX
  8
0
  5
40C1
 10
702.420
 20
38.7015
 30
-8.60000e-15
  70
    32
  0
VERTEX
  8
0
  5
40C2
 10
702.401
 20
38.6995
 30
-8.60000e-15
  70
    32
  0
VERTEX
  8
0
  5
40C3
 10
702.383
 20
38.6975
 30
-8.60000e-15
  70
    32
  0
VERTEX
  8
0
  5
40C4
 10
702.364
 20
38.6955
 30
-8.60000e-15
  70
    32
  0
VERTEX
  8
0
  5
40C5
 10
702.346
 20
38.6936
 30
-8.60000e-15
  70
    32
  0
VERTEX
  8
0
  5
40C6
 10
702.328
 20
38.6917
 30
-8.60000e-15
  70
    32
  0
VERTEX
  8
0
  5
40C7
 10
702.309
 20
38.6899
 30
-8.60000e-15
  70
    32
  0
VERTEX
  8
0
  5
40C8
 10
702.291
 20
38.6881
 30
-8.60000e-15
  70
    32
  0
VERTEX
  8
0
  5
40C9
 10
702.272
 20
38.6863
 30
-8.60000e-15
  70
    32
  0
VERTEX
  8
0
  5
40CA
 10
702.254
 20
38.6846
 30
-8.60000e-15
  70
    32
  0
VERTEX
  8
0
  5
40CB
 10
702.236
 20
38.6829
 30
-8.60000e-15
  70
    32
  0
VERTEX
  8
0
  5
40CC
 10
702.217
 20
38.6813
 30
-8.60000e-15
  70
    32
  0
VERTEX
  8
0
  5
40CD
 10
702.199
 20
38.6797
 30
-8.60000e-15
  70
    32
  0
VERTEX
  8
0
  5
40CE
 10
702.180
 20
38.6782
 30
-8.60000e-15
  70
    32
  0
VERTEX
  8
0
  5
40CF
 10
702.162
 20
38.6767
 30
-8.60000e-15
  70
    32
  0
VERTEX
  8
0
  5
40D0
 10
702.144
 20
38.6752
 30
-8.60000e-15
  70
    32
  0
VERTEX
  8
0
  5
40D1
 10
702.125
 20
38.6738
 30
-8.60000e-15
  70
    32
  0
VERTEX
  8
0
  5
40D2
 10
702.107
 20
38.6724
 30
-8.60000e-15
  70
    32
  0
VERTEX
  8
0
  5
40D3
 10
702.088
 20
38.6711
 30
-8.60000e-15
  70
    32
  0
VERTEX
  8
0
  5
40D4
 10
702.070
 20
38.6698
 30
-8.60000e-15
  70
    32
  0
VERTEX
  8
0
  5
40D5
 10
702.052
 20
38.6685
 30
-8.60000e-15
  70
    32
  0
VERTEX
  8
0
  5
40D6
 10
702.033
 20
38.6673
 30
-8.60000e-15
  70
    32
  0
VERTEX
  8
0
  5
40D7
 10
702.015
 20
38.6661
 30
-8.60000e-15
  70
    32
  0
VERTEX
  8
0
  5
40D8
 10
701.996
 20
38.6650
 30
-8.60000e-15
  70
    32
  0
VERTEX
  8
0
  5
40D9
 10
701.978
 20
38.6639
 30
-8.60000e-15
  70
    32
  0
VERTEX
  8
0
  5
40DA
 10
701.960
 20
38.6629
 30
-8.60000e-15
  70
    32
  0
VERTEX
  8
0
  5
40DB
 10
701.941
 20
38.6619
 30
-8.60000e-15
  70
    32
  0
VERTEX
  8
0
  5
40DC
 10
701.923
 20
38.6609
 30
-8.60000e-15
  70
    32
  0
VERTEX
  8
0
  5
40DD
 10
701.905
 20
38.6600
 30
-8.60000e-15
  70
    32
  0
VERTEX
  8
0
  5
40DE
 10
701.886
 20
38.6591
 30
-8.60000e-15
  70
    32
  0
VERTEX
  8
0
  5
40DF
 10
701.868
 20
38.6583
 30
-8.60000e-15
  70
    32
  0
VERTEX
  8
0
  5
40E0
 10
701.850
 20
38.6575
 30
-8.60000e-15
  70
    32
  0
VERTEX
  8
0
  5
40E1
 10
701.831
 20
38.6567
 30
-8.60000e-15
  70
    32
  0
VERTEX
  8
0
  5
40E2
 10
701.813
 20
38.6560
 30
-8.60000e-15
  70
    32
  0
VERTEX
  8
0
  5
40E3
 10
701.795
 20
38.6554
 30
-8.60000e-15
  70
    32
  0
VERTEX
  8
0
  5
40E4
 10
701.776
 20
38.6547
 30
-8.60000e-15
  70
    32
  0
VERTEX
  8
0
  5
40E5
 10
701.758
 20
38.6542
 30
-8.60000e-15
  70
    32
  0
VERTEX
  8
0
  5
40E6
 10
701.740
 20
38.6536
 30
-8.60000e-15
  70
    32
  0
VERTEX
  8
0
  5
40E7
 10
701.721
 20
38.6531
 30
-8.60000e-15
  70
    32
  0
VERTEX
  8
0
  5
40E8
 10
701.703
 20
38.6526
 30
-8.60000e-15
  70
    32
  0
VERTEX
  8
0
  5
40E9
 10
701.685
 20
38.6522
 30
-8.60000e-15
  70
    32
  0
VERTEX
  8
0
  5
40EA
 10
701.666
 20
38.6519
 30
-8.60000e-15
  70
    32
  0
VERTEX
  8
0
  5
40EB
 10
701.648
 20
38.6515
 30
-8.60000e-15
  70
    32
  0
VERTEX
  8
0
  5
40EC
 10
701.630
 20
38.6512
 30
-8.60000e-15
  70
    32
  0
VERTEX
  8
0
  5
40ED
 10
701.612
 20
38.6510
 30
-8.60000e-15
  70
    32
  0
VERTEX
  8
0
  5
40EE
 10
701.593
 20
38.6508
 30
-8.60000e-15
  70
    32
  0
VERTEX
  8
0
  5
40EF
 10
701.575
 20
38.6506
 30
-8.60000e-15
  70
    32
  0
VERTEX
  8
0
  5
40F0
 10
701.557
 20
38.6505
 30
-8.60000e-15
  70
    32
  0
VERTEX
  8
0
  5
40F1
 10
701.539
 20
38.6504
 30
-8.60000e-15
  70
    32
  0
VERTEX
  8
0
  5
40F2
 10
701.520
 20
38.6504
 30
-8.60000e-15
  70
    32
  0
VERTEX
  8
0
  5
40F3
 10
701.502
 20
38.6504
 30
-8.60000e-15
  70
    32
  0
VERTEX
  8
0
  5
40F4
 10
701.484
 20
38.6504
 30
-8.60000e-15
  70
    32
  0
VERTEX
  8
0
  5
40F5
 10
701.466
 20
38.6505
 30
-8.60000e-15
  70
    32
  0
VERTEX
  8
0
  5
40F6
 10
701.447
 20
38.6506
 30
-8.60000e-15
  70
    32
  0
VERTEX
  8
0
  5
40F7
 10
701.429
 20
38.6508
 30
-8.60000e-15
  70
    32
  0
VERTEX
  8
0
  5
40F8
 10
701.411
 20
38.6510
 30
-8.60000e-15
  70
    32
  0
VERTEX
  8
0
  5
40F9
 10
701.393
 20
38.6512
 30
-8.60000e-15
  70
    32
  0
VERTEX
  8
0
  5
40FA
 10
701.374
 20
38.6515
 30
-8.60000e-15
  70
    32
  0
VERTEX
  8
0
  5
40FB
 10
701.356
 20
38.6519
 30
-8.60000e-15
  70
    32
  0
VERTEX
  8
0
  5
40FC
 10
701.338
 20
38.6522
 30
-8.60000e-15
  70
    32
  0
VERTEX
  8
0
  5
40FD
 10
701.320
 20
38.6526
 30
-8.60000e-15
  70
    32
  0
VERTEX
  8
0
  5
40FE
 10
701.301
 20
38.6531
 30
-8.60000e-15
  70
    32
  0
VERTEX
  8
0
  5
40FF
 10
701.283
 20
38.6536
 30
-8.60000e-15
  70
    32
  0
VERTEX
  8
0
  5
4100
 10
701.265
 20
38.6542
 30
-8.60000e-15
  70
    32
  0
VERTEX
  8
0
  5
4101
 10
701.246
 20
38.6547
 30
-8.60000e-15
  70
    32
  0
VERTEX
  8
0
  5
4102
 10
701.228
 20
38.6554
 30
-8.60000e-15
  70
    32
  0
VERTEX
  8
0
  5
4103
 10
701.210
 20
38.6560
 30
-8.60000e-15
  70
    32
  0
VERTEX
  8
0
  5
4104
 10
701.191
 20
38.6567
 30
-8.60000e-15
  70
    32
  0
VERTEX
  8
0
  5
4105
 10
701.173
 20
38.6575
 30
-8.60000e-15
  70
    32
  0
VERTEX
  8
0
  5
4106
 10
701.155
 20
38.6583
 30
-8.60000e-15
  70
    32
  0
VERTEX
  8
0
  5
4107
 10
701.136
 20
38.6591
 30
-8.60000e-15
  70
    32
  0
VERTEX
  8
0
  5
4108
 10
701.118
 20
38.6600
 30
-8.60000e-15
  70
    32
  0
VERTEX
  8
0
  5
4109
 10
701.100
 20
38.6609
 30
-8.60000e-15
  70
    32
  0
VERTEX
  8
0
  5
410A
 10
701.081
 20
38.6619
 30
-8.60000e-15
  70
    32
  0
VERTEX
  8
0
  5
410B
 10
701.063
 20
38.6629
 30
-8.60000e-15
  70
    32
  0
VERTEX
  8
0
  5
410C
 10
701.044
 20
38.6639
 30
-8.60000e-15
  70
    32
  0
VERTEX
  8
0
  5
410D
 10
701.026
 20
38.6650
 30
-8.60000e-15
  70
    32
  0
VERTEX
  8
0
  5
410E
 10
701.008
 20
38.6661
 30
-8.60000e-15
  70
    32
  0
VERTEX
  8
0
  5
410F
 10
700.989
 20
38.6673
 30
-8.60000e-15
  70
    32
  0
VERTEX
  8
0
  5
4110
 10
700.971
 20
38.6685
 30
-8.60000e-15
  70
    32
  0
VERTEX
  8
0
  5
4111
 10
700.953
 20
38.6698
 30
-8.60000e-15
  70
    32
  0
VERTEX
  8
0
  5
4112
 10
700.934
 20
38.6711
 30
-8.60000e-15
  70
    32
  0
VERTEX
  8
0
  5
4113
 10
700.916
 20
38.6724
 30
-8.60000e-15
  70
    32
  0
VERTEX
  8
0
  5
4114
 10
700.897
 20
38.6738
 30
-8.60000e-15
  70
    32
  0
VERTEX
  8
0
  5
4115
 10
700.879
 20
38.6752
 30
-8.60000e-15
  70
    32
  0
VERTEX
  8
0
  5
4116
 10
700.861
 20
38.6767
 30
-8.60000e-15
  70
    32
  0
VERTEX
  8
0
  5
4117
 10
700.842
 20
38.6782
 30
-8.60000e-15
  70
    32
  0
VERTEX
  8
0
  5
4118
 10
700.824
 20
38.6797
 30
-8.60000e-15
  70
    32
  0
VERTEX
  8
0
  5
4119
 10
700.805
 20
38.6813
 30
-8.60000e-15
  70
    32
  0
VERTEX
  8
0
  5
411A
 10
700.787
 20
38.6829
 30
-8.60000e-15
  70
    32
  0
VERTEX
  8
0
  5
411B
 10
700.769
 20
38.6846
 30
-8.60000e-15
  70
    32
  0
VERTEX
  8
0
  5
411C
 10
700.750
 20
38.6863
 30
-8.60000e-15
  70
    32
  0
VERTEX
  8
0
  5
411D
 10
700.732
 20
38.6881
 30
-8.60000e-15
  70
    32
  0
VERTEX
  8
0
  5
411E
 10
700.713
 20
38.6899
 30
-8.60000e-15
  70
    32
  0
VERTEX
  8
0
  5
411F
 10
700.695
 20
38.6917
 30
-8.60000e-15
  70
    32
  0
VERTEX
  8
0
  5
4120
 10
700.677
 20
38.6936
 30
-8.60000e-15
  70
    32
  0
VERTEX
  8
0
  5
4121
 10
700.658
 20
38.6955
 30
-8.60000e-15
  70
    32
  0
VERTEX
  8
0
  5
4122
 10
700.640
 20
38.6975
 30
-8.60000e-15
  70
    32
  0
VERTEX
  8
0
  5
4123
 10
700.621
 20
38.6995
 30
-8.60000e-15
  70
    32
  0
VERTEX
  8
0
  5
4124
 10
700.603
 20
38.7015
 30
-8.60000e-15
  70
    32
  0
VERTEX
  8
0
  5
4125
 10
700.585
 20
38.7036
 30
-8.60000e-15
  70
    32
  0
VERTEX
  8
0
  5
4126
 10
700.566
 20
38.7058
 30
-8.60000e-15
  70
    32
  0
VERTEX
  8
0
  5
4127
 10
700.548
 20
38.7079
 30
-8.60000e-15
  70
    32
  0
VERTEX
  8
0
  5
4128
 10
700.529
 20
38.7102
 30
-8.60000e-15
  70
    32
  0
VERTEX
  8
0
  5
4129
 10
700.511
 20
38.7124
 30
-8.60000e-15
  70
    32
  0
VERTEX
  8
0
  5
412A
 10
700.493
 20
38.7147
 30
-8.60000e-15
  70
    32
  0
VERTEX
  8
0
  5
412B
 10
700.474
 20
38.7171
 30
-8.60000e-15
  70
    32
  0
VERTEX
  8
0
  5
412C
 10
700.456
 20
38.7194
 30
-8.60000e-15
  70
    32
  0
VERTEX
  8
0
  5
412D
 10
700.437
 20
38.7219
 30
-8.60000e-15
  70
    32
  0
VERTEX
  8
0
  5
412E
 10
700.419
 20
38.7243
 30
-8.60000e-15
  70
    32
  0
VERTEX
  8
0
  5
412F
 10
700.401
 20
38.7268
 30
-8.60000e-15
  70
    32
  0
VERTEX
  8
0
  5
4130
 10
700.382
 20
38.7294
 30
-8.60000e-15
  70
    32
  0
VERTEX
  8
0
  5
4131
 10
700.364
 20
38.7320
 30
-8.60000e-15
  70
    32
  0
VERTEX
  8
0
  5
4132
 10
700.346
 20
38.7346
 30
-8.60000e-15
  70
    32
  0
VERTEX
  8
0
  5
4133
 10
700.327
 20
38.7373
 30
-8.60000e-15
  70
    32
  0
VERTEX
  8
0
  5
4134
 10
700.309
 20
38.7400
 30
-8.60000e-15
  70
    32
  0
VERTEX
  8
0
  5
4135
 10
700.290
 20
38.7428
 30
-8.60000e-15
  70
    32
  0
VERTEX
  8
0
  5
4136
 10
700.272
 20
38.7456
 30
-8.60000e-15
  70
    32
  0
VERTEX
  8
0
  5
4137
 10
700.254
 20
38.7484
 30
-8.60000e-15
  70
    32
  0
VERTEX
  8
0
  5
4138
 10
700.235
 20
38.7513
 30
-8.60000e-15
  70
    32
  0
VERTEX
  8
0
  5
4139
 10
700.217
 20
38.7543
 30
-8.60000e-15
  70
    32
  0
VERTEX
  8
0
  5
413A
 10
700.199
 20
38.7572
 30
-8.60000e-15
  70
    32
  0
VERTEX
  8
0
  5
413B
 10
700.180
 20
38.7602
 30
-8.60000e-15
  70
    32
  0
VERTEX
  8
0
  5
413C
 10
700.162
 20
38.7633
 30
-8.60000e-15
  70
    32
  0
VERTEX
  8
0
  5
413D
 10
700.144
 20
38.7664
 30
-8.60000e-15
  70
    32
  0
VERTEX
  8
0
  5
413E
 10
700.125
 20
38.7695
 30
-8.60000e-15
  70
    32
  0
VERTEX
  8
0
  5
413F
 10
700.107
 20
38.7727
 30
-8.60000e-15
  70
    32
  0
VERTEX
  8
0
  5
4140
 10
700.089
 20
38.7759
 30
-8.60000e-15
  70
    32
  0
VERTEX
  8
0
  5
4141
 10
700.071
 20
38.7792
 30
-8.60000e-15
  70
    32
  0
VERTEX
  8
0
  5
4142
 10
700.052
 20
38.7825
 30
-8.60000e-15
  70
    32
  0
VERTEX
  8
0
  5
4143
 10
700.034
 20
38.7859
 30
-8.60000e-15
  70
    32
  0
VERTEX
  8
0
  5
4144
 10
700.016
 20
38.7893
 30
-8.60000e-15
  70
    32
  0
VERTEX
  8
0
  5
4145
 10
699.997
 20
38.7927
 30
-8.60000e-15
  70
    32
  0
VERTEX
  8
0
  5
4146
 10
699.979
 20
38.7962
 30
-8.60003e-15
  70
    32
  0
VERTEX
  8
0
  5
4147
 10
699.961
 20
38.7997
 30
-8.60015e-15
  70
    32
  0
VERTEX
  8
0
  5
4148
 10
699.943
 20
38.8032
 30
-8.60035e-15
  70
    32
  0
VERTEX
  8
0
  5
4149
 10
699.925
 20
38.8068
 30
-8.60063e-15
  70
    32
  0
VERTEX
  8
0
  5
414A
 10
699.906
 20
38.8105
 30
-8.60099e-15
  70
    32
  0
VERTEX
  8
0
  5
414B
 10
699.888
 20
38.8142
 30
-8.60143e-15
  70
    32
  0
VERTEX
  8
0
  5
414C
 10
699.870
 20
38.8179
 30
-8.60194e-15
  70
    32
  0
VERTEX
  8
0
  5
414D
 10
699.852
 20
38.8217
 30
-8.60253e-15
  70
    32
  0
VERTEX
  8
0
  5
414E
 10
699.834
 20
38.8255
 30
-8.60319e-15
  70
    32
  0
VERTEX
  8
0
  5
414F
 10
699.815
 20
38.8293
 30
-8.60392e-15
  70
    32
  0
VERTEX
  8
0
  5
4150
 10
699.797
 20
38.8332
 30
-8.60471e-15
  70
    32
  0
VERTEX
  8
0
  5
4151
 10
699.779
 20
38.8371
 30
-8.60557e-15
  70
    32
  0
VERTEX
  8
0
  5
4152
 10
699.761
 20
38.8411
 30
-8.60650e-15
  70
    32
  0
VERTEX
  8
0
  5
4153
 10
699.743
 20
38.8451
 30
-8.60748e-15
  70
    32
  0
VERTEX
  8
0
  5
4154
 10
699.725
 20
38.8492
 30
-8.60852e-15
  70
    32
  0
VERTEX
  8
0
  5
4155
 10
699.707
 20
38.8533
 30
-8.60962e-15
  70
    32
  0
VERTEX
  8
0
  5
4156
 10
699.688
 20
38.8574
 30
-8.61077e-15
  70
    32
  0
VERTEX
  8
0
  5
4157
 10
699.670
 20
38.8616
 30
-8.61197e-15
  70
    32
  0
VERTEX
  8
0
  5
4158
 10
699.652
 20
38.8658
 30
-8.61323e-15
  70
    32
  0
VERTEX
  8
0
  5
4159
 10
699.634
 20
38.8700
 30
-8.61453e-15
  70
    32
  0
VERTEX
  8
0
  5
415A
 10
699.616
 20
38.8743
 30
-8.61588e-15
  70
    32
  0
VERTEX
  8
0
  5
415B
 10
699.598
 20
38.8787
 30
-8.61727e-15
  70
    32
  0
VERTEX
  8
0
  5
415C
 10
699.580
 20
38.8830
 30
-8.61870e-15
  70
    32
  0
VERTEX
  8
0
  5
415D
 10
699.562
 20
38.8874
 30
-8.62017e-15
  70
    32
  0
VERTEX
  8
0
  5
415E
 10
699.544
 20
38.8919
 30
-8.62168e-15
  70
    32
  0
VERTEX
  8
0
  5
415F
 10
699.526
 20
38.8964
 30
-8.62322e-15
  70
    32
  0
VERTEX
  8
0
  5
4160
 10
699.508
 20
38.9009
 30
-8.62480e-15
  70
    32
  0
VERTEX
  8
0
  5
4161
 10
699.490
 20
38.9055
 30
-8.62640e-15
  70
    32
  0
VERTEX
  8
0
  5
4162
 10
699.472
 20
38.9101
 30
-8.62804e-15
  70
    32
  0
VERTEX
  8
0
  5
4163
 10
699.454
 20
38.9148
 30
-8.62970e-15
  70
    32
  0
VERTEX
  8
0
  5
4164
 10
699.436
 20
38.9194
 30
-8.63139e-15
  70
    32
  0
VERTEX
  8
0
  5
4165
 10
699.418
 20
38.9242
 30
-8.63310e-15
  70
    32
  0
VERTEX
  8
0
  5
4166
 10
699.400
 20
38.9289
 30
-8.63483e-15
  70
    32
  0
VERTEX
  8
0
  5
4167
 10
699.382
 20
38.9337
 30
-8.63657e-15
  70
    32
  0
VERTEX
  8
0
  5
4168
 10
699.365
 20
38.9386
 30
-8.63834e-15
  70
    32
  0
VERTEX
  8
0
  5
4169
 10
699.347
 20
38.9435
 30
-8.64011e-15
  70
    32
  0
VERTEX
  8
0
  5
416A
 10
699.329
 20
38.9484
 30
-8.64190e-15
  70
    32
  0
VERTEX
  8
0
  5
416B
 10
699.311
 20
38.9534
 30
-8.64370e-15
  70
    32
  0
VERTEX
  8
0
  5
416C
 10
699.293
 20
38.9584
 30
-8.64550e-15
  70
    32
  0
VERTEX
  8
0
  5
416D
 10
699.275
 20
38.9634
 30
-8.64732e-15
  70
    32
  0
VERTEX
  8
0
  5
416E
 10
699.258
 20
38.9685
 30
-8.64913e-15
  70
    32
  0
VERTEX
  8
0
  5
416F
 10
699.240
 20
38.9736
 30
-8.65094e-15
  70
    32
  0
VERTEX
  8
0
  5
4170
 10
699.222
 20
38.9787
 30
-8.65276e-15
  70
    32
  0
VERTEX
  8
0
  5
4171
 10
699.204
 20
38.9839
 30
-8.65457e-15
  70
    32
  0
VERTEX
  8
0
  5
4172
 10
699.187
 20
38.9891
 30
-8.65637e-15
  70
    32
  0
VERTEX
  8
0
  5
4173
 10
699.169
 20
38.9944
 30
-8.65817e-15
  70
    32
  0
VERTEX
  8
0
  5
4174
 10
699.151
 20
38.9997
 30
-8.65996e-15
  70
    32
  0
VERTEX
  8
0
  5
4175
 10
699.133
 20
39.0050
 30
-8.66173e-15
  70
    32
  0
VERTEX
  8
0
  5
4176
 10
699.116
 20
39.0104
 30
-8.66350e-15
  70
    32
  0
VERTEX
  8
0
  5
4177
 10
699.098
 20
39.0158
 30
-8.66524e-15
  70
    32
  0
VERTEX
  8
0
  5
4178
 10
699.080
 20
39.0213
 30
-8.66697e-15
  70
    32
  0
VERTEX
  8
0
  5
4179
 10
699.063
 20
39.0268
 30
-8.66868e-15
  70
    32
  0
VERTEX
  8
0
  5
417A
 10
699.045
 20
39.0323
 30
-8.67037e-15
  70
    32
  0
VERTEX
  8
0
  5
417B
 10
699.028
 20
39.0379
 30
-8.67203e-15
  70
    32
  0
VERTEX
  8
0
  5
417C
 10
699.010
 20
39.0435
 30
-8.67366e-15
  70
    32
  0
VERTEX
  8
0
  5
417D
 10
698.992
 20
39.0491
 30
-8.67527e-15
  70
    32
  0
VERTEX
  8
0
  5
417E
 10
698.975
 20
39.0548
 30
-8.67684e-15
  70
    32
  0
VERTEX
  8
0
  5
417F
 10
698.957
 20
39.0605
 30
-8.67838e-15
  70
    32
  0
VERTEX
  8
0
  5
4180
 10
698.940
 20
39.0662
 30
-8.67989e-15
  70
    32
  0
VERTEX
  8
0
  5
4181
 10
698.922
 20
39.0720
 30
-8.68136e-15
  70
    32
  0
VERTEX
  8
0
  5
4182
 10
698.905
 20
39.0778
 30
-8.68279e-15
  70
    32
  0
VERTEX
  8
0
  5
4183
 10
698.887
 20
39.0837
 30
-8.68418e-15
  70
    32
  0
VERTEX
  8
0
  5
4184
 10
698.870
 20
39.0895
 30
-8.68552e-15
  70
    32
  0
VERTEX
  8
0
  5
4185
 10
698.853
 20
39.0955
 30
-8.68682e-15
  70
    32
  0
VERTEX
  8
0
  5
4186
 10
698.835
 20
39.1014
 30
-8.68808e-15
  70
    32
  0
VERTEX
  8
0
  5
4187
 10
698.818
 20
39.1074
 30
-8.68928e-15
  70
    32
  0
VERTEX
  8
0
  5
4188
 10
698.800
 20
39.1135
 30
-8.69043e-15
  70
    32
  0
VERTEX
  8
0
  5
4189
 10
698.783
 20
39.1195
 30
-8.69152e-15
  70
    32
  0
VERTEX
  8
0
  5
418A
 10
698.766
 20
39.1256
 30
-8.69256e-15
  70
    32
  0
VERTEX
  8
0
  5
418B
 10
698.749
 20
39.1318
 30
-8.69354e-15
  70
    32
  0
VERTEX
  8
0
  5
418C
 10
698.731
 20
39.1379
 30
-8.69446e-15
  70
    32
  0
VERTEX
  8
0
  5
418D
 10
698.714
 20
39.1442
 30
-8.69532e-15
  70
    32
  0
VERTEX
  8
0
  5
418E
 10
698.697
 20
39.1504
 30
-8.69611e-15
  70
    32
  0
VERTEX
  8
0
  5
418F
 10
698.679
 20
39.1567
 30
-8.69684e-15
  70
    32
  0
VERTEX
  8
0
  5
4190
 10
698.662
 20
39.1630
 30
-8.69749e-15
  70
    32
  0
VERTEX
  8
0
  5
4191
 10
698.645
 20
39.1693
 30
-8.69808e-15
  70
    32
  0
VERTEX
  8
0
  5
4192
 10
698.628
 20
39.1757
 30
-8.69859e-15
  70
    32
  0
VERTEX
  8
0
  5
4193
 10
698.611
 20
39.1821
 30
-8.69902e-15
  70
    32
  0
VERTEX
  8
0
  5
4194
 10
698.594
 20
39.1886
 30
-8.69938e-15
  70
    32
  0
VERTEX
  8
0
  5
4195
 10
698.577
 20
39.1951
 30
-8.69966e-15
  70
    32
  0
VERTEX
  8
0
  5
4196
 10
698.560
 20
39.2016
 30
-8.69986e-15
  70
    32
  0
VERTEX
  8
0
  5
4197
 10
698.542
 20
39.2082
 30
-8.69997e-15
  70
    32
  0
VERTEX
  8
0
  5
4198
 10
698.525
 20
39.2147
 30
-8.70000e-15
  70
    32
  0
VERTEX
  8
0
  5
4199
 10
698.508
 20
39.2214
 30
-8.70012e-15
  70
    32
  0
VERTEX
  8
0
  5
419A
 10
698.491
 20
39.2280
 30
-8.70042e-15
  70
    32
  0
VERTEX
  8
0
  5
419B
 10
698.474
 20
39.2347
 30
-8.70087e-15
  70
    32
  0
VERTEX
  8
0
  5
419C
 10
698.457
 20
39.2414
 30
-8.70148e-15
  70
    32
  0
VERTEX
  8
0
  5
419D
 10
698.441
 20
39.2482
 30
-8.70225e-15
  70
    32
  0
VERTEX
  8
0
  5
419E
 10
698.424
 20
39.2550
 30
-8.70316e-15
  70
    32
  0
VERTEX
  8
0
  5
419F
 10
698.407
 20
39.2618
 30
-8.70421e-15
  70
    32
  0
VERTEX
  8
0
  5
41A0
 10
698.390
 20
39.2687
 30
-8.70539e-15
  70
    32
  0
VERTEX
  8
0
  5
41A1
 10
698.373
 20
39.2756
 30
-8.70670e-15
  70
    32
  0
VERTEX
  8
0
  5
41A2
 10
698.356
 20
39.2825
 30
-8.70813e-15
  70
    32
  0
VERTEX
  8
0
  5
41A3
 10
698.339
 20
39.2894
 30
-8.70968e-15
  70
    32
  0
VERTEX
  8
0
  5
41A4
 10
698.323
 20
39.2964
 30
-8.71133e-15
  70
    32
  0
VERTEX
  8
0
  5
41A5
 10
698.306
 20
39.3035
 30
-8.71309e-15
  70
    32
  0
VERTEX
  8
0
  5
41A6
 10
698.289
 20
39.3105
 30
-8.71494e-15
  70
    32
  0
VERTEX
  8
0
  5
41A7
 10
698.272
 20
39.3176
 30
-8.71689e-15
  70
    32
  0
VERTEX
  8
0
  5
41A8
 10
698.256
 20
39.3247
 30
-8.71892e-15
  70
    32
  0
VERTEX
  8
0
  5
41A9
 10
698.239
 20
39.3319
 30
-8.72103e-15
  70
    32
  0
VERTEX
  8
0
  5
41AA
 10
698.222
 20
39.3390
 30
-8.72321e-15
  70
    32
  0
VERTEX
  8
0
  5
41AB
 10
698.206
 20
39.3462
 30
-8.72546e-15
  70
    32
  0
VERTEX
  8
0
  5
41AC
 10
698.189
 20
39.3535
 30
-8.72777e-15
  70
    32
  0
VERTEX
  8
0
  5
41AD
 10
698.173
 20
39.3608
 30
-8.73013e-15
  70
    32
  0
VERTEX
  8
0
  5
41AE
 10
698.156
 20
39.3681
 30
-8.73254e-15
  70
    32
  0
VERTEX
  8
0
  5
41AF
 10
698.140
 20
39.3754
 30
-8.73499e-15
  70
    32
  0
VERTEX
  8
0
  5
41B0
 10
698.123
 20
39.3828
 30
-8.73748e-15
  70
    32
  0
VERTEX
  8
0
  5
41B1
 10
698.107
 20
39.3902
 30
-8.74000e-15
  70
    32
  0
VERTEX
  8
0
  5
41B2
 10
698.090
 20
39.3976
 30
-8.74254e-15
  70
    32
  0
VERTEX
  8
0
  5
41B3
 10
698.074
 20
39.4050
 30
-8.74510e-15
  70
    32
  0
VERTEX
  8
0
  5
41B4
 10
698.057
 20
39.4125
 30
-8.74767e-15
  70
    32
  0
VERTEX
  8
0
  5
41B5
 10
698.041
 20
39.4200
 30
-8.75025e-15
  70
    32
  0
VERTEX
  8
0
  5
41B6
 10
698.025
 20
39.4276
 30
-8.75283e-15
  70
    32
  0
VERTEX
  8
0
  5
41B7
 10
698.008
 20
39.4352
 30
-8.75540e-15
  70
    32
  0
VERTEX
  8
0
  5
41B8
 10
697.992
 20
39.4428
 30
-8.75795e-15
  70
    32
  0
VERTEX
  8
0
  5
41B9
 10
697.976
 20
39.4504
 30
-8.76049e-15
  70
    32
  0
VERTEX
  8
0
  5
41BA
 10
697.959
 20
39.4581
 30
-8.76300e-15
  70
    32
  0
VERTEX
  8
0
  5
41BB
 10
697.943
 20
39.4658
 30
-8.76548e-15
  70
    32
  0
VERTEX
  8
0
  5
41BC
 10
697.927
 20
39.4735
 30
-8.76793e-15
  70
    32
  0
VERTEX
  8
0
  5
41BD
 10
697.911
 20
39.4812
 30
-8.77033e-15
  70
    32
  0
VERTEX
  8
0
  5
41BE
 10
697.895
 20
39.4890
 30
-8.77268e-15
  70
    32
  0
VERTEX
  8
0
  5
41BF
 10
697.878
 20
39.4968
 30
-8.77498e-15
  70
    32
  0
VERTEX
  8
0
  5
41C0
 10
697.862
 20
39.5047
 30
-8.77722e-15
  70
    32
  0
VERTEX
  8
0
  5
41C1
 10
697.846
 20
39.5125
 30
-8.77938e-15
  70
    32
  0
VERTEX
  8
0
  5
41C2
 10
697.830
 20
39.5204
 30
-8.78148e-15
  70
    32
  0
VERTEX
  8
0
  5
41C3
 10
697.814
 20
39.5283
 30
-8.78349e-15
  70
    32
  0
VERTEX
  8
0
  5
41C4
 10
697.798
 20
39.5363
 30
-8.78542e-15
  70
    32
  0
VERTEX
  8
0
  5
41C5
 10
697.782
 20
39.5443
 30
-8.78726e-15
  70
    32
  0
VERTEX
  8
0
  5
41C6
 10
697.766
 20
39.5523
 30
-8.78900e-15
  70
    32
  0
VERTEX
  8
0
  5
41C7
 10
697.750
 20
39.5603
 30
-8.79063e-15
  70
    32
  0
VERTEX
  8
0
  5
41C8
 10
697.734
 20
39.5683
 30
-8.79216e-15
  70
    32
  0
VERTEX
  8
0
  5
41C9
 10
697.718
 20
39.5764
 30
-8.79356e-15
  70
    32
  0
VERTEX
  8
0
  5
41CA
 10
697.703
 20
39.5845
 30
-8.79485e-15
  70
    32
  0
VERTEX
  8
0
  5
41CB
 10
697.687
 20
39.5927
 30
-8.79601e-15
  70
    32
  0
VERTEX
  8
0
  5
41CC
 10
697.671
 20
39.6008
 30
-8.79703e-15
  70
    32
  0
VERTEX
  8
0
  5
41CD
 10
697.655
 20
39.6090
 30
-8.79791e-15
  70
    32
  0
VERTEX
  8
0
  5
41CE
 10
697.639
 20
39.6172
 30
-8.79865e-15
  70
    32
  0
VERTEX
  8
0
  5
41CF
 10
697.624
 20
39.6255
 30
-8.79923e-15
  70
    32
  0
VERTEX
  8
0
  5
41D0
 10
697.608
 20
39.6337
 30
-8.79965e-15
  70
    32
  0
VERTEX
  8
0
  5
41D1
 10
697.592
 20
39.6420
 30
-8.79991e-15
  70
    32
  0
VERTEX
  8
0
  5
41D2
 10
697.577
 20
39.6503
 30
-8.80000e-15
  70
    32
  0
SEQEND
  8
0
  5
41D3
  0
POLYLINE
  8
0
  5
41D4
  66
     1
 10
0.000000
 20
0.000000
 30
0.000000
  70
     8
  0
VERTEX
  8
0
  5
41D5
 10
619.606
 20
39.6503
 30
-8.80000e-15
  70
    32
  0
VERTEX
  8
0
  5
41D6
 10
619.612
 20
39.6431
 30
-8.79993e-15
  70
    32
  0
VERTEX
  8
0
  5
41D7
 10
619.619
 20
39.6358
 30
-8.79973e-15
  70
    32
  0
VERTEX
  8
0
  5
41D8
 10
619.626
 20
39.6285
 30
-8.79941e-15
  70
    32
  0
VERTEX
  8
0
  5
41D9
 10
619.632
 20
39.6213
 30
-8.79895e-15
  70
    32
  0
VERTEX
  8
0
  5
41DA
 10
619.639
 20
39.6141
 30
-8.79838e-15
  70
    32
  0
VERTEX
  8
0
  5
41DB
 10
619.645
 20
39.6069
 30
-8.79770e-15
  70
    32
  0
VERTEX
  8
0
  5
41DC
 10
619.652
 20
39.5997
 30
-8.79690e-15
  70
    32
  0
VERTEX
  8
0
  5
41DD
 10
619.658
 20
39.5926
 30
-8.79599e-15
  70
    32
  0
VERTEX
  8
0
  5
41DE
 10
619.665
 20
39.5854
 30
-8.79499e-15
  70
    32
  0
VERTEX
  8
0
  5
41DF
 10
619.671
 20
39.5783
 30
-8.79388e-15
  70
    32
  0
VERTEX
  8
0
  5
41E0
 10
619.678
 20
39.5712
 30
-8.79268e-15
  70
    32
  0
VERTEX
  8
0
  5
41E1
 10
619.684
 20
39.5642
 30
-8.79138e-15
  70
    32
  0
VERTEX
  8
0
  5
41E2
 10
619.691
 20
39.5571
 30
-8.79000e-15
  70
    32
  0
VERTEX
  8
0
  5
41E3
 10
619.697
 20
39.5501
 30
-8.78854e-15
  70
    32
  0
VERTEX
  8
0
  5
41E4
 10
619.703
 20
39.5431
 30
-8.78699e-15
  70
    32
  0
VERTEX
  8
0
  5
41E5
 10
619.710
 20
39.5361
 30
-8.78538e-15
  70
    32
  0
VERTEX
  8
0
  5
41E6
 10
619.716
 20
39.5291
 30
-8.78369e-15
  70
    32
  0
VERTEX
  8
0
  5
41E7
 10
619.722
 20
39.5222
 30
-8.78194e-15
  70
    32
  0
VERTEX
  8
0
  5
41E8
 10
619.729
 20
39.5153
 30
-8.78012e-15
  70
    32
  0
VERTEX
  8
0
  5
41E9
 10
619.735
 20
39.5084
 30
-8.77825e-15
  70
    32
  0
VERTEX
  8
0
  5
41EA
 10
619.741
 20
39.5015
 30
-8.77632e-15
  70
    32
  0
VERTEX
  8
0
  5
41EB
 10
619.747
 20
39.4946
 30
-8.77434e-15
  70
    32
  0
VERTEX
  8
0
  5
41EC
 10
619.754
 20
39.4878
 30
-8.77231e-15
  70
    32
  0
VERTEX
  8
0
  5
41ED
 10
619.760
 20
39.4810
 30
-8.77025e-15
  70
    32
  0
VERTEX
  8
0
  5
41EE
 10
619.766
 20
39.4742
 30
-8.76814e-15
  70
    32
  0
VERTEX
  8
0
  5
41EF
 10
619.772
 20
39.4674
 30
-8.76601e-15
  70
    32
  0
VERTEX
  8
0
  5
41F0
 10
619.778
 20
39.4606
 30
-8.76384e-15
  70
    32
  0
VERTEX
  8
0
  5
41F1
 10
619.784
 20
39.4539
 30
-8.76165e-15
  70
    32
  0
VERTEX
  8
0
  5
41F2
 10
619.791
 20
39.4472
 30
-8.75943e-15
  70
    32
  0
VERTEX
  8
0
  5
41F3
 10
619.797
 20
39.4405
 30
-8.75720e-15
  70
    32
  0
VERTEX
  8
0
  5
41F4
 10
619.803
 20
39.4339
 30
-8.75496e-15
  70
    32
  0
VERTEX
  8
0
  5
41F5
 10
619.809
 20
39.4272
 30
-8.75270e-15
  70
    32
  0
VERTEX
  8
0
  5
41F6
 10
619.815
 20
39.4206
 30
-8.75045e-15
  70
    32
  0
VERTEX
  8
0
  5
41F7
 10
619.821
 20
39.4140
 30
-8.74819e-15
  70
    32
  0
VERTEX
  8
0
  5
41F8
 10
619.827
 20
39.4075
 30
-8.74593e-15
  70
    32
  0
VERTEX
  8
0
  5
41F9
 10
619.833
 20
39.4009
 30
-8.74368e-15
  70
    32
  0
VERTEX
  8
0
  5
41FA
 10
619.839
 20
39.3944
 30
-8.74145e-15
  70
    32
  0
VERTEX
  8
0
  5
41FB
 10
619.844
 20
39.3879
 30
-8.73923e-15
  70
    32
  0
VERTEX
  8
0
  5
41FC
 10
619.850
 20
39.3814
 30
-8.73702e-15
  70
    32
  0
VERTEX
  8
0
  5
41FD
 10
619.856
 20
39.3750
 30
-8.73485e-15
  70
    32
  0
VERTEX
  8
0
  5
41FE
 10
619.862
 20
39.3685
 30
-8.73270e-15
  70
    32
  0
VERTEX
  8
0
  5
41FF
 10
619.868
 20
39.3621
 30
-8.73058e-15
  70
    32
  0
VERTEX
  8
0
  5
4200
 10
619.874
 20
39.3558
 30
-8.72850e-15
  70
    32
  0
VERTEX
  8
0
  5
4201
 10
619.879
 20
39.3494
 30
-8.72646e-15
  70
    32
  0
VERTEX
  8
0
  5
4202
 10
619.885
 20
39.3431
 30
-8.72446e-15
  70
    32
  0
VERTEX
  8
0
  5
4203
 10
619.891
 20
39.3368
 30
-8.72251e-15
  70
    32
  0
VERTEX
  8
0
  5
4204
 10
619.897
 20
39.3305
 30
-8.72061e-15
  70
    32
  0
VERTEX
  8
0
  5
4205
 10
619.902
 20
39.3242
 30
-8.71877e-15
  70
    32
  0
VERTEX
  8
0
  5
4206
 10
619.908
 20
39.3180
 30
-8.71700e-15
  70
    32
  0
VERTEX
  8
0
  5
4207
 10
619.914
 20
39.3118
 30
-8.71528e-15
  70
    32
  0
VERTEX
  8
0
  5
4208
 10
619.919
 20
39.3056
 30
-8.71364e-15
  70
    32
  0
VERTEX
  8
0
  5
4209
 10
619.925
 20
39.2994
 30
-8.71206e-15
  70
    32
  0
VERTEX
  8
0
  5
420A
 10
619.930
 20
39.2933
 30
-8.71057e-15
  70
    32
  0
VERTEX
  8
0
  5
420B
 10
619.936
 20
39.2872
 30
-8.70915e-15
  70
    32
  0
VERTEX
  8
0
  5
420C
 10
619.941
 20
39.2811
 30
-8.70783e-15
  70
    32
  0
VERTEX
  8
0
  5
420D
 10
619.947
 20
39.2750
 30
-8.70659e-15
  70
    32
  0
VERTEX
  8
0
  5
420E
 10
619.952
 20
39.2690
 30
-8.70544e-15
  70
    32
  0
VERTEX
  8
0
  5
420F
 10
619.958
 20
39.2629
 30
-8.70439e-15
  70
    32
  0
VERTEX
  8
0
  5
4210
 10
619.963
 20
39.2570
 30
-8.70345e-15
  70
    32
  0
VERTEX
  8
0
  5
4211
 10
619.969
 20
39.2510
 30
-8.70260e-15
  70
    32
  0
VERTEX
  8
0
  5
4212
 10
619.974
 20
39.2451
 30
-8.70187e-15
  70
    32
  0
VERTEX
  8
0
  5
4213
 10
619.979
 20
39.2391
 30
-8.70126e-15
  70
    32
  0
VERTEX
  8
0
  5
4214
 10
619.985
 20
39.2333
 30
-8.70076e-15
  70
    32
  0
VERTEX
  8
0
  5
4215
 10
619.990
 20
39.2274
 30
-8.70038e-15
  70
    32
  0
VERTEX
  8
0
  5
4216
 10
619.995
 20
39.2216
 30
-8.70013e-15
  70
    32
  0
VERTEX
  8
0
  5
4217
 10
620.001
 20
39.2158
 30
-8.70001e-15
  70
    32
  0
VERTEX
  8
0
  5
4218
 10
620.006
 20
39.2100
 30
-8.69999e-15
  70
    32
  0
VERTEX
  8
0
  5
4219
 10
620.011
 20
39.2042
 30
-8.69991e-15
  70
    32
  0
VERTEX
  8
0
  5
421A
 10
620.016
 20
39.1985
 30
-8.69978e-15
  70
    32
  0
VERTEX
  8
0
  5
421B
 10
620.021
 20
39.1928
 30
-8.69957e-15
  70
    32
  0
VERTEX
  8
0
  5
421C
 10
620.027
 20
39.1871
 30
-8.69931e-15
  70
    32
  0
VERTEX
  8
0
  5
421D
 10
620.032
 20
39.1815
 30
-8.69898e-15
  70
    32
  0
VERTEX
  8
0
  5
421E
 10
620.037
 20
39.1758
 30
-8.69860e-15
  70
    32
  0
VERTEX
  8
0
  5
421F
 10
620.042
 20
39.1702
 30
-8.69815e-15
  70
    32
  0
VERTEX
  8
0
  5
4220
 10
620.047
 20
39.1647
 30
-8.69765e-15
  70
    32
  0
VERTEX
  8
0
  5
4221
 10
620.052
 20
39.1591
 30
-8.69710e-15
  70
    32
  0
VERTEX
  8
0
  5
4222
 10
620.057
 20
39.1536
 30
-8.69649e-15
  70
    32
  0
VERTEX
  8
0
  5
4223
 10
620.062
 20
39.1481
 30
-8.69583e-15
  70
    32
  0
VERTEX
  8
0
  5
4224
 10
620.067
 20
39.1427
 30
-8.69512e-15
  70
    32
  0
VERTEX
  8
0
  5
4225
 10
620.072
 20
39.1372
 30
-8.69436e-15
  70
    32
  0
VERTEX
  8
0
  5
4226
 10
620.077
 20
39.1318
 30
-8.69355e-15
  70
    32
  0
VERTEX
  8
0
  5
4227
 10
620.082
 20
39.1264
 30
-8.69269e-15
  70
    32
  0
VERTEX
  8
0
  5
4228
 10
620.086
 20
39.1211
 30
-8.69179e-15
  70
    32
  0
VERTEX
  8
0
  5
4229
 10
620.091
 20
39.1157
 30
-8.69085e-15
  70
    32
  0
VERTEX
  8
0
  5
422A
 10
620.096
 20
39.1104
 30
-8.68986e-15
  70
    32
  0
VERTEX
  8
0
  5
422B
 10
620.101
 20
39.1052
 30
-8.68883e-15
  70
    32
  0
VERTEX
  8
0
  5
422C
 10
620.106
 20
39.0999
 30
-8.68776e-15
  70
    32
  0
VERTEX
  8
0
  5
422D
 10
620.110
 20
39.0947
 30
-8.68666e-15
  70
    32
  0
VERTEX
  8
0
  5
422E
 10
620.115
 20
39.0895
 30
-8.68552e-15
  70
    32
  0
VERTEX
  8
0
  5
422F
 10
620.120
 20
39.0844
 30
-8.68434e-15
  70
    32
  0
VERTEX
  8
0
  5
4230
 10
620.124
 20
39.0792
 30
-8.68313e-15
  70
    32
  0
VERTEX
  8
0
  5
4231
 10
620.129
 20
39.0741
 30
-8.68189e-15
  70
    32
  0
VERTEX
  8
0
  5
4232
 10
620.133
 20
39.0690
 30
-8.68061e-15
  70
    32
  0
VERTEX
  8
0
  5
4233
 10
620.138
 20
39.0640
 30
-8.67931e-15
  70
    32
  0
VERTEX
  8
0
  5
4234
 10
620.143
 20
39.0590
 30
-8.67798e-15
  70
    32
  0
VERTEX
  8
0
  5
4235
 10
620.147
 20
39.0540
 30
-8.67662e-15
  70
    32
  0
VERTEX
  8
0
  5
4236
 10
620.152
 20
39.0490
 30
-8.67524e-15
  70
    32
  0
VERTEX
  8
0
  5
4237
 10
620.156
 20
39.0440
 30
-8.67383e-15
  70
    32
  0
VERTEX
  8
0
  5
4238
 10
620.161
 20
39.0391
 30
-8.67240e-15
  70
    32
  0
VERTEX
  8
0
  5
4239
 10
620.165
 20
39.0343
 30
-8.67095e-15
  70
    32
  0
VERTEX
  8
0
  5
423A
 10
620.169
 20
39.0294
 30
-8.66949e-15
  70
    32
  0
VERTEX
  8
0
  5
423B
 10
620.174
 20
39.0246
 30
-8.66800e-15
  70
    32
  0
VERTEX
  8
0
  5
423C
 10
620.178
 20
39.0198
 30
-8.66650e-15
  70
    32
  0
VERTEX
  8
0
  5
423D
 10
620.182
 20
39.0150
 30
-8.66498e-15
  70
    32
  0
VERTEX
  8
0
  5
423E
 10
620.187
 20
39.0103
 30
-8.66345e-15
  70
    32
  0
VERTEX
  8
0
  5
423F
 10
620.191
 20
39.0055
 30
-8.66190e-15
  70
    32
  0
VERTEX
  8
0
  5
4240
 10
620.195
 20
39.0009
 30
-8.66035e-15
  70
    32
  0
VERTEX
  8
0
  5
4241
 10
620.199
 20
38.9962
 30
-8.65878e-15
  70
    32
  0
VERTEX
  8
0
  5
4242
 10
620.204
 20
38.9916
 30
-8.65721e-15
  70
    32
  0
VERTEX
  8
0
  5
4243
 10
620.208
 20
38.9870
 30
-8.65563e-15
  70
    32
  0
VERTEX
  8
0
  5
4244
 10
620.212
 20
38.9824
 30
-8.65405e-15
  70
    32
  0
VERTEX
  8
0
  5
4245
 10
620.216
 20
38.9779
 30
-8.65246e-15
  70
    32
  0
VERTEX
  8
0
  5
4246
 10
620.220
 20
38.9734
 30
-8.65087e-15
  70
    32
  0
VERTEX
  8
0
  5
4247
 10
620.224
 20
38.9689
 30
-8.64928e-15
  70
    32
  0
VERTEX
  8
0
  5
4248
 10
620.228
 20
38.9644
 30
-8.64769e-15
  70
    32
  0
VERTEX
  8
0
  5
4249
 10
620.232
 20
38.9600
 30
-8.64610e-15
  70
    32
  0
VERTEX
  8
0
  5
424A
 10
620.236
 20
38.9556
 30
-8.64452e-15
  70
    32
  0
VERTEX
  8
0
  5
424B
 10
620.240
 20
38.9512
 30
-8.64294e-15
  70
    32
  0
VERTEX
  8
0
  5
424C
 10
620.244
 20
38.9469
 30
-8.64136e-15
  70
    32
  0
VERTEX
  8
0
  5
424D
 10
620.248
 20
38.9426
 30
-8.63980e-15
  70
    32
  0
VERTEX
  8
0
  5
424E
 10
620.252
 20
38.9383
 30
-8.63824e-15
  70
    32
  0
VERTEX
  8
0
  5
424F
 10
620.255
 20
38.9341
 30
-8.63670e-15
  70
    32
  0
VERTEX
  8
0
  5
4250
 10
620.259
 20
38.9299
 30
-8.63516e-15
  70
    32
  0
VERTEX
  8
0
  5
4251
 10
620.263
 20
38.9257
 30
-8.63364e-15
  70
    32
  0
VERTEX
  8
0
  5
4252
 10
620.267
 20
38.9215
 30
-8.63214e-15
  70
    32
  0
VERTEX
  8
0
  5
4253
 10
620.271
 20
38.9174
 30
-8.63065e-15
  70
    32
  0
VERTEX
  8
0
  5
4254
 10
620.274
 20
38.9133
 30
-8.62918e-15
  70
    32
  0
VERTEX
  8
0
  5
4255
 10
620.278
 20
38.9092
 30
-8.62773e-15
  70
    32
  0
VERTEX
  8
0
  5
4256
 10
620.282
 20
38.9052
 30
-8.62630e-15
  70
    32
  0
VERTEX
  8
0
  5
4257
 10
620.285
 20
38.9012
 30
-8.62489e-15
  70
    32
  0
VERTEX
  8
0
  5
4258
 10
620.289
 20
38.8972
 30
-8.62351e-15
  70
    32
  0
VERTEX
  8
0
  5
4259
 10
620.292
 20
38.8933
 30
-8.62215e-15
  70
    32
  0
VERTEX
  8
0
  5
425A
 10
620.296
 20
38.8894
 30
-8.62081e-15
  70
    32
  0
VERTEX
  8
0
  5
425B
 10
620.299
 20
38.8855
 30
-8.61951e-15
  70
    32
  0
VERTEX
  8
0
  5
425C
 10
620.303
 20
38.8816
 30
-8.61823e-15
  70
    32
  0
VERTEX
  8
0
  5
425D
 10
620.306
 20
38.8778
 30
-8.61698e-15
  70
    32
  0
VERTEX
  8
0
  5
425E
 10
620.310
 20
38.8740
 30
-8.61577e-15
  70
    32
  0
VERTEX
  8
0
  5
425F
 10
620.313
 20
38.8702
 30
-8.61459e-15
  70
    32
  0
VERTEX
  8
0
  5
4260
 10
620.316
 20
38.8665
 30
-8.61345e-15
  70
    32
  0
VERTEX
  8
0
  5
4261
 10
620.320
 20
38.8628
 30
-8.61234e-15
  70
    32
  0
VERTEX
  8
0
  5
4262
 10
620.323
 20
38.8591
 30
-8.61127e-15
  70
    32
  0
VERTEX
  8
0
  5
4263
 10
620.326
 20
38.8555
 30
-8.61023e-15
  70
    32
  0
VERTEX
  8
0
  5
4264
 10
620.330
 20
38.8519
 30
-8.60924e-15
  70
    32
  0
VERTEX
  8
0
  5
4265
 10
620.333
 20
38.8483
 30
-8.60830e-15
  70
    32
  0
VERTEX
  8
0
  5
4266
 10
620.336
 20
38.8448
 30
-8.60739e-15
  70
    32
  0
VERTEX
  8
0
  5
4267
 10
620.339
 20
38.8412
 30
-8.60653e-15
  70
    32
  0
VERTEX
  8
0
  5
4268
 10
620.342
 20
38.8378
 30
-8.60572e-15
  70
    32
  0
VERTEX
  8
0
  5
4269
 10
620.346
 20
38.8343
 30
-8.60495e-15
  70
    32
  0
VERTEX
  8
0
  5
426A
 10
620.349
 20
38.8309
 30
-8.60423e-15
  70
    32
  0
VERTEX
  8
0
  5
426B
 10
620.352
 20
38.8275
 30
-8.60357e-15
  70
    32
  0
VERTEX
  8
0
  5
426C
 10
620.355
 20
38.8241
 30
-8.60295e-15
  70
    32
  0
VERTEX
  8
0
  5
426D
 10
620.358
 20
38.8208
 30
-8.60240e-15
  70
    32
  0
VERTEX
  8
0
  5
426E
 10
620.361
 20
38.8175
 30
-8.60189e-15
  70
    32
  0
VERTEX
  8
0
  5
426F
 10
620.364
 20
38.8143
 30
-8.60144e-15
  70
    32
  0
VERTEX
  8
0
  5
4270
 10
620.367
 20
38.8110
 30
-8.60105e-15
  70
    32
  0
VERTEX
  8
0
  5
4271
 10
620.369
 20
38.8078
 30
-8.60072e-15
  70
    32
  0
VERTEX
  8
0
  5
4272
 10
620.372
 20
38.8047
 30
-8.60045e-15
  70
    32
  0
VERTEX
  8
0
  5
4273
 10
620.375
 20
38.8015
 30
-8.60024e-15
  70
    32
  0
VERTEX
  8
0
  5
4274
 10
620.378
 20
38.7984
 30
-8.60010e-15
  70
    32
  0
VERTEX
  8
0
  5
4275
 10
620.381
 20
38.7953
 30
-8.60002e-15
  70
    32
  0
VERTEX
  8
0
  5
4276
 10
620.383
 20
38.7923
 30
-8.60000e-15
  70
    32
  0
VERTEX
  8
0
  5
4277
 10
620.386
 20
38.7893
 30
-8.60000e-15
  70
    32
  0
VERTEX
  8
0
  5
4278
 10
620.389
 20
38.7863
 30
-8.60000e-15
  70
    32
  0
VERTEX
  8
0
  5
4279
 10
620.391
 20
38.7834
 30
-8.60000e-15
  70
    32
  0
VERTEX
  8
0
  5
427A
 10
620.394
 20
38.7805
 30
-8.60000e-15
  70
    32
  0
VERTEX
  8
0
  5
427B
 10
620.397
 20
38.7776
 30
-8.60000e-15
  70
    32
  0
VERTEX
  8
0
  5
427C
 10
620.399
 20
38.7747
 30
-8.60000e-15
  70
    32
  0
VERTEX
  8
0
  5
427D
 10
620.402
 20
38.7719
 30
-8.60000e-15
  70
    32
  0
VERTEX
  8
0
  5
427E
 10
620.404
 20
38.7691
 30
-8.60000e-15
  70
    32
  0
VERTEX
  8
0
  5
427F
 10
620.407
 20
38.7664
 30
-8.60000e-15
  70
    32
  0
VERTEX
  8
0
  5
4280
 10
620.409
 20
38.7637
 30
-8.60000e-15
  70
    32
  0
VERTEX
  8
0
  5
4281
 10
620.412
 20
38.7610
 30
-8.60000e-15
  70
    32
  0
VERTEX
  8
0
  5
4282
 10
620.414
 20
38.7583
 30
-8.60000e-15
  70
    32
  0
VERTEX
  8
0
  5
4283
 10
620.416
 20
38.7557
 30
-8.60000e-15
  70
    32
  0
VERTEX
  8
0
  5
4284
 10
620.419
 20
38.7531
 30
-8.60000e-15
  70
    32
  0
VERTEX
  8
0
  5
4285
 10
620.421
 20
38.7506
 30
-8.60000e-15
  70
    32
  0
VERTEX
  8
0
  5
4286
 10
620.423
 20
38.7481
 30
-8.60000e-15
  70
    32
  0
VERTEX
  8
0
  5
4287
 10
620.426
 20
38.7456
 30
-8.60000e-15
  70
    32
  0
VERTEX
  8
0
  5
4288
 10
620.428
 20
38.7431
 30
-8.60000e-15
  70
    32
  0
VERTEX
  8
0
  5
4289
 10
620.430
 20
38.7407
 30
-8.60000e-15
  70
    32
  0
VERTEX
  8
0
  5
428A
 10
620.432
 20
38.7383
 30
-8.60000e-15
  70
    32
  0
VERTEX
  8
0
  5
428B
 10
620.434
 20
38.7359
 30
-8.60000e-15
  70
    32
  0
VERTEX
  8
0
  5
428C
 10
620.436
 20
38.7336
 30
-8.60000e-15
  70
    32
  0
VERTEX
  8
0
  5
428D
 10
620.438
 20
38.7313
 30
-8.60000e-15
  70
    32
  0
VERTEX
  8
0
  5
428E
 10
620.440
 20
38.7290
 30
-8.60000e-15
  70
    32
  0
VERTEX
  8
0
  5
428F
 10
620.442
 20
38.7268
 30
-8.60000e-15
  70
    32
  0
VERTEX
  8
0
  5
4290
 10
620.444
 20
38.7246
 30
-8.60000e-15
  70
    32
  0
VERTEX
  8
0
  5
4291
 10
620.446
 20
38.7224
 30
-8.60000e-15
  70
    32
  0
VERTEX
  8
0
  5
4292
 10
620.448
 20
38.7203
 30
-8.60000e-15
  70
    32
  0
VERTEX
  8
0
  5
4293
 10
620.450
 20
38.7182
 30
-8.60000e-15
  70
    32
  0
VERTEX
  8
0
  5
4294
 10
620.452
 20
38.7161
 30
-8.60000e-15
  70
    32
  0
VERTEX
  8
0
  5
4295
 10
620.454
 20
38.7141
 30
-8.60000e-15
  70
    32
  0
VERTEX
  8
0
  5
4296
 10
620.456
 20
38.7121
 30
-8.60000e-15
  70
    32
  0
VERTEX
  8
0
  5
4297
 10
620.457
 20
38.7101
 30
-8.60000e-15
  70
    32
  0
VERTEX
  8
0
  5
4298
 10
620.459
 20
38.7081
 30
-8.60000e-15
  70
    32
  0
VERTEX
  8
0
  5
4299
 10
620.461
 20
38.7062
 30
-8.60000e-15
  70
    32
  0
VERTEX
  8
0
  5
429A
 10
620.463
 20
38.7043
 30
-8.60000e-15
  70
    32
  0
VERTEX
  8
0
  5
429B
 10
620.464
 20
38.7025
 30
-8.60000e-15
  70
    32
  0
VERTEX
  8
0
  5
429C
 10
620.466
 20
38.7007
 30
-8.60000e-15
  70
    32
  0
VERTEX
  8
0
  5
429D
 10
620.468
 20
38.6989
 30
-8.60000e-15
  70
    32
  0
VERTEX
  8
0
  5
429E
 10
620.469
 20
38.6972
 30
-8.60000e-15
  70
    32
  0
VERTEX
  8
0
  5
429F
 10
620.471
 20
38.6954
 30
-8.60000e-15
  70
    32
  0
VERTEX
  8
0
  5
42A0
 10
620.472
 20
38.6937
 30
-8.60000e-15
  70
    32
  0
VERTEX
  8
0
  5
42A1
 10
620.474
 20
38.6921
 30
-8.60000e-15
  70
    32
  0
VERTEX
  8
0
  5
42A2
 10
620.475
 20
38.6905
 30
-8.60000e-15
  70
    32
  0
VERTEX
  8
0
  5
42A3
 10
620.477
 20
38.6889
 30
-8.60000e-15
  70
    32
  0
VERTEX
  8
0
  5
42A4
 10
620.478
 20
38.6873
 30
-8.60000e-15
  70
    32
  0
VERTEX
  8
0
  5
42A5
 10
620.479
 20
38.6858
 30
-8.60000e-15
  70
    32
  0
VERTEX
  8
0
  5
42A6
 10
620.481
 20
38.6843
 30
-8.60000e-15
  70
    32
  0
VERTEX
  8
0
  5
42A7
 10
620.482
 20
38.6828
 30
-8.60000e-15
  70
    32
  0
VERTEX
  8
0
  5
42A8
 10
620.483
 20
38.6814
 30
-8.60000e-15
  70
    32
  0
VERTEX
  8
0
  5
42A9
 10
620.485
 20
38.6800
 30
-8.60000e-15
  70
    32
  0
VERTEX
  8
0
  5
42AA
 10
620.486
 20
38.6787
 30
-8.60000e-15
  70
    32
  0
VERTEX
  8
0
  5
42AB
 10
620.487
 20
38.6773
 30
-8.60000e-15
  70
    32
  0
VERTEX
  8
0
  5
42AC
 10
620.488
 20
38.6760
 30
-8.60000e-15
  70
    32
  0
VERTEX
  8
0
  5
42AD
 10
620.489
 20
38.6748
 30
-8.60000e-15
  70
    32
  0
VERTEX
  8
0
  5
42AE
 10
620.490
 20
38.6735
 30
-8.60000e-15
  70
    32
  0
VERTEX
  8
0
  5
42AF
 10
620.492
 20
38.6723
 30
-8.60000e-15
  70
    32
  0
VERTEX
  8
0
  5
42B0
 10
620.493
 20
38.6711
 30
-8.60000e-15
  70
    32
  0
VERTEX
  8
0
  5
42B1
 10
620.494
 20
38.6700
 30
-8.60000e-15
  70
    32
  0
VERTEX
  8
0
  5
42B2
 10
620.495
 20
38.6689
 30
-8.60000e-15
  70
    32
  0
VERTEX
  8
0
  5
42B3
 10
620.496
 20
38.6678
 30
-8.60000e-15
  70
    32
  0
VERTEX
  8
0
  5
42B4
 10
620.496
 20
38.6668
 30
-8.60000e-15
  70
    32
  0
VERTEX
  8
0
  5
42B5
 10
620.497
 20
38.6658
 30
-8.60000e-15
  70
    32
  0
VERTEX
  8
0
  5
42B6
 10
620.498
 20
38.6648
 30
-8.60000e-15
  70
    32
  0
VERTEX
  8
0
  5
42B7
 10
620.499
 20
38.6638
 30
-8.60000e-15
  70
    32
  0
VERTEX
  8
0
  5
42B8
 10
620.500
 20
38.6629
 30
-8.60000e-15
  70
    32
  0
VERTEX
  8
0
  5
42B9
 10
620.501
 20
38.6620
 30
-8.60000e-15
  70
    32
  0
VERTEX
  8
0
  5
42BA
 10
620.502
 20
38.6612
 30
-8.60000e-15
  70
    32
  0
VERTEX
  8
0
  5
42BB
 10
620.502
 20
38.6604
 30
-8.60000e-15
  70
    32
  0
VERTEX
  8
0
  5
42BC
 10
620.503
 20
38.6596
 30
-8.60000e-15
  70
    32
  0
VERTEX
  8
0
  5
42BD
 10
620.504
 20
38.6588
 30
-8.60000e-15
  70
    32
  0
VERTEX
  8
0
  5
42BE
 10
620.504
 20
38.6581
 30
-8.60000e-15
  70
    32
  0
VERTEX
  8
0
  5
42BF
 10
620.505
 20
38.6574
 30
-8.60000e-15
  70
    32
  0
VERTEX
  8
0
  5
42C0
 10
620.505
 20
38.6568
 30
-8.60000e-15
  70
    32
  0
VERTEX
  8
0
  5
42C1
 10
620.506
 20
38.6561
 30
-8.60000e-15
  70
    32
  0
VERTEX
  8
0
  5
42C2
 10
620.507
 20
38.6555
 30
-8.60000e-15
  70
    32
  0
VERTEX
  8
0
  5
42C3
 10
620.507
 20
38.6550
 30
-8.60000e-15
  70
    32
  0
VERTEX
  8
0
  5
42C4
 10
620.508
 20
38.6545
 30
-8.60000e-15
  70
    32
  0
VERTEX
  8
0
  5
42C5
 10
620.508
 20
38.6540
 30
-8.60000e-15
  70
    32
  0
VERTEX
  8
0
  5
42C6
 10
620.508
 20
38.6535
 30
-8.60000e-15
  70
    32
  0
VERTEX
  8
0
  5
42C7
 10
620.509
 20
38.6531
 30
-8.60000e-15
  70
    32
  0
VERTEX
  8
0
  5
42C8
 10
620.509
 20
38.6527
 30
-8.60000e-15
  70
    32
  0
VERTEX
  8
0
  5
42C9
 10
620.510
 20
38.6523
 30
-8.60000e-15
  70
    32
  0
VERTEX
  8
0
  5
42CA
 10
620.510
 20
38.6520
 30
-8.60000e-15
  70
    32
  0
VERTEX
  8
0
  5
42CB
 10
620.510
 20
38.6516
 30
-8.60000e-15
  70
    32
  0
VERTEX
  8
0
  5
42CC
 10
620.510
 20
38.6514
 30
-8.60000e-15
  70
    32
  0
VERTEX
  8
0
  5
42CD
 10
620.511
 20
38.6511
 30
-8.60000e-15
  70
    32
  0
VERTEX
  8
0
  5
42CE
 10
620.511
 20
38.6509
 30
-8.60000e-15
  70
    32
  0
VERTEX
  8
0
  5
42CF
 10
620.511
 20
38.6507
 30
-8.60000e-15
  70
    32
  0
VERTEX
  8
0
  5
42D0
 10
620.511
 20
38.6506
 30
-8.60000e-15
  70
    32
  0
VERTEX
  8
0
  5
42D1
 10
620.511
 20
38.6505
 30
-8.60000e-15
  70
    32
  0
VERTEX
  8
0
  5
42D2
 10
620.511
 20
38.6504
 30
-8.60000e-15
  70
    32
  0
VERTEX
  8
0
  5
42D3
 10
620.511
 20
38.6504
 30
-8.60000e-15
  70
    32
  0
VERTEX
  8
0
  5
42D4
 10
620.511
 20
38.6503
 30
-8.60000e-15
  70
    32
  0
SEQEND
  8
0
  5
42D5
  0
LINE
  5
3AE6
  8
0
 10
622.5112652587622506
 20
36.6503471930877325
 30
-0.0000000000000081
 11
780.5112652587622506
 21
36.6503471930876188
 31
-0.0000000000000081
210
0.0
220
1.0
230
-0.0000000000000002
  0
LINE
  5
3AE7
  8
0
 10
591.5112652587621369
 20
39.6503471930878817
 30
-0.0000000000000088
 11
811.5112652587622506
 21
39.650347193087697
 31
-0.0000000000000088
210
0.0
220
1.0
230
-0.0000000000000002
  0
LINE
  5
3AE8
  8
0
 10
591.5112652587621369
 20
56.6503471930878177
 30
-0.0000000000000126
 11
811.5112652587622506
 21
56.6503471930876472
 31
-0.0000000000000126
210
0.0
220
1.0
230
-0.0000000000000002
  0
ARC
  5
3AE9
  8
0
 10
-641.3612652587625007
 20
77.2514546362450005
 30
0.0
 40
2.9999999999996581
210
0.0
220
-0.0000000000000002
230
-1.0
 50
179.9999999999988916
 51
202.6605363020005086
  0
ARC
  5
3AEA
  8
0
 10
-761.6612652587620005
 20
77.2514546362449153
 30
0.0
 40
2.9999999999996598
210
0.0
220
-0.0000000000000002
230
-1.0
 50
337.3394636979991787
 51
0.0000000000005471
  0
LINE
  5
3AEB
  8
0
 10
758.6612652587623415
 20
88.6503471930876827
 30
-0.0000000000000197
 11
758.6612652587623415
 21
77.2514546362449579
 31
-0.0000000000000172
210
0.0
220
1.0
230
-0.0000000000000002
  0
LINE
  5
3AEC
  8
0
 10
644.3612652587621596
 20
88.6503471930877964
 30
-0.0000000000000197
 11
644.3612652587621596
 21
77.2514546362450574
 31
-0.0000000000000172
210
0.0
220
1.0
230
-0.0000000000000002
  0
LINE
  5
3AED
  8
0
 10
758.8928542437326996
 20
76.0956430374701256
 30
-0.0000000000000169
 11
764.9580688387316059
 21
61.5681829296879712
 31
-0.0000000000000137
210
0.0
220
1.0
230
-0.0000000000000002
  0
LINE
  5
3AEE
  8
0
 10
644.1296762737918016
 20
76.0956430374701966
 30
-0.0000000000000169
 11
638.0644616787928953
 21
61.568182929688092
 31
-0.0000000000000137
210
0.0
220
1.0
230
-0.0000000000000002
  0
LINE
  5
3AEF
  8
0
 10
622.5112652587622506
 20
36.6503471930877893
 30
-0.0000000000000081
 11
620.5112652587622506
 21
38.6503471930877893
 31
-0.0000000000000086
210
0.0
220
1.0
230
-0.0000000000000002
  0
LINE
  5
3AF0
  8
0
 10
780.5112652587622506
 20
36.6503471930876614
 30
-0.0000000000000081
 11
782.5112652587622506
 21
38.6503471930877609
 31
-0.0000000000000086
210
0.0
220
1.0
230
-0.0000000000000002
  0
ARC
  5
3AF1
  8
0
 10
-630.6820323053805168
 20
64.6503471930876827
 30
0.0
 40
7.9999999999999662
210
0.0
220
-0.0000000000000002
230
-1.0
 50
202.6605363019988033
 51
270.0
  0
ARC
  5
3AF2
  8
0
 10
-772.3404982121438707
 20
64.6503471930875833
 30
0.0
 40
7.9999999999999574
210
0.0
220
-0.0000000000000002
230
-1.0
 50
270.0
 51
337.3394636980009977
  0
LINE
  5
3AF3
  8
0
 10
811.5112652587622506
 20
56.650347193087633
 30
-0.0000000000000126
 11
811.5112652587622506
 21
39.6503471930876827
 31
-0.0000000000000088
210
0.0
220
1.0
230
-0.0000000000000002
  0
LINE
  5
3AF4
  8
0
 10
591.5112652587621369
 20
56.650347193087832
 30
-0.0000000000000126
 11
591.5112652587621369
 21
39.6503471930878817
 31
-0.0000000000000088
210
0.0
220
1.0
230
-0.0000000000000002
  0
LINE
  5
3AF5
  8
0
 10
646.6234685278124061
 20
89.3288012494980563
 30
-0.0000000000000198
 11
756.3990619897119814
 21
89.3288012494980563
 31
-0.0000000000000198
210
0.0
220
1.0
230
-0.0000000000000002
  0
LINE
  5
3AF6
  8
0
 10
645.8566482738350487
 20
178.650347193087697
 30
-0.0000000000000397
 11
757.1658822436894525
 21
178.650347193087697
 31
-0.0000000000000397
210
0.0
220
1.0
230
-0.0000000000000002
  0
ARC
  5
3AF7
  8
0
 10
-667.0117151522823633
 20
166.0455957305159131
 30
0.0
 40
24.5000000000036415
210
0.0
220
-0.0000000000000002
230
-1.0
 50
0.0000000000018702
 51
24.9999999999983196
  0
ARC
  5
3AF8
  8
0
 10
-736.0108153652419105
 20
166.0455957305159131
 30
0.0
 40
24.5000000000037517
210
0.0
220
-0.0000000000000002
230
-1.0
 50
155.0000000000017053
 51
179.9999999999982094
  0
LINE
  5
3AF9
  8
0
 10
760.5108153652455485
 20
166.045595730516709
 30
-0.0000000000000369
 11
760.5108153652455485
 21
150.883347193087701
 31
-0.0000000000000335
210
0.0
220
1.0
230
-0.0000000000000002
  0
LINE
  5
3AFA
  8
0
 10
642.511715152278839
 20
166.045595730516709
 30
-0.0000000000000369
 11
642.511715152278839
 21
150.883347193087701
 31
-0.0000000000000335
210
0.0
220
1.0
230
-0.0000000000000002
  0
ARC
  5
3AFB
  8
0
 10
-667.0117151522789527
 20
150.8833471930880137
 30
0.0
 40
24.5000000000002309
210
0.0
220
-0.0000000000000002
230
-1.0
 50
333.1119523822756037
 51
359.9999999999993179
  0
ARC
  5
3AFC
  8
0
 10
-736.0108153652455485
 20
150.8833471930880137
 30
0.0
 40
24.5000000000002309
210
0.0
220
-0.0000000000000002
230
-1.0
 50
180.0000000000005969
 51
206.88804761772451
  0
ARC
  5
3AFD
  8
0
 10
-634.0117151522797485
 20
134.150146662406712
 30
0.0
 40
12.4999999999988507
210
0.0
220
-0.0000000000000002
230
-1.0
 50
153.1119523822758879
 51
180.0000000000019895
  0
ARC
  5
3AFE
  8
0
 10
-769.010815365244639
 20
134.150146662406712
 30
0.0
 40
12.4999999999988596
210
0.0
220
-0.0000000000000002
230
-1.0
 50
359.9999999999978968
 51
26.8880476177240801
  0
LINE
  5
3AFF
  8
0
 10
756.5108153652455485
 20
134.1501466624062004
 30
-0.0000000000000298
 11
756.5108153652455485
 21
115.5778360700353034
 31
-0.0000000000000257
210
0.0
220
1.0
230
-0.0000000000000002
  0
LINE
  5
3B00
  8
0
 10
646.511715152278839
 20
134.1501466624062004
 30
-0.0000000000000298
 11
646.511715152278839
 21
115.5778360700353034
 31
-0.0000000000000257
210
0.0
220
1.0
230
-0.0000000000000002
  0
ARC
  5
3B01
  8
0
 10
-661.0117151522789527
 20
115.5778360700353034
 30
0.0
 40
14.5000000000001101
210
0.0
220
-0.0000000000000002
230
-1.0
 50
327.6124614669083144
 51
0.000000000000229
  0
ARC
  5
3B02
  8
0
 10
-742.0108153652455485
 20
115.5778360700352039
 30
0.0
 40
14.5
210
0.0
220
-0.0000000000000002
230
-1.0
 50
179.9999999999996874
 51
212.387538533091913
  0
ARC
  5
3B03
  8
0
 10
-642.0117151522786116
 20
103.5258652768414009
 30
0.0
 40
8.0000000000001101
210
0.0
220
-0.0000000000000002
230
-1.0
 50
147.6124614669082007
 51
180.0000000000001137
  0
ARC
  5
3B04
  8
0
 10
-761.0108153652458896
 20
103.5258652768414009
 30
0.0
 40
8.0000000000001137
210
0.0
220
-0.0000000000000002
230
-1.0
 50
359.9999999999997726
 51
32.3875385330918135
  0
LINE
  5
3B05
  8
0
 10
753.0108153652455485
 20
103.5258652768414009
 30
-0.000000000000023
 11
753.0112652587622506
 21
97.921585814798533
 31
-0.0000000000000217
210
0.0
220
1.0
230
-0.0000000000000002
  0
LINE
  5
3B06
  8
0
 10
650.011715152278839
 20
103.5258652768414009
 30
-0.000000000000023
 11
650.0112652587622506
 21
97.921585814798533
 31
-0.0000000000000217
210
0.0
220
1.0
230
-0.0000000000000002
  0
ARC
  5
3B07
  8
0
 10
-642.0085781414393296
 20
97.9222282447610439
 30
0.0
 40
8.0026871431090267
210
0.0
220
-0.0000000000000002
230
-1.0
 50
180.0045995207441933
 51
206.8869198013238133
  0
ARC
  5
3B08
  8
0
 10
-761.0139523760851716
 20
97.9222282447610723
 30
0.0
 40
8.0026871431091333
210
0.0
220
-0.0000000000000002
230
-1.0
 50
333.1130801986763004
 51
359.9954004792555793
  0
LINE
  5
3B09
  8
0
 10
753.8763493603623829
 20
94.3031641806100964
 30
-0.0000000000000209
 11
756.3990619897119814
 21
89.3288012494980137
 31
-0.0000000000000198
210
0.0
220
1.0
230
-0.0000000000000002
  0
LINE
  5
3B0A
  8
0
 10
649.146181157161891
 20
94.3031641806100964
 30
-0.0000000000000209
 11
646.6234685278124061
 21
89.3288012494980137
 31
-0.0000000000000198
210
0.0
220
1.0
230
-0.0000000000000002
  0
LINE
  5
3B0B
  8
0
 10
647.9612652587622961
 20
88.6503471930877254
 30
-0.0000000000000197
 11
646.6234685278122925
 21
89.3288012494980705
 31
-0.0000000000000198
210
0.0
220
1.0
230
-0.0000000000000002
  0
LINE
  5
3B0C
  8
0
 10
755.0612652587622051
 20
88.6503471930877254
 30
-0.0000000000000197
 11
756.3990619897122087
 21
89.3288012494980705
 31
-0.0000000000000198
210
0.0
220
1.0
230
-0.0000000000000002
  0
LINE
  5
3B0D
  8
0
 10
757.1658822436894525
 20
178.650347193087697
 30
-0.0000000000000397
 11
758.215356147643547
 21
176.3997431431639029
 31
-0.0000000000000392
210
0.0
220
1.0
230
-0.0000000000000002
  0
LINE
  5
3B0E
  8
0
 10
645.8566482738350487
 20
178.650347193087697
 30
-0.0000000000000397
 11
644.8071743698809541
 21
176.3997431431639029
 31
-0.0000000000000392
210
0.0
220
1.0
230
-0.0000000000000002
  0
LINE
  5
3B0F
  8
0
  6
VERDECKT
 62
     1
 10
646.8716549519731416
 20
56.6503471930878675
 30
-0.0000000000000126
 11
646.8716549519731416
 21
39.6503471930879527
 31
-0.0000000000000088
210
0.0
220
1.0
230
-0.0000000000000002
  0
LINE
  5
3B10
  8
0
  6
VERDECKT
 62
     1
 10
628.8716549519731416
 20
56.6503471930878817
 30
-0.0000000000000126
 11
628.8716549519731416
 21
39.650347193087967
 31
-0.0000000000000088
210
0.0
220
1.0
230
-0.0000000000000002
  0
LINE
  5
3B11
  8
0
  6
VERDECKT
 62
     1
 10
756.1508755655518144
 20
39.6503471930877112
 30
-0.0000000000000088
 11
756.1508755655518144
 21
56.6503471930876898
 31
-0.0000000000000126
210
0.0
220
1.0
230
-0.0000000000000002
  0
LINE
  5
3B12
  8
0
  6
VERDECKT
 62
     1
 10
774.1508755655518144
 20
39.650347193087697
 30
-0.0000000000000088
 11
774.1508755655518144
 21
56.6503471930876685
 31
-0.0000000000000126
210
0.0
220
1.0
230
-0.0000000000000002
  0
LINE
  5
3B13
  8
0
  6
VERDECKT
 62
     1
 10
800.5112652587622506
 20
56.6503471930876188
 30
-0.0000000000000126
 11
800.5112652587622506
 21
39.6503471930876685
 31
-0.0000000000000088
210
0.0
220
1.0
230
-0.0000000000000002
  0
LINE
  5
3B14
  8
0
  6
VERDECKT
 62
     1
 10
782.5112652587622506
 20
56.650347193087633
 30
-0.0000000000000126
 11
782.5112652587622506
 21
38.6503471930876472
 31
-0.0000000000000086
210
0.0
220
1.0
230
-0.0000000000000002
  0
LINE
  5
3B15
  8
0
  6
VERDECKT
 62
     1
 10
692.5112652587622506
 20
39.6503471930878604
 30
-0.0000000000000088
 11
692.5112652587622506
 21
56.6503471930878035
 31
-0.0000000000000126
210
0.0
220
1.0
230
-0.0000000000000002
  0
LINE
  5
3B16
  8
0
  6
VERDECKT
 62
     1
 10
710.5112652587622506
 20
39.6503471930878391
 30
-0.0000000000000088
 11
710.5112652587622506
 21
56.6503471930877893
 31
-0.0000000000000126
210
0.0
220
1.0
230
-0.0000000000000002
  0
LINE
  5
3B17
  8
0
  6
VERDECKT
 62
     1
 10
602.5112652587622506
 20
39.6503471930880025
 30
-0.0000000000000088
 11
602.5112652587622506
 21
56.6503471930879527
 31
-0.0000000000000126
210
0.0
220
1.0
230
-0.0000000000000002
  0
LINE
  5
3B18
  8
0
  6
VERDECKT
 62
     1
 10
620.5112652587622506
 20
38.6503471930877893
 30
-0.0000000000000086
 11
620.5112652587622506
 21
56.6503471930877893
 31
-0.0000000000000126
210
0.0
220
1.0
230
-0.0000000000000002
  0
LINE
  5
3B19
  8
0
  6
VERDECKT
 62
     1
 10
755.0612652587623188
 20
88.6503471930876827
 30
-0.0000000000000197
 11
755.0612652587623188
 21
36.6503471930876188
 31
-0.0000000000000081
210
0.0
220
1.0
230
-0.0000000000000002
  0
LINE
  5
3B1A
  8
0
  6
VERDECKT
 62
     1
 10
647.9612652587620687
 20
88.6503471930877964
 30
-0.0000000000000197
 11
647.9612652587620687
 21
36.6503471930877325
 31
-0.0000000000000081
210
0.0
220
1.0
230
-0.0000000000000002
  0
LINE
  5
3B1B
  8
0
  6
VERDECKT
 62
     1
 10
647.2161099543900491
 20
178.0164198004767115
 30
-0.0000000000000395
 11
755.8064205631344521
 21
178.0164198004767115
 31
-0.0000000000000395
210
0.0
220
1.0
230
-0.0000000000000002
  0
LINE
  5
3B1C
  8
0
  6
VERDECKT
 62
     1
 10
752.5385526294126066
 20
93.6247101241997939
 30
-0.0000000000000208
 11
755.0612652587622051
 21
88.6503471930877538
 31
-0.0000000000000197
210
0.0
220
1.0
230
-0.0000000000000002
  0
LINE
  5
3B1D
  8
0
  6
VERDECKT
 62
     1
 10
650.4839778881118946
 20
93.6247101241997939
 30
-0.0000000000000208
 11
647.9612652587622961
 21
88.6503471930877538
 31
-0.0000000000000197
210
0.0
220
1.0
230
-0.0000000000000002
  0
ARC
  5
3B1E
  8
0
  6
VERDECKT
 62
     1
 10
-642.0112652587630464
 20
97.9215858147983909
 30
0.0
 40
9.4999999999992042
210
0.0
220
-0.0000000000000002
230
-1.0
 50
179.9999999999992895
 51
206.891519322070792
  0
ARC
  5
3B1F
  8
0
  6
VERDECKT
 62
     1
 10
-761.0112652587614548
 20
97.9215858147983909
 30
0.0
 40
9.4999999999991989
210
0.0
220
-0.0000000000000002
230
-1.0
 50
333.1084806779290943
 51
0.000000000000687
  0
LINE
  5
3B20
  8
0
  6
VERDECKT
 62
     1
 10
751.5112652587622506
 20
103.6183194514898958
 30
-0.000000000000023
 11
751.5112652587622506
 21
97.9215858147985045
 31
-0.0000000000000217
210
0.0
220
1.0
230
-0.0000000000000002
  0
LINE
  5
3B21
  8
0
  6
VERDECKT
 62
     1
 10
651.5112652587622506
 20
103.6183194514898958
 30
-0.000000000000023
 11
651.5112652587622506
 21
97.9215858147985045
 31
-0.0000000000000217
210
0.0
220
1.0
230
-0.0000000000000002
  0
ARC
  5
3B22
  8
0
  6
VERDECKT
 62
     1
 10
-642.324384707929994
 20
103.6183194514902937
 30
0.0
 40
9.1868805508322602
210
0.0
220
-0.0000000000000002
230
-1.0
 50
147.0548490850036103
 51
180.0000000000027001
  0
ARC
  5
3B23
  8
0
  6
VERDECKT
 62
     1
 10
-760.6981458095945072
 20
103.6183194514902937
 30
0.0
 40
9.1868805508322566
210
0.0
220
-0.0000000000000002
230
-1.0
 50
359.9999999999973284
 51
32.9451509149963897
  0
ARC
  5
3B24
  8
0
  6
VERDECKT
 62
     1
 10
-660.5901730897555808
 20
115.4554164886948939
 30
0.0
 40
12.5790536463906104
210
0.0
220
-0.0000000000000002
230
-1.0
 50
327.0548490850076746
 51
0.5576123818987931
  0
ARC
  5
3B25
  8
0
  6
VERDECKT
 62
     1
 10
-742.432357427768693
 20
115.4554164886948939
 30
0.0
 40
12.5790536463906104
210
0.0
220
-0.0000000000000002
230
-1.0
 50
179.4423876181012076
 51
212.945150914992297
  0
LINE
  5
3B26
  8
0
  6
VERDECKT
 62
     1
 10
755.0108153652455485
 20
134.1501466624062004
 30
-0.0000000000000298
 11
755.0108153652455485
 21
115.5778360700352039
 31
-0.0000000000000257
210
0.0
220
1.0
230
-0.0000000000000002
  0
LINE
  5
3B27
  8
0
  6
VERDECKT
 62
     1
 10
648.011715152278839
 20
134.1501466624062004
 30
-0.0000000000000298
 11
648.011715152278839
 21
115.5778360700352039
 31
-0.0000000000000257
210
0.0
220
1.0
230
-0.0000000000000002
  0
ARC
  5
3B28
  8
0
  6
VERDECKT
 62
     1
 10
-634.0117151522787253
 20
134.1501466624063141
 30
0.0
 40
13.9999999999999893
210
0.0
220
-0.0000000000000002
230
-1.0
 50
153.1119523822767121
 51
180.000000000000199
  0
ARC
  5
3B29
  8
0
  6
VERDECKT
 62
     1
 10
-769.0108153652457759
 20
134.1501466624063141
 30
0.0
 40
14.0
210
0.0
220
-0.0000000000000002
230
-1.0
 50
359.9999999999996021
 51
26.8880476177232808
  0
ARC
  5
3B2A
  8
0
  6
VERDECKT
 62
     1
 10
-667.0117151522799759
 20
150.8833471930879
 30
0.0
 40
23.0000000000012399
210
0.0
220
-0.0000000000000002
230
-1.0
 50
333.1119523822769111
 51
359.9999999999994884
  0
ARC
  5
3B2B
  8
0
  6
VERDECKT
 62
     1
 10
-736.0108153652442979
 20
150.8833471930879
 30
0.0
 40
23.0000000000012506
210
0.0
220
-0.0000000000000002
230
-1.0
 50
180.0000000000003979
 51
206.8880476177230889
  0
LINE
  5
3B2C
  8
0
  6
VERDECKT
 62
     1
 10
759.0108153652455485
 20
166.045595730516709
 30
-0.0000000000000369
 11
759.0108153652455485
 21
150.883347193087701
 31
-0.0000000000000335
210
0.0
220
1.0
230
-0.0000000000000002
  0
LINE
  5
3B2D
  8
0
  6
VERDECKT
 62
     1
 10
644.011715152278839
 20
166.045595730516709
 30
-0.0000000000000369
 11
644.011715152278839
 21
150.883347193087701
 31
-0.0000000000000335
210
0.0
220
1.0
230
-0.0000000000000002
  0
ARC
  5
3B2E
  8
0
  6
VERDECKT
 62
     1
 10
-667.0117151522757695
 20
166.0455957305175048
 30
0.0
 40
22.9999999999969305
210
0.0
220
-0.0000000000000002
230
-1.0
 50
359.9999999999980105
 51
25.0000000000014211
  0
ARC
  5
3B2F
  8
0
  6
VERDECKT
 62
     1
 10
-736.0108153652487317
 20
166.0455957305175048
 30
0.0
 40
22.9999999999969305
210
0.0
220
-0.0000000000000002
230
-1.0
 50
154.9999999999986073
 51
180.0000000000019895
  0
LINE
  5
3B30
  8
0
  6
VERDECKT
 62
     1
 10
755.8064205631344521
 20
178.0164198004767115
 30
-0.0000000000000395
 11
756.8558944670885467
 21
175.7658157505528038
 31
-0.000000000000039
210
0.0
220
1.0
230
-0.0000000000000002
  0
LINE
  5
3B31
  8
0
  6
VERDECKT
 62
     1
 10
647.2161099543900491
 20
178.0164198004767115
 30
-0.0000000000000395
 11
646.1666360504358408
 21
175.7658157505528038
 31
-0.000000000000039
210
0.0
220
1.0
230
-0.0000000000000002
  0
LINE
  5
3B32
  8
0
  6
VERDECKT
 62
     1
 10
647.2161099543900491
 20
178.0164198004767115
 30
-0.0000000000000395
 11
645.8566482738350487
 21
178.6503471930878106
 31
-0.0000000000000397
210
0.0
220
1.0
230
-0.0000000000000002
  0
LINE
  5
3B33
  8
0
  6
VERDECKT
 62
     1
 10
755.8064205631344521
 20
178.0164198004767115
 30
-0.0000000000000395
 11
757.1658822436894525
 21
178.6503471930878106
 31
-0.0000000000000397
210
0.0
220
1.0
230
-0.0000000000000002
  0
ENDBLK
  5
3B35
  8
0
  0
ENDSEC
  0
SECTION
  2
ENTITIES
  0
TEXT
  5
8F
  8
VOLL
 10
78.076754716981128
 20
31.025947764705851
 30
0.0
 40
1.8
  1

  7
GREEKS
  0
INSERT
  5
FA4
  8
ADSK_ASSOC_ENTITY_BACKUPS
  2
*S3
 10
0.0
 20
0.0
 30
0.0
  0
INSERT
  5
3ADD
  8
STEMPEL
  2
A$CF1F94A97
 10
258.2598120705824272
 20
-103.088997664644296
 30
-32.3914857847636597
  0
INSERT
  5
3B36
  8
STEMPEL
  2
A$C4CE59562
 10
258.259812070582484
 20
158.5643747004544082
 30
-32.3914857847634607
  0
VIEWPORT
  5
702
 67
     1
  8
0
 10
99.9595808982848837
 20
142.0247198271484024
 30
0.0
 40
533.8638859178814755
 41
299.049422726727812
 68
     1
 69
     1
1001
ACAD
1000
MVIEW
1002
{
1070
    16
1010
0.0
1020
0.0
1030
0.0
1010
0.0
1020
0.0
1030
1.0
1040
0.0
1040
299.049422726727812
1040
99.9595808982848837
1040
142.0247198271484024
1040
50.0
1040
0.0
1040
0.0
1070
     0
1070
  1500
1070
     1
1070
     1
1070
     0
1070
     0
1070
     0
1070
     0
1040
0.0
1040
0.0
1040
0.0
1040
10.0
1040
10.0
1040
10.0
1040
10.0
1070
     0
1002
{
1002
}
1002
}
1001
GENIUS_GENOBJ-N-SDF_13
1002
{
1000
OWNER
1000
GEN
1002
}
1001
GENIUS_GENODEF_13
1002
{
1000
HIER
1070
     0
1002
}
1002
{
1000
MANEDIT
1070
     0
1002
}
1002
{
1000
NOSEL
1070
     0
1002
}
1002
{
1000
BEHIND
1070
     0
1002
}
1002
{
1000
OTHER
1070
     0
1002
}
1002
{
1000
REACTOR
1002
}
1001
GENIUS_GENSCREG_15
1000
PF
1040
1.0
1000
DF
1040
1.0
1000
MIN
1011
-188.355967822564196
1021
0.0
1031
0.0
1021
23.9433927309230512
1031
0.0
1000
MAX
1011
451.3956028765327915
1021
0.0
1031
0.0
1021
305.4191712145001816
1031
0.0
1000
FLAGS
1070
     4
  0
ENDSEC
  0
EOF
