  0
SECTION
  2
HEADER
  9
$ACADVER
  1
AC1009
  9
$INSBASE
 10
0.0
 20
0.0
 30
0.0
  9
$EXTMIN
 10
243.3890911886103083
 20
-279.1637927386088904
 30
-18.3175012450337213
  9
$EXTMAX
 10
443.4224059496668815
 20
96.9804068748785539
 30
-18.3161037945617693
  9
$LIMMIN
 10
0.0
 20
0.0
  9
$LIMMAX
 10
210.0
 20
297.0
  9
$ORTHOMODE
 70
     1
  9
$REGENMODE
 70
     1
  9
$FILLMODE
 70
     1
  9
$QTEXTMODE
 70
     0
  9
$MIRRTEXT
 70
     1
  9
$DRAGMODE
 70
     2
  9
$LTSCALE
 40
10.0
  9
$OSMODE
 70
  2495
  9
$ATTMODE
 70
     1
  9
$TEXTSIZE
 40
3.5
  9
$TRACEWID
 40
0.5
  9
$TEXTSTYLE
  7
STANDARD
  9
$CLAYER
  8
STEMPEL
  9
$CELTYPE
  6
BYLAYER
  9
$CECOLOR
 62
   256
  9
$DIMSCALE
 40
1.0
  9
$DIMASZ
 40
3.5
  9
$DIMEXO
 40
1.0
  9
$DIMDLI
 40
7.0
  9
$DIMRND
 40
0.0
  9
$DIMDLE
 40
0.0
  9
$DIMEXE
 40
1.0
  9
$DIMTP
 40
0.0
  9
$DIMTM
 40
0.0
  9
$DIMTXT
 40
3.5
  9
$DIMCEN
 40
1.5
  9
$DIMTSZ
 40
0.0
  9
$DIMTOL
 70
     0
  9
$DIMLIM
 70
     0
  9
$DIMTIH
 70
     0
  9
$DIMTOH
 70
     0
  9
$DIMSE1
 70
     0
  9
$DIMSE2
 70
     0
  9
$DIMTAD
 70
     1
  9
$DIMZIN
 70
     8
  9
$DIMBLK
  1

  9
$DIMASO
 70
     1
  9
$DIMSHO
 70
     0
  9
$DIMPOST
  1

  9
$DIMAPOST
  1

  9
$DIMALT
 70
     0
  9
$DIMALTD
 70
     2
  9
$DIMALTF
 40
25.3999999999999986
  9
$DIMLFAC
 40
2.0
  9
$DIMTOFL
 70
     1
  9
$DIMTVP
 40
0.0
  9
$DIMTIX
 70
     0
  9
$DIMSOXD
 70
     0
  9
$DIMSAH
 70
     0
  9
$DIMBLK1
  1

  9
$DIMBLK2
  1

  9
$DIMSTYLE
  2
STANDARD
  9
$DIMCLRD
 70
     0
  9
$DIMCLRE
 70
     0
  9
$DIMCLRT
 70
     1
  9
$DIMTFAC
 40
0.5
  9
$DIMGAP
 40
1.5
  9
$LUNITS
 70
     2
  9
$LUPREC
 70
     2
  9
$SKETCHINC
 40
1.0
  9
$FILLETRAD
 40
5.5
  9
$AUNITS
 70
     0
  9
$AUPREC
 70
     0
  9
$MENU
  1
ACAD
  9
$ELEVATION
 40
0.0
  9
$PELEVATION
 40
0.0
  9
$THICKNESS
 40
0.0
  9
$LIMCHECK
 70
     0
  9
$BLIPMODE
 70
     0
  9
$CHAMFERA
 40
2.0
  9
$CHAMFERB
 40
2.0
  9
$SKPOLY
 70
     0
  9
$TDCREATE
 40
2455397.8646990740671754
  9
$TDUPDATE
 40
2459627.4678124999627471
  9
$TDINDWG
 40
0.3118327778
  9
$TDUSRTIMER
 40
0.3118327778
  9
$USRTIMER
 70
     1
  9
$ANGBASE
 50
0.0
  9
$ANGDIR
 70
     0
  9
$PDMODE
 70
     0
  9
$PDSIZE
 40
0.0
  9
$PLINEWID
 40
0.0
  9
$COORDS
 70
     1
  9
$SPLFRAME
 70
     0
  9
$SPLINETYPE
 70
     6
  9
$SPLINESEGS
 70
     8
  9
$ATTDIA
 70
     1
  9
$ATTREQ
 70
     1
  9
$HANDLING
 70
     1
  9
$HANDSEED
  5
283D
  9
$SURFTAB1
 70
     6
  9
$SURFTAB2
 70
     6
  9
$SURFTYPE
 70
     6
  9
$SURFU
 70
     6
  9
$SURFV
 70
     6
  9
$UCSNAME
  2

  9
$UCSORG
 10
0.0
 20
0.0
 30
0.0
  9
$UCSXDIR
 10
1.0
 20
0.0
 30
0.0
  9
$UCSYDIR
 10
0.0
 20
1.0
 30
0.0
  9
$PUCSNAME
  2

  9
$PUCSORG
 10
0.0
 20
0.0
 30
0.0
  9
$PUCSXDIR
 10
1.0
 20
0.0
 30
0.0
  9
$PUCSYDIR
 10
0.0
 20
1.0
 30
0.0
  9
$USERI1
 70
     0
  9
$USERI2
 70
     0
  9
$USERI3
 70
     0
  9
$USERI4
 70
     0
  9
$USERI5
 70
     0
  9
$USERR1
 40
0.0
  9
$USERR2
 40
0.0
  9
$USERR3
 40
0.0
  9
$USERR4
 40
0.0
  9
$USERR5
 40
0.0
  9
$WORLDVIEW
 70
     1
  9
$SHADEDGE
 70
     3
  9
$SHADEDIF
 70
    70
  9
$TILEMODE
 70
     1
  9
$MAXACTVP
 70
    16
  9
$PLIMCHECK
 70
     0
  9
$PEXTMIN
 10
1.0000000000000000E+20
 20
1.0000000000000000E+20
 30
1.0000000000000000E+20
  9
$PEXTMAX
 10
-1.0000000000000000E+20
 20
-1.0000000000000000E+20
 30
-1.0000000000000000E+20
  9
$PLIMMIN
 10
-0.0674642631973264
 20
-0.0511601294987543
  9
$PLIMMAX
 10
209.9325357368026914
 20
296.9488398705012742
  9
$UNITMODE
 70
     0
  9
$VISRETAIN
 70
     0
  9
$PLINEGEN
 70
     0
  9
$PSLTSCALE
 70
     0
  0
ENDSEC
  0
SECTION
  2
TABLES
  0
TABLE
  2
VPORT
 70
     1
  0
VPORT
  2
*ACTIVE
 70
     0
 10
0.0
 20
0.0
 11
1.0
 21
1.0
 12
3.399719548994113
 22
-43.0789291249927189
 13
0.0
 23
0.0
 14
1.0
 24
1.0
 15
10.0
 25
10.0
 16
-0.0000000000001705
 26
0.0
 36
886.747962349245654
 17
340.0060290201445241
 27
-48.0127638068724423
 37
-9.1584711494814481
 40
378.8341462138222937
 41
1.785202863961814
 42
50.0
 43
0.0
 44
0.0
 50
0.0
 51
0.0
 71
     0
 72
  1500
 73
     1
 74
     0
 75
     0
 76
     0
 77
     0
 78
     0
  0
ENDTAB
  0
TABLE
  2
LTYPE
 70
     3
  0
LTYPE
  2
CONTINUOUS
 70
     0
  3
Solid line
 72
    65
 73
     0
 40
0.0
  0
LTYPE
  2
PHANTOM2
 70
     0
  3
Phantom (.5x) ___ _ _ ___ _ _ ___ _ _ ___ _ _
 72
    65
 73
     6
 40
1.25
 49
0.625
 49
-0.125
 49
0.125
 49
-0.125
 49
0.125
 49
-0.125
  0
LTYPE
  2
VERDECKT
 70
     0
  3
Verdeckt __ __ __ __ __ __ __ __ __ __ __ __ __
 72
    65
 73
     2
 40
0.375
 49
0.25
 49
-0.125
  0
ENDTAB
  0
TABLE
  2
LAYER
 70
     6
  0
LAYER
  2
0
 70
     0
 62
     7
  6
CONTINUOUS
  0
LAYER
  2
VOLL
 70
     0
 62
     1
  6
CONTINUOUS
  0
LAYER
  2
STEMPEL
 70
     0
 62
     3
  6
CONTINUOUS
  0
LAYER
  2
DEFPOINTS
 70
     0
 62
     7
  6
CONTINUOUS
  0
LAYER
  2
ADSK_ASSOC_ENTITY_BACKUPS
 70
     1
 62
    -7
  6
CONTINUOUS
  0
LAYER
  2
ROHR
 70
     0
 62
     9
  6
CONTINUOUS
  0
ENDTAB
  0
TABLE
  2
STYLE
 70
     3
  0
STYLE
  2
STANDARD
 70
     0
 40
0.0
 41
0.8
 50
0.0
 71
     0
 42
3.5
  3
simplex.shx
  4

  0
STYLE
  2
GREEKS
 70
     0
 40
0.0
 41
0.8
 50
0.0
 71
     0
 42
2.5
  3
SIMPLEX.shx
  4

  0
STYLE
  2

 70
     1
 40
0.0
 41
1.0
 50
0.0
 71
     0
 42
3.5
  3
ltypeshp.shx
  4

  0
ENDTAB
  0
TABLE
  2
VIEW
 70
     0
  0
ENDTAB
  0
TABLE
  2
UCS
 70
     0
  0
ENDTAB
  0
TABLE
  2
APPID
 70
    23
  0
APPID
  2
ACAD
 70
     0
  0
APPID
  2
ACAD_NAV_VCDISPLAY
 70
     0
  0
APPID
  2
ACAD_MLEADERVER
 70
     0
  0
APPID
  2
ACAD_EXEMPT_FROM_CAD_STANDARDS
 70
     0
  0
APPID
  2
ACAD_PSEXT
 70
     0
  0
APPID
  2
ACAECLAYERSTANDARD
 70
     0
  0
APPID
  2
ACAUTHENVIRON
 70
     0
  0
APPID
  2
ACCMTRANSPARENCY
 70
     0
  0
APPID
  2
ACAD_STEPID
 70
     0
  0
APPID
  2
ACSYNERGY
 70
     0
  0
APPID
  2
SYNERGY_BODY_TBR_ID
 70
     0
  0
APPID
  2
ACAD_VIEW_EDGE_ID
 70
     0
  0
APPID
  2
ACSYNERGYSKETCH
 70
     0
  0
APPID
  2
ACAD_MODELDOC_XFORM
 70
     0
  0
APPID
  2
ACAD_DSTYLE_DIMJAG
 70
     0
  0
APPID
  2
ACAD_DSTYLE_DIMTALN
 70
     0
  0
APPID
  2
ACADANNOMONITORALERTICONDI
 70
     0
  0
APPID
  2
ACAD_DIMASSOC_CALC_DIMLFAC
 70
     0
  0
APPID
  2
ACAD_DIMASSOC_DIMLFAC
 70
     0
  0
APPID
  2
ACAD_DIMASSOC_OVERRIDDEN_D
 70
     0
  0
APPID
  2
ACAD_DSTYLE_DIMRADIAL_EXTENSION
 70
     0
  0
APPID
  2
GRADIENTCOLOR1ACI
 70
     0
  0
APPID
  2
GRADIENTCOLOR2ACI
 70
     0
  0
ENDTAB
  0
TABLE
  2
DIMSTYLE
 70
     1
  0
DIMSTYLE
  2
STANDARD
 70
     0
  3

  4

  5

  6

  7

 40
1.0
 41
0.18
 42
0.0625
 43
0.38
 44
0.18
 45
0.0
 46
0.0
 47
0.0
 48
0.0
140
0.18
141
0.09
142
0.0
143
25.3999999999999986
144
1.0
145
0.0
146
1.0
147
0.09
 71
     0
 72
     0
 73
     1
 74
     1
 75
     0
 76
     0
 77
     0
 78
     0
170
     0
171
     2
172
     0
173
     0
174
     0
175
     0
176
     0
177
     0
178
     0
  0
ENDTAB
  0
ENDSEC
  0
SECTION
  2
BLOCKS
  0
BLOCK
  8
0
  2
$MODEL_SPACE
 70
     0
 10
0.0
 20
0.0
 30
0.0
  3
$MODEL_SPACE
  1

  0
ENDBLK
  5
36
  8
0
  0
BLOCK
 67
     1
  8
0
  2
$PAPER_SPACE
 70
     0
 10
0.0
 20
0.0
 30
0.0
  3
$PAPER_SPACE
  1

  0
ENDBLK
  5
34
 67
     1
  8
0
  0
BLOCK
  8
0
  2
*S0
 70
     1
 10
0.0
 20
0.0
 30
0.0
  3
*S0
  1

  0
ENDBLK
  5
B3A
  8
0
  0
BLOCK
  8
0
  2
A$C5F009D9B
 70
     0
 10
0.0
 20
0.0
 30
0.0
  3
A$C5F009D9B
  1

  0
CIRCLE
  5
2007
  8
0
 10
97.3691369365925254
 20
-92.4362661998708148
 30
-0.0000000000000142
 40
42.8999999999998565
  0
CIRCLE
  5
2008
  8
0
 10
97.3691369365925254
 20
-92.4362661998708148
 30
-0.0000000000000284
 40
46.3153122110811069
  0
CIRCLE
  5
2009
  8
0
 10
97.3691369365925254
 20
-92.4362661998708148
 30
-0.0000000000000284
 40
51.0999999999997883
  0
CIRCLE
  5
200A
  8
0
 10
97.3691369365925254
 20
-92.4362661998708148
 30
-0.0000000000000284
 40
47.7654046703397626
  0
CIRCLE
  5
200B
  8
0
 10
97.3691369365925254
 20
-92.4362661998708148
 30
-0.0000000000000284
 40
45.9996636664194227
  0
CIRCLE
  5
200C
  8
0
 10
40.8005944416687285
 20
-35.8677237049470321
 30
-0.0000000000000142
 40
9.0
  0
CIRCLE
  5
200D
  8
0
 10
40.8005944416687285
 20
-149.0048086947946047
 30
-0.0000000000000142
 40
9.0
  0
CIRCLE
  5
200E
  8
0
 10
153.9376794315163011
 20
-149.0048086947946047
 30
-0.0000000000000284
 40
9.0
  0
CIRCLE
  5
200F
  8
0
 10
153.9376794315163011
 20
-35.8677237049470321
 30
-0.0000000000000284
 40
9.0
  0
CIRCLE
  5
2010
  8
0
 10
177.369136936592497
 20
-92.4362661998708148
 30
-0.0000000000000426
 40
9.0
  0
CIRCLE
  5
2011
  8
0
 10
97.3691369365925254
 20
-172.4362661998708006
 30
-0.0000000000000142
 40
9.0
  0
CIRCLE
  5
2012
  8
0
 10
17.369136936592529
 20
-92.4362661998708148
 30
0.0
 40
9.0
  0
CIRCLE
  5
2013
  8
0
 10
97.3691369365925254
 20
-12.4362661998708308
 30
-0.0000000000000142
 40
9.0
  0
CIRCLE
  5
2014
  8
0
 10
97.3691369365925254
 20
-92.4362661998708148
 30
-0.0000000000000142
 40
99.9999999999999858
  0
CIRCLE
  5
2015
  8
0
 10
97.3691369365925254
 20
-92.4362661998708148
 30
-0.0000000000000142
 40
41.2500000000000213
  0
CIRCLE
  5
2016
  8
0
  6
VERDECKT
 62
     1
 10
97.3691369365925254
 20
-92.4362661998708148
 30
-0.0000000000000142
 40
44.5
  0
CIRCLE
  5
2017
  8
0
  6
VERDECKT
 62
     1
 10
97.3691369365925254
 20
-92.4362661998708148
 30
-0.0000000000000284
 40
49.4999999999997726
  0
CIRCLE
  5
2018
  8
0
  6
VERDECKT
 62
     1
 10
97.3691369365925254
 20
-92.4362661998708148
 30
-0.0000000000000284
 40
45.9999999999998792
  0
CIRCLE
  5
2019
  8
0
  6
VERDECKT
 62
     1
 10
97.3691369365925254
 20
-92.4362661998708148
 30
-0.0000000000000284
 40
47.5999999999999019
  0
CIRCLE
  5
201A
  8
0
  6
VERDECKT
 62
     1
 10
97.3691369365925254
 20
-92.4362661998708148
 30
-0.0000000000000142
 40
44.4500000000000171
  0
ARC
  5
201B
  8
0
  6
VERDECKT
 62
     1
 10
97.3691369365926533
 20
-92.4362661998709001
 30
-0.0000000000000213
 40
72.0000000000001421
 50
93.1130727721600522
 51
131.8869272278400899
  0
ARC
  5
201C
  8
0
  6
VERDECKT
 62
     1
 10
97.3691369365926533
 20
-92.4362661998703459
 30
-0.0000000000000213
 40
71.9999999999994884
 50
48.1130727721597893
 51
86.8869272278401041
  0
ARC
  5
201D
  8
0
  6
VERDECKT
 62
     1
 10
97.369136936593236
 20
-92.4362661998704453
 30
-0.0000000000000213
 40
71.999999999999261
 50
3.1130727721597409
 51
41.8869272278401468
  0
ARC
  5
201E
  8
0
  6
VERDECKT
 62
     1
 10
97.3691369365929944
 20
-92.4362661998710706
 30
-0.0000000000000213
 40
71.9999999999994884
 50
318.1130727721599101
 51
356.8869272278402036
  0
ARC
  5
201F
  8
0
  6
VERDECKT
 62
     1
 10
97.3691369365925254
 20
-92.4362661998709001
 30
-0.0000000000000213
 40
71.9999999999999716
 50
273.1130727721600238
 51
311.8869272278399762
  0
ARC
  5
2020
  8
0
  6
VERDECKT
 62
     1
 10
97.3691369365925254
 20
-92.4362661998709569
 30
-0.0000000000000213
 40
71.9999999999999005
 50
228.1130727721597964
 51
266.8869272278399762
  0
ARC
  5
2021
  8
0
  6
VERDECKT
 62
     1
 10
97.3691369365921986
 20
-92.4362661998710422
 30
-0.0000000000000213
 40
71.9999999999996163
 50
183.1130727721597964
 51
221.8869272278400047
  0
ARC
  5
2022
  8
0
  6
VERDECKT
 62
     1
 10
97.3691369365923265
 20
-92.4362661998706585
 30
-0.0000000000000213
 40
71.9999999999997158
 50
138.1130727721599101
 51
176.8869272278400899
  0
CIRCLE
  5
2023
  8
0
  6
VERDECKT
 62
     1
 10
97.3691369365925254
 20
-92.4362661998708148
 30
-0.0000000000000213
 40
69.0
  0
ENDBLK
  5
2025
  8
0
  0
BLOCK
  8
0
  2
A$C86061B72
 70
     0
 10
0.0
 20
0.0
 30
0.0
  3
A$C86061B72
  1

  0
LINE
  5
2029
  8
0
 10
52.8691369365925468
 20
104.650347193087299
 30
-0.0000000000000232
 11
141.869136936592497
 21
104.650347193087299
 31
-0.0000000000000232
210
0.0
220
1.0
230
-0.0000000000000002
  0
LINE
  5
202A
  8
0
 10
145.134541606932288
 20
189.6503471930874127
 30
-0.0000000000000421
 11
49.6037322662527913
 21
189.6503471930874127
 31
-0.0000000000000421
210
0.0
220
1.0
230
-0.0000000000000002
  0
LINE
  5
202B
  8
0
 10
141.869136936592497
 20
124.3437475285191027
 30
-0.0000000000000276
 11
141.869136936592497
 21
104.650347193087299
 31
-0.0000000000000232
210
0.0
220
1.0
230
-0.0000000000000002
  0
LINE
  5
202C
  8
0
 10
52.8691369365925397
 20
124.3437475285191027
 30
-0.0000000000000276
 11
52.8691369365925397
 21
104.650347193087299
 31
-0.0000000000000232
210
0.0
220
1.0
230
-0.0000000000000002
  0
ARC
  5
202D
  8
0
 10
-149.8691369365901949
 20
124.3437475285196996
 30
0.0
 40
7.9999999999976694
210
0.0
220
-0.0000000000000002
230
-1.0
 50
359.9999999999943157
 51
32.3280641221657277
  0
ARC
  5
202E
  8
0
 10
-44.8691369365946784
 20
124.3437475285196996
 30
0.0
 40
7.9999999999978719
210
0.0
220
-0.0000000000000002
230
-1.0
 50
147.671935877834386
 51
180.0000000000048885
  0
ARC
  5
202F
  8
0
 10
-132.9691369365945945
 20
135.0390736105038911
 30
0.0
 40
11.9999999999978897
210
0.0
220
-0.0000000000000002
230
-1.0
 50
179.9999999999971863
 51
212.3280641221655003
  0
ARC
  5
2030
  8
0
 10
-61.7691369365903427
 20
135.0390736105038059
 30
0.0
 40
11.9999999999976801
210
0.0
220
-0.0000000000000002
230
-1.0
 50
327.671935877834585
 51
0.0000000000033841
  0
LINE
  5
2031
  8
0
 10
49.7691369365926377
 20
135.039073610504488
 30
-0.00000000000003
 11
49.7691369365926377
 21
154.3102141298923016
 31
-0.0000000000000343
210
0.0
220
1.0
230
-0.0000000000000002
  0
LINE
  5
2032
  8
0
 10
144.9691369365924061
 20
135.0390736105044027
 30
-0.00000000000003
 11
144.9691369365924061
 21
154.3102141298923016
 31
-0.0000000000000343
210
0.0
220
1.0
230
-0.0000000000000002
  0
ARC
  5
2033
  8
0
 10
-156.9691369365932019
 20
154.3102141298921879
 30
0.0
 40
12.0000000000007407
210
0.0
220
-0.0000000000000002
230
-1.0
 50
0.0000000000004071
 51
24.9363972752512488
  0
ARC
  5
2034
  8
0
 10
-37.7691369365924103
 20
154.3102141298923016
 30
0.0
 40
12.0000000000002203
210
0.0
220
-0.0000000000000002
230
-1.0
 50
155.0636027247479092
 51
180.0
  0
ARC
  5
2035
  8
0
 10
-122.9244793332889003
 20
170.1395126439377918
 30
0.0
 40
25.5447120480758514
210
0.0
220
-0.0000000000000002
230
-1.0
 50
180.1182947020882921
 51
204.936397275251494
  0
ARC
  5
2036
  8
0
 10
-71.8137945398957243
 20
170.1395126439377066
 30
0.0
 40
25.5447120480754393
210
0.0
220
-0.0000000000000002
230
-1.0
 50
335.0636027247483071
 51
359.8817052979118785
  0
LINE
  5
2037
  8
0
 10
46.2691369365927514
 20
170.0867722504829942
 30
-0.0000000000000378
 11
46.2691369365927514
 21
177.0455957305163963
 31
-0.0000000000000393
210
0.0
220
1.0
230
-0.0000000000000002
  0
LINE
  5
2038
  8
0
 10
148.4691369365922924
 20
170.0867722504829942
 30
-0.0000000000000378
 11
148.4691369365922924
 21
177.0455957305163963
 31
-0.0000000000000393
210
0.0
220
1.0
230
-0.0000000000000002
  0
ARC
  5
2039
  8
0
 10
-123.8691369365919002
 20
177.0455957305163963
 30
0.0
 40
24.6000000000004313
210
0.0
220
-0.0000000000000002
230
-1.0
 50
155.0000000000034959
 51
179.9999999999998863
  0
ARC
  5
203A
  8
0
 10
-70.8691369365934918
 20
177.0455957305163111
 30
0.0
 40
24.6000000000007084
210
0.0
220
-0.0000000000000002
230
-1.0
 50
0.0000000000002036
 51
24.9999999999965397
  0
LINE
  5
203B
  8
0
 10
145.134541606932288
 20
189.6503471930874127
 30
-0.0000000000000421
 11
146.164308497694492
 21
187.4420049693364092
 31
-0.0000000000000416
210
0.0
220
1.0
230
-0.0000000000000002
  0
LINE
  5
203C
  8
0
 10
49.6037322662527771
 20
189.6503471930874127
 30
-0.0000000000000421
 11
48.57396537549063
 21
187.4420049693364945
 31
-0.0000000000000416
210
0.0
220
1.0
230
-0.0000000000000002
  0
POLYLINE
  8
0
  5
20F3
  66
     1
 10
0.000000
 20
0.000000
 30
0.000000
  70
     8
  0
VERTEX
  8
0
  5
20F4
 10
49.2974
 20
57.6503
 30
-1.28000e-14
  70
    32
  0
VERTEX
  8
0
  5
20F5
 10
49.2917
 20
57.6420
 30
-1.27999e-14
  70
    32
  0
VERTEX
  8
0
  5
20F6
 10
49.2860
 20
57.6338
 30
-1.27997e-14
  70
    32
  0
VERTEX
  8
0
  5
20F7
 10
49.2802
 20
57.6255
 30
-1.27992e-14
  70
    32
  0
VERTEX
  8
0
  5
20F8
 10
49.2744
 20
57.6173
 30
-1.27986e-14
  70
    32
  0
VERTEX
  8
0
  5
20F9
 10
49.2686
 20
57.6091
 30
-1.27979e-14
  70
    32
  0
VERTEX
  8
0
  5
20FA
 10
49.2627
 20
57.6009
 30
-1.27970e-14
  70
    32
  0
VERTEX
  8
0
  5
20FB
 10
49.2568
 20
57.5927
 30
-1.27960e-14
  70
    32
  0
VERTEX
  8
0
  5
20FC
 10
49.2508
 20
57.5846
 30
-1.27948e-14
  70
    32
  0
VERTEX
  8
0
  5
20FD
 10
49.2448
 20
57.5765
 30
-1.27935e-14
  70
    32
  0
VERTEX
  8
0
  5
20FE
 10
49.2388
 20
57.5684
 30
-1.27921e-14
  70
    32
  0
VERTEX
  8
0
  5
20FF
 10
49.2327
 20
57.5604
 30
-1.27906e-14
  70
    32
  0
VERTEX
  8
0
  5
2100
 10
49.2266
 20
57.5524
 30
-1.27890e-14
  70
    32
  0
VERTEX
  8
0
  5
2101
 10
49.2205
 20
57.5444
 30
-1.27872e-14
  70
    32
  0
VERTEX
  8
0
  5
2102
 10
49.2143
 20
57.5364
 30
-1.27854e-14
  70
    32
  0
VERTEX
  8
0
  5
2103
 10
49.2081
 20
57.5285
 30
-1.27834e-14
  70
    32
  0
VERTEX
  8
0
  5
2104
 10
49.2019
 20
57.5205
 30
-1.27814e-14
  70
    32
  0
VERTEX
  8
0
  5
2105
 10
49.1956
 20
57.5127
 30
-1.27793e-14
  70
    32
  0
VERTEX
  8
0
  5
2106
 10
49.1893
 20
57.5048
 30
-1.27771e-14
  70
    32
  0
VERTEX
  8
0
  5
2107
 10
49.1829
 20
57.4970
 30
-1.27749e-14
  70
    32
  0
VERTEX
  8
0
  5
2108
 10
49.1765
 20
57.4892
 30
-1.27726e-14
  70
    32
  0
VERTEX
  8
0
  5
2109
 10
49.1701
 20
57.4814
 30
-1.27702e-14
  70
    32
  0
VERTEX
  8
0
  5
210A
 10
49.1636
 20
57.4737
 30
-1.27678e-14
  70
    32
  0
VERTEX
  8
0
  5
210B
 10
49.1571
 20
57.4659
 30
-1.27654e-14
  70
    32
  0
VERTEX
  8
0
  5
210C
 10
49.1506
 20
57.4582
 30
-1.27629e-14
  70
    32
  0
VERTEX
  8
0
  5
210D
 10
49.1440
 20
57.4506
 30
-1.27604e-14
  70
    32
  0
VERTEX
  8
0
  5
210E
 10
49.1374
 20
57.4430
 30
-1.27578e-14
  70
    32
  0
VERTEX
  8
0
  5
210F
 10
49.1308
 20
57.4354
 30
-1.27553e-14
  70
    32
  0
VERTEX
  8
0
  5
2110
 10
49.1241
 20
57.4278
 30
-1.27527e-14
  70
    32
  0
VERTEX
  8
0
  5
2111
 10
49.1174
 20
57.4203
 30
-1.27501e-14
  70
    32
  0
VERTEX
  8
0
  5
2112
 10
49.1106
 20
57.4127
 30
-1.27475e-14
  70
    32
  0
VERTEX
  8
0
  5
2113
 10
49.1038
 20
57.4053
 30
-1.27450e-14
  70
    32
  0
VERTEX
  8
0
  5
2114
 10
49.0970
 20
57.3978
 30
-1.27424e-14
  70
    32
  0
VERTEX
  8
0
  5
2115
 10
49.0901
 20
57.3904
 30
-1.27399e-14
  70
    32
  0
VERTEX
  8
0
  5
2116
 10
49.0833
 20
57.3830
 30
-1.27373e-14
  70
    32
  0
VERTEX
  8
0
  5
2117
 10
49.0763
 20
57.3756
 30
-1.27348e-14
  70
    32
  0
VERTEX
  8
0
  5
2118
 10
49.0693
 20
57.3683
 30
-1.27324e-14
  70
    32
  0
VERTEX
  8
0
  5
2119
 10
49.0623
 20
57.3610
 30
-1.27300e-14
  70
    32
  0
VERTEX
  8
0
  5
211A
 10
49.0553
 20
57.3537
 30
-1.27276e-14
  70
    32
  0
VERTEX
  8
0
  5
211B
 10
49.0482
 20
57.3465
 30
-1.27253e-14
  70
    32
  0
VERTEX
  8
0
  5
211C
 10
49.0411
 20
57.3393
 30
-1.27231e-14
  70
    32
  0
VERTEX
  8
0
  5
211D
 10
49.0340
 20
57.3321
 30
-1.27209e-14
  70
    32
  0
VERTEX
  8
0
  5
211E
 10
49.0268
 20
57.3250
 30
-1.27188e-14
  70
    32
  0
VERTEX
  8
0
  5
211F
 10
49.0195
 20
57.3179
 30
-1.27167e-14
  70
    32
  0
VERTEX
  8
0
  5
2120
 10
49.0123
 20
57.3108
 30
-1.27148e-14
  70
    32
  0
VERTEX
  8
0
  5
2121
 10
49.0050
 20
57.3037
 30
-1.27130e-14
  70
    32
  0
VERTEX
  8
0
  5
2122
 10
48.9977
 20
57.2967
 30
-1.27112e-14
  70
    32
  0
VERTEX
  8
0
  5
2123
 10
48.9903
 20
57.2897
 30
-1.27096e-14
  70
    32
  0
VERTEX
  8
0
  5
2124
 10
48.9829
 20
57.2828
 30
-1.27080e-14
  70
    32
  0
VERTEX
  8
0
  5
2125
 10
48.9754
 20
57.2758
 30
-1.27066e-14
  70
    32
  0
VERTEX
  8
0
  5
2126
 10
48.9680
 20
57.2690
 30
-1.27053e-14
  70
    32
  0
VERTEX
  8
0
  5
2127
 10
48.9604
 20
57.2621
 30
-1.27041e-14
  70
    32
  0
VERTEX
  8
0
  5
2128
 10
48.9529
 20
57.2553
 30
-1.27031e-14
  70
    32
  0
VERTEX
  8
0
  5
2129
 10
48.9453
 20
57.2485
 30
-1.27022e-14
  70
    32
  0
VERTEX
  8
0
  5
212A
 10
48.9377
 20
57.2417
 30
-1.27014e-14
  70
    32
  0
VERTEX
  8
0
  5
212B
 10
48.9300
 20
57.2350
 30
-1.27008e-14
  70
    32
  0
VERTEX
  8
0
  5
212C
 10
48.9223
 20
57.2283
 30
-1.27004e-14
  70
    32
  0
VERTEX
  8
0
  5
212D
 10
48.9146
 20
57.2217
 30
-1.27001e-14
  70
    32
  0
VERTEX
  8
0
  5
212E
 10
48.9068
 20
57.2150
 30
-1.27000e-14
  70
    32
  0
VERTEX
  8
0
  5
212F
 10
48.8990
 20
57.2085
 30
-1.27000e-14
  70
    32
  0
VERTEX
  8
0
  5
2130
 10
48.8912
 20
57.2019
 30
-1.26998e-14
  70
    32
  0
VERTEX
  8
0
  5
2131
 10
48.8833
 20
57.1954
 30
-1.26996e-14
  70
    32
  0
VERTEX
  8
0
  5
2132
 10
48.8754
 20
57.1889
 30
-1.26994e-14
  70
    32
  0
VERTEX
  8
0
  5
2133
 10
48.8674
 20
57.1824
 30
-1.26990e-14
  70
    32
  0
VERTEX
  8
0
  5
2134
 10
48.8594
 20
57.1760
 30
-1.26985e-14
  70
    32
  0
VERTEX
  8
0
  5
2135
 10
48.8514
 20
57.1696
 30
-1.26980e-14
  70
    32
  0
VERTEX
  8
0
  5
2136
 10
48.8434
 20
57.1633
 30
-1.26974e-14
  70
    32
  0
VERTEX
  8
0
  5
2137
 10
48.8353
 20
57.1570
 30
-1.26968e-14
  70
    32
  0
VERTEX
  8
0
  5
2138
 10
48.8271
 20
57.1507
 30
-1.26960e-14
  70
    32
  0
VERTEX
  8
0
  5
2139
 10
48.8189
 20
57.1445
 30
-1.26952e-14
  70
    32
  0
VERTEX
  8
0
  5
213A
 10
48.8107
 20
57.1383
 30
-1.26944e-14
  70
    32
  0
VERTEX
  8
0
  5
213B
 10
48.8025
 20
57.1321
 30
-1.26935e-14
  70
    32
  0
VERTEX
  8
0
  5
213C
 10
48.7942
 20
57.1259
 30
-1.26925e-14
  70
    32
  0
VERTEX
  8
0
  5
213D
 10
48.7859
 20
57.1198
 30
-1.26914e-14
  70
    32
  0
VERTEX
  8
0
  5
213E
 10
48.7775
 20
57.1138
 30
-1.26903e-14
  70
    32
  0
VERTEX
  8
0
  5
213F
 10
48.7691
 20
57.1077
 30
-1.26892e-14
  70
    32
  0
VERTEX
  8
0
  5
2140
 10
48.7607
 20
57.1017
 30
-1.26880e-14
  70
    32
  0
VERTEX
  8
0
  5
2141
 10
48.7523
 20
57.0958
 30
-1.26867e-14
  70
    32
  0
VERTEX
  8
0
  5
2142
 10
48.7438
 20
57.0899
 30
-1.26854e-14
  70
    32
  0
VERTEX
  8
0
  5
2143
 10
48.7352
 20
57.0840
 30
-1.26841e-14
  70
    32
  0
VERTEX
  8
0
  5
2144
 10
48.7267
 20
57.0781
 30
-1.26827e-14
  70
    32
  0
VERTEX
  8
0
  5
2145
 10
48.7181
 20
57.0723
 30
-1.26812e-14
  70
    32
  0
VERTEX
  8
0
  5
2146
 10
48.7094
 20
57.0665
 30
-1.26798e-14
  70
    32
  0
VERTEX
  8
0
  5
2147
 10
48.7007
 20
57.0608
 30
-1.26783e-14
  70
    32
  0
VERTEX
  8
0
  5
2148
 10
48.6920
 20
57.0551
 30
-1.26767e-14
  70
    32
  0
VERTEX
  8
0
  5
2149
 10
48.6833
 20
57.0494
 30
-1.26751e-14
  70
    32
  0
VERTEX
  8
0
  5
214A
 10
48.6745
 20
57.0437
 30
-1.26735e-14
  70
    32
  0
VERTEX
  8
0
  5
214B
 10
48.6657
 20
57.0381
 30
-1.26719e-14
  70
    32
  0
VERTEX
  8
0
  5
214C
 10
48.6568
 20
57.0326
 30
-1.26702e-14
  70
    32
  0
VERTEX
  8
0
  5
214D
 10
48.6479
 20
57.0271
 30
-1.26685e-14
  70
    32
  0
VERTEX
  8
0
  5
214E
 10
48.6390
 20
57.0216
 30
-1.26668e-14
  70
    32
  0
VERTEX
  8
0
  5
214F
 10
48.6300
 20
57.0161
 30
-1.26651e-14
  70
    32
  0
VERTEX
  8
0
  5
2150
 10
48.6211
 20
57.0107
 30
-1.26634e-14
  70
    32
  0
VERTEX
  8
0
  5
2151
 10
48.6120
 20
57.0053
 30
-1.26616e-14
  70
    32
  0
VERTEX
  8
0
  5
2152
 10
48.6030
 20
57.0000
 30
-1.26598e-14
  70
    32
  0
VERTEX
  8
0
  5
2153
 10
48.5939
 20
56.9947
 30
-1.26580e-14
  70
    32
  0
VERTEX
  8
0
  5
2154
 10
48.5847
 20
56.9894
 30
-1.26562e-14
  70
    32
  0
VERTEX
  8
0
  5
2155
 10
48.5756
 20
56.9842
 30
-1.26544e-14
  70
    32
  0
VERTEX
  8
0
  5
2156
 10
48.5664
 20
56.9790
 30
-1.26526e-14
  70
    32
  0
VERTEX
  8
0
  5
2157
 10
48.5571
 20
56.9739
 30
-1.26508e-14
  70
    32
  0
VERTEX
  8
0
  5
2158
 10
48.5478
 20
56.9687
 30
-1.26490e-14
  70
    32
  0
VERTEX
  8
0
  5
2159
 10
48.5385
 20
56.9637
 30
-1.26472e-14
  70
    32
  0
VERTEX
  8
0
  5
215A
 10
48.5292
 20
56.9586
 30
-1.26454e-14
  70
    32
  0
VERTEX
  8
0
  5
215B
 10
48.5198
 20
56.9536
 30
-1.26436e-14
  70
    32
  0
VERTEX
  8
0
  5
215C
 10
48.5104
 20
56.9487
 30
-1.26418e-14
  70
    32
  0
VERTEX
  8
0
  5
215D
 10
48.5010
 20
56.9437
 30
-1.26400e-14
  70
    32
  0
VERTEX
  8
0
  5
215E
 10
48.4915
 20
56.9389
 30
-1.26382e-14
  70
    32
  0
VERTEX
  8
0
  5
215F
 10
48.4820
 20
56.9340
 30
-1.26365e-14
  70
    32
  0
VERTEX
  8
0
  5
2160
 10
48.4724
 20
56.9292
 30
-1.26347e-14
  70
    32
  0
VERTEX
  8
0
  5
2161
 10
48.4629
 20
56.9244
 30
-1.26330e-14
  70
    32
  0
VERTEX
  8
0
  5
2162
 10
48.4532
 20
56.9197
 30
-1.26313e-14
  70
    32
  0
VERTEX
  8
0
  5
2163
 10
48.4436
 20
56.9150
 30
-1.26296e-14
  70
    32
  0
VERTEX
  8
0
  5
2164
 10
48.4339
 20
56.9104
 30
-1.26279e-14
  70
    32
  0
VERTEX
  8
0
  5
2165
 10
48.4242
 20
56.9057
 30
-1.26263e-14
  70
    32
  0
VERTEX
  8
0
  5
2166
 10
48.4144
 20
56.9012
 30
-1.26247e-14
  70
    32
  0
VERTEX
  8
0
  5
2167
 10
48.4047
 20
56.8966
 30
-1.26231e-14
  70
    32
  0
VERTEX
  8
0
  5
2168
 10
48.3948
 20
56.8921
 30
-1.26216e-14
  70
    32
  0
VERTEX
  8
0
  5
2169
 10
48.3850
 20
56.8877
 30
-1.26201e-14
  70
    32
  0
VERTEX
  8
0
  5
216A
 10
48.3751
 20
56.8833
 30
-1.26186e-14
  70
    32
  0
VERTEX
  8
0
  5
216B
 10
48.3652
 20
56.8789
 30
-1.26172e-14
  70
    32
  0
VERTEX
  8
0
  5
216C
 10
48.3552
 20
56.8746
 30
-1.26158e-14
  70
    32
  0
VERTEX
  8
0
  5
216D
 10
48.3453
 20
56.8703
 30
-1.26144e-14
  70
    32
  0
VERTEX
  8
0
  5
216E
 10
48.3352
 20
56.8660
 30
-1.26132e-14
  70
    32
  0
VERTEX
  8
0
  5
216F
 10
48.3252
 20
56.8618
 30
-1.26119e-14
  70
    32
  0
VERTEX
  8
0
  5
2170
 10
48.3151
 20
56.8576
 30
-1.26107e-14
  70
    32
  0
VERTEX
  8
0
  5
2171
 10
48.3050
 20
56.8535
 30
-1.26096e-14
  70
    32
  0
VERTEX
  8
0
  5
2172
 10
48.2948
 20
56.8494
 30
-1.26085e-14
  70
    32
  0
VERTEX
  8
0
  5
2173
 10
48.2847
 20
56.8453
 30
-1.26074e-14
  70
    32
  0
VERTEX
  8
0
  5
2174
 10
48.2744
 20
56.8413
 30
-1.26064e-14
  70
    32
  0
VERTEX
  8
0
  5
2175
 10
48.2642
 20
56.8373
 30
-1.26055e-14
  70
    32
  0
VERTEX
  8
0
  5
2176
 10
48.2539
 20
56.8334
 30
-1.26047e-14
  70
    32
  0
VERTEX
  8
0
  5
2177
 10
48.2436
 20
56.8295
 30
-1.26039e-14
  70
    32
  0
VERTEX
  8
0
  5
2178
 10
48.2333
 20
56.8257
 30
-1.26032e-14
  70
    32
  0
VERTEX
  8
0
  5
2179
 10
48.2229
 20
56.8218
 30
-1.26025e-14
  70
    32
  0
VERTEX
  8
0
  5
217A
 10
48.2125
 20
56.8181
 30
-1.26019e-14
  70
    32
  0
VERTEX
  8
0
  5
217B
 10
48.2020
 20
56.8143
 30
-1.26014e-14
  70
    32
  0
VERTEX
  8
0
  5
217C
 10
48.1916
 20
56.8107
 30
-1.26010e-14
  70
    32
  0
VERTEX
  8
0
  5
217D
 10
48.1810
 20
56.8070
 30
-1.26006e-14
  70
    32
  0
VERTEX
  8
0
  5
217E
 10
48.1705
 20
56.8034
 30
-1.26003e-14
  70
    32
  0
VERTEX
  8
0
  5
217F
 10
48.1599
 20
56.7999
 30
-1.26001e-14
  70
    32
  0
VERTEX
  8
0
  5
2180
 10
48.1493
 20
56.7963
 30
-1.26000e-14
  70
    32
  0
VERTEX
  8
0
  5
2181
 10
48.1387
 20
56.7929
 30
-1.26000e-14
  70
    32
  0
VERTEX
  8
0
  5
2182
 10
48.1280
 20
56.7894
 30
-1.26000e-14
  70
    32
  0
VERTEX
  8
0
  5
2183
 10
48.1173
 20
56.7860
 30
-1.26000e-14
  70
    32
  0
VERTEX
  8
0
  5
2184
 10
48.1066
 20
56.7827
 30
-1.26000e-14
  70
    32
  0
VERTEX
  8
0
  5
2185
 10
48.0958
 20
56.7794
 30
-1.26000e-14
  70
    32
  0
VERTEX
  8
0
  5
2186
 10
48.0850
 20
56.7761
 30
-1.26000e-14
  70
    32
  0
VERTEX
  8
0
  5
2187
 10
48.0742
 20
56.7729
 30
-1.26000e-14
  70
    32
  0
VERTEX
  8
0
  5
2188
 10
48.0634
 20
56.7697
 30
-1.26000e-14
  70
    32
  0
VERTEX
  8
0
  5
2189
 10
48.0525
 20
56.7665
 30
-1.26000e-14
  70
    32
  0
VERTEX
  8
0
  5
218A
 10
48.0416
 20
56.7634
 30
-1.26000e-14
  70
    32
  0
VERTEX
  8
0
  5
218B
 10
48.0306
 20
56.7604
 30
-1.26000e-14
  70
    32
  0
VERTEX
  8
0
  5
218C
 10
48.0196
 20
56.7574
 30
-1.26000e-14
  70
    32
  0
VERTEX
  8
0
  5
218D
 10
48.0086
 20
56.7544
 30
-1.26000e-14
  70
    32
  0
VERTEX
  8
0
  5
218E
 10
47.9976
 20
56.7515
 30
-1.26000e-14
  70
    32
  0
VERTEX
  8
0
  5
218F
 10
47.9865
 20
56.7486
 30
-1.26000e-14
  70
    32
  0
VERTEX
  8
0
  5
2190
 10
47.9754
 20
56.7457
 30
-1.26000e-14
  70
    32
  0
VERTEX
  8
0
  5
2191
 10
47.9643
 20
56.7429
 30
-1.26000e-14
  70
    32
  0
VERTEX
  8
0
  5
2192
 10
47.9531
 20
56.7401
 30
-1.26000e-14
  70
    32
  0
VERTEX
  8
0
  5
2193
 10
47.9419
 20
56.7374
 30
-1.26000e-14
  70
    32
  0
VERTEX
  8
0
  5
2194
 10
47.9307
 20
56.7347
 30
-1.26000e-14
  70
    32
  0
VERTEX
  8
0
  5
2195
 10
47.9195
 20
56.7321
 30
-1.26000e-14
  70
    32
  0
VERTEX
  8
0
  5
2196
 10
47.9082
 20
56.7295
 30
-1.26000e-14
  70
    32
  0
VERTEX
  8
0
  5
2197
 10
47.8969
 20
56.7269
 30
-1.26000e-14
  70
    32
  0
VERTEX
  8
0
  5
2198
 10
47.8855
 20
56.7244
 30
-1.26000e-14
  70
    32
  0
VERTEX
  8
0
  5
2199
 10
47.8742
 20
56.7220
 30
-1.26000e-14
  70
    32
  0
VERTEX
  8
0
  5
219A
 10
47.8628
 20
56.7195
 30
-1.26000e-14
  70
    32
  0
VERTEX
  8
0
  5
219B
 10
47.8514
 20
56.7171
 30
-1.26000e-14
  70
    32
  0
VERTEX
  8
0
  5
219C
 10
47.8399
 20
56.7148
 30
-1.26000e-14
  70
    32
  0
VERTEX
  8
0
  5
219D
 10
47.8284
 20
56.7125
 30
-1.26000e-14
  70
    32
  0
VERTEX
  8
0
  5
219E
 10
47.8169
 20
56.7102
 30
-1.26000e-14
  70
    32
  0
VERTEX
  8
0
  5
219F
 10
47.8054
 20
56.7080
 30
-1.26000e-14
  70
    32
  0
VERTEX
  8
0
  5
21A0
 10
47.7938
 20
56.7058
 30
-1.26000e-14
  70
    32
  0
VERTEX
  8
0
  5
21A1
 10
47.7823
 20
56.7037
 30
-1.26000e-14
  70
    32
  0
VERTEX
  8
0
  5
21A2
 10
47.7706
 20
56.7016
 30
-1.26000e-14
  70
    32
  0
VERTEX
  8
0
  5
21A3
 10
47.7590
 20
56.6996
 30
-1.26000e-14
  70
    32
  0
VERTEX
  8
0
  5
21A4
 10
47.7473
 20
56.6976
 30
-1.26000e-14
  70
    32
  0
VERTEX
  8
0
  5
21A5
 10
47.7356
 20
56.6956
 30
-1.26000e-14
  70
    32
  0
VERTEX
  8
0
  5
21A6
 10
47.7239
 20
56.6937
 30
-1.26000e-14
  70
    32
  0
VERTEX
  8
0
  5
21A7
 10
47.7122
 20
56.6918
 30
-1.26000e-14
  70
    32
  0
VERTEX
  8
0
  5
21A8
 10
47.7004
 20
56.6899
 30
-1.26000e-14
  70
    32
  0
VERTEX
  8
0
  5
21A9
 10
47.6886
 20
56.6881
 30
-1.26000e-14
  70
    32
  0
VERTEX
  8
0
  5
21AA
 10
47.6768
 20
56.6864
 30
-1.26000e-14
  70
    32
  0
VERTEX
  8
0
  5
21AB
 10
47.6649
 20
56.6847
 30
-1.26000e-14
  70
    32
  0
VERTEX
  8
0
  5
21AC
 10
47.6530
 20
56.6830
 30
-1.26000e-14
  70
    32
  0
VERTEX
  8
0
  5
21AD
 10
47.6411
 20
56.6814
 30
-1.26000e-14
  70
    32
  0
VERTEX
  8
0
  5
21AE
 10
47.6292
 20
56.6798
 30
-1.26000e-14
  70
    32
  0
VERTEX
  8
0
  5
21AF
 10
47.6172
 20
56.6782
 30
-1.26000e-14
  70
    32
  0
VERTEX
  8
0
  5
21B0
 10
47.6052
 20
56.6767
 30
-1.26000e-14
  70
    32
  0
VERTEX
  8
0
  5
21B1
 10
47.5932
 20
56.6752
 30
-1.26000e-14
  70
    32
  0
VERTEX
  8
0
  5
21B2
 10
47.5812
 20
56.6738
 30
-1.26000e-14
  70
    32
  0
VERTEX
  8
0
  5
21B3
 10
47.5691
 20
56.6724
 30
-1.26000e-14
  70
    32
  0
VERTEX
  8
0
  5
21B4
 10
47.5570
 20
56.6711
 30
-1.26000e-14
  70
    32
  0
VERTEX
  8
0
  5
21B5
 10
47.5449
 20
56.6698
 30
-1.26000e-14
  70
    32
  0
VERTEX
  8
0
  5
21B6
 10
47.5328
 20
56.6685
 30
-1.26000e-14
  70
    32
  0
VERTEX
  8
0
  5
21B7
 10
47.5206
 20
56.6673
 30
-1.26000e-14
  70
    32
  0
VERTEX
  8
0
  5
21B8
 10
47.5085
 20
56.6662
 30
-1.26000e-14
  70
    32
  0
VERTEX
  8
0
  5
21B9
 10
47.4963
 20
56.6650
 30
-1.26000e-14
  70
    32
  0
VERTEX
  8
0
  5
21BA
 10
47.4840
 20
56.6639
 30
-1.26000e-14
  70
    32
  0
VERTEX
  8
0
  5
21BB
 10
47.4718
 20
56.6629
 30
-1.26000e-14
  70
    32
  0
VERTEX
  8
0
  5
21BC
 10
47.4595
 20
56.6619
 30
-1.26000e-14
  70
    32
  0
VERTEX
  8
0
  5
21BD
 10
47.4472
 20
56.6609
 30
-1.26000e-14
  70
    32
  0
VERTEX
  8
0
  5
21BE
 10
47.4349
 20
56.6600
 30
-1.26000e-14
  70
    32
  0
VERTEX
  8
0
  5
21BF
 10
47.4225
 20
56.6591
 30
-1.26000e-14
  70
    32
  0
VERTEX
  8
0
  5
21C0
 10
47.4102
 20
56.6583
 30
-1.26000e-14
  70
    32
  0
VERTEX
  8
0
  5
21C1
 10
47.3978
 20
56.6575
 30
-1.26000e-14
  70
    32
  0
VERTEX
  8
0
  5
21C2
 10
47.3854
 20
56.6568
 30
-1.26000e-14
  70
    32
  0
VERTEX
  8
0
  5
21C3
 10
47.3729
 20
56.6560
 30
-1.26000e-14
  70
    32
  0
VERTEX
  8
0
  5
21C4
 10
47.3605
 20
56.6554
 30
-1.26000e-14
  70
    32
  0
VERTEX
  8
0
  5
21C5
 10
47.3480
 20
56.6547
 30
-1.26000e-14
  70
    32
  0
VERTEX
  8
0
  5
21C6
 10
47.3355
 20
56.6542
 30
-1.26000e-14
  70
    32
  0
VERTEX
  8
0
  5
21C7
 10
47.3229
 20
56.6536
 30
-1.26000e-14
  70
    32
  0
VERTEX
  8
0
  5
21C8
 10
47.3104
 20
56.6531
 30
-1.26000e-14
  70
    32
  0
VERTEX
  8
0
  5
21C9
 10
47.2978
 20
56.6527
 30
-1.26000e-14
  70
    32
  0
VERTEX
  8
0
  5
21CA
 10
47.2852
 20
56.6522
 30
-1.26000e-14
  70
    32
  0
VERTEX
  8
0
  5
21CB
 10
47.2726
 20
56.6519
 30
-1.26000e-14
  70
    32
  0
VERTEX
  8
0
  5
21CC
 10
47.2600
 20
56.6515
 30
-1.26000e-14
  70
    32
  0
VERTEX
  8
0
  5
21CD
 10
47.2473
 20
56.6512
 30
-1.26000e-14
  70
    32
  0
VERTEX
  8
0
  5
21CE
 10
47.2346
 20
56.6510
 30
-1.26000e-14
  70
    32
  0
VERTEX
  8
0
  5
21CF
 10
47.2220
 20
56.6508
 30
-1.26000e-14
  70
    32
  0
VERTEX
  8
0
  5
21D0
 10
47.2092
 20
56.6506
 30
-1.26000e-14
  70
    32
  0
VERTEX
  8
0
  5
21D1
 10
47.1965
 20
56.6505
 30
-1.26000e-14
  70
    32
  0
VERTEX
  8
0
  5
21D2
 10
47.1837
 20
56.6504
 30
-1.26000e-14
  70
    32
  0
VERTEX
  8
0
  5
21D3
 10
47.1710
 20
56.6504
 30
-1.26000e-14
  70
    32
  0
VERTEX
  8
0
  5
21D4
 10
47.1582
 20
56.6504
 30
-1.26000e-14
  70
    32
  0
VERTEX
  8
0
  5
21D5
 10
47.1453
 20
56.6504
 30
-1.26000e-14
  70
    32
  0
VERTEX
  8
0
  5
21D6
 10
47.1325
 20
56.6505
 30
-1.26000e-14
  70
    32
  0
VERTEX
  8
0
  5
21D7
 10
47.1196
 20
56.6506
 30
-1.26000e-14
  70
    32
  0
VERTEX
  8
0
  5
21D8
 10
47.1066
 20
56.6508
 30
-1.26000e-14
  70
    32
  0
VERTEX
  8
0
  5
21D9
 10
47.0937
 20
56.6510
 30
-1.26000e-14
  70
    32
  0
VERTEX
  8
0
  5
21DA
 10
47.0807
 20
56.6512
 30
-1.26000e-14
  70
    32
  0
VERTEX
  8
0
  5
21DB
 10
47.0677
 20
56.6515
 30
-1.26000e-14
  70
    32
  0
VERTEX
  8
0
  5
21DC
 10
47.0546
 20
56.6519
 30
-1.26000e-14
  70
    32
  0
VERTEX
  8
0
  5
21DD
 10
47.0415
 20
56.6522
 30
-1.26000e-14
  70
    32
  0
VERTEX
  8
0
  5
21DE
 10
47.0284
 20
56.6527
 30
-1.26000e-14
  70
    32
  0
VERTEX
  8
0
  5
21DF
 10
47.0152
 20
56.6531
 30
-1.26000e-14
  70
    32
  0
VERTEX
  8
0
  5
21E0
 10
47.0021
 20
56.6536
 30
-1.26000e-14
  70
    32
  0
VERTEX
  8
0
  5
21E1
 10
46.9889
 20
56.6542
 30
-1.26000e-14
  70
    32
  0
VERTEX
  8
0
  5
21E2
 10
46.9756
 20
56.6547
 30
-1.26000e-14
  70
    32
  0
VERTEX
  8
0
  5
21E3
 10
46.9624
 20
56.6554
 30
-1.26000e-14
  70
    32
  0
VERTEX
  8
0
  5
21E4
 10
46.9491
 20
56.6560
 30
-1.26000e-14
  70
    32
  0
VERTEX
  8
0
  5
21E5
 10
46.9357
 20
56.6568
 30
-1.26000e-14
  70
    32
  0
VERTEX
  8
0
  5
21E6
 10
46.9224
 20
56.6575
 30
-1.26000e-14
  70
    32
  0
VERTEX
  8
0
  5
21E7
 10
46.9090
 20
56.6583
 30
-1.26000e-14
  70
    32
  0
VERTEX
  8
0
  5
21E8
 10
46.8956
 20
56.6591
 30
-1.26000e-14
  70
    32
  0
VERTEX
  8
0
  5
21E9
 10
46.8821
 20
56.6600
 30
-1.26000e-14
  70
    32
  0
VERTEX
  8
0
  5
21EA
 10
46.8686
 20
56.6609
 30
-1.26000e-14
  70
    32
  0
VERTEX
  8
0
  5
21EB
 10
46.8551
 20
56.6619
 30
-1.26000e-14
  70
    32
  0
VERTEX
  8
0
  5
21EC
 10
46.8416
 20
56.6629
 30
-1.26000e-14
  70
    32
  0
VERTEX
  8
0
  5
21ED
 10
46.8280
 20
56.6639
 30
-1.26000e-14
  70
    32
  0
VERTEX
  8
0
  5
21EE
 10
46.8144
 20
56.6650
 30
-1.26000e-14
  70
    32
  0
VERTEX
  8
0
  5
21EF
 10
46.8008
 20
56.6662
 30
-1.26000e-14
  70
    32
  0
VERTEX
  8
0
  5
21F0
 10
46.7871
 20
56.6673
 30
-1.26000e-14
  70
    32
  0
VERTEX
  8
0
  5
21F1
 10
46.7735
 20
56.6685
 30
-1.26000e-14
  70
    32
  0
VERTEX
  8
0
  5
21F2
 10
46.7598
 20
56.6698
 30
-1.26000e-14
  70
    32
  0
VERTEX
  8
0
  5
21F3
 10
46.7460
 20
56.6711
 30
-1.26000e-14
  70
    32
  0
VERTEX
  8
0
  5
21F4
 10
46.7323
 20
56.6724
 30
-1.26000e-14
  70
    32
  0
VERTEX
  8
0
  5
21F5
 10
46.7185
 20
56.6738
 30
-1.26000e-14
  70
    32
  0
VERTEX
  8
0
  5
21F6
 10
46.7046
 20
56.6752
 30
-1.26000e-14
  70
    32
  0
VERTEX
  8
0
  5
21F7
 10
46.6908
 20
56.6767
 30
-1.26000e-14
  70
    32
  0
VERTEX
  8
0
  5
21F8
 10
46.6769
 20
56.6782
 30
-1.26000e-14
  70
    32
  0
VERTEX
  8
0
  5
21F9
 10
46.6630
 20
56.6798
 30
-1.26000e-14
  70
    32
  0
VERTEX
  8
0
  5
21FA
 10
46.6491
 20
56.6814
 30
-1.26000e-14
  70
    32
  0
VERTEX
  8
0
  5
21FB
 10
46.6351
 20
56.6830
 30
-1.26000e-14
  70
    32
  0
VERTEX
  8
0
  5
21FC
 10
46.6211
 20
56.6847
 30
-1.26000e-14
  70
    32
  0
VERTEX
  8
0
  5
21FD
 10
46.6071
 20
56.6864
 30
-1.26000e-14
  70
    32
  0
VERTEX
  8
0
  5
21FE
 10
46.5931
 20
56.6881
 30
-1.26000e-14
  70
    32
  0
VERTEX
  8
0
  5
21FF
 10
46.5790
 20
56.6899
 30
-1.26000e-14
  70
    32
  0
VERTEX
  8
0
  5
2200
 10
46.5649
 20
56.6918
 30
-1.26000e-14
  70
    32
  0
VERTEX
  8
0
  5
2201
 10
46.5508
 20
56.6937
 30
-1.26000e-14
  70
    32
  0
VERTEX
  8
0
  5
2202
 10
46.5367
 20
56.6956
 30
-1.26000e-14
  70
    32
  0
VERTEX
  8
0
  5
2203
 10
46.5225
 20
56.6976
 30
-1.26000e-14
  70
    32
  0
VERTEX
  8
0
  5
2204
 10
46.5083
 20
56.6996
 30
-1.26000e-14
  70
    32
  0
VERTEX
  8
0
  5
2205
 10
46.4941
 20
56.7016
 30
-1.26000e-14
  70
    32
  0
VERTEX
  8
0
  5
2206
 10
46.4799
 20
56.7037
 30
-1.26000e-14
  70
    32
  0
VERTEX
  8
0
  5
2207
 10
46.4656
 20
56.7058
 30
-1.26000e-14
  70
    32
  0
VERTEX
  8
0
  5
2208
 10
46.4513
 20
56.7080
 30
-1.26000e-14
  70
    32
  0
VERTEX
  8
0
  5
2209
 10
46.4370
 20
56.7102
 30
-1.26000e-14
  70
    32
  0
VERTEX
  8
0
  5
220A
 10
46.4226
 20
56.7125
 30
-1.26000e-14
  70
    32
  0
VERTEX
  8
0
  5
220B
 10
46.4083
 20
56.7148
 30
-1.26000e-14
  70
    32
  0
VERTEX
  8
0
  5
220C
 10
46.3939
 20
56.7171
 30
-1.26000e-14
  70
    32
  0
VERTEX
  8
0
  5
220D
 10
46.3794
 20
56.7195
 30
-1.26000e-14
  70
    32
  0
VERTEX
  8
0
  5
220E
 10
46.3650
 20
56.7220
 30
-1.26000e-14
  70
    32
  0
VERTEX
  8
0
  5
220F
 10
46.3505
 20
56.7244
 30
-1.26000e-14
  70
    32
  0
VERTEX
  8
0
  5
2210
 10
46.3360
 20
56.7269
 30
-1.26000e-14
  70
    32
  0
VERTEX
  8
0
  5
2211
 10
46.3215
 20
56.7295
 30
-1.26000e-14
  70
    32
  0
VERTEX
  8
0
  5
2212
 10
46.3070
 20
56.7321
 30
-1.26000e-14
  70
    32
  0
VERTEX
  8
0
  5
2213
 10
46.2924
 20
56.7347
 30
-1.26000e-14
  70
    32
  0
VERTEX
  8
0
  5
2214
 10
46.2778
 20
56.7374
 30
-1.26000e-14
  70
    32
  0
VERTEX
  8
0
  5
2215
 10
46.2632
 20
56.7401
 30
-1.26000e-14
  70
    32
  0
VERTEX
  8
0
  5
2216
 10
46.2486
 20
56.7429
 30
-1.26000e-14
  70
    32
  0
VERTEX
  8
0
  5
2217
 10
46.2339
 20
56.7457
 30
-1.26000e-14
  70
    32
  0
VERTEX
  8
0
  5
2218
 10
46.2192
 20
56.7486
 30
-1.26000e-14
  70
    32
  0
VERTEX
  8
0
  5
2219
 10
46.2045
 20
56.7515
 30
-1.26000e-14
  70
    32
  0
VERTEX
  8
0
  5
221A
 10
46.1898
 20
56.7544
 30
-1.26000e-14
  70
    32
  0
VERTEX
  8
0
  5
221B
 10
46.1751
 20
56.7574
 30
-1.26000e-14
  70
    32
  0
VERTEX
  8
0
  5
221C
 10
46.1603
 20
56.7604
 30
-1.26000e-14
  70
    32
  0
VERTEX
  8
0
  5
221D
 10
46.1455
 20
56.7634
 30
-1.26000e-14
  70
    32
  0
VERTEX
  8
0
  5
221E
 10
46.1307
 20
56.7665
 30
-1.26000e-14
  70
    32
  0
VERTEX
  8
0
  5
221F
 10
46.1158
 20
56.7697
 30
-1.26000e-14
  70
    32
  0
VERTEX
  8
0
  5
2220
 10
46.1010
 20
56.7729
 30
-1.26000e-14
  70
    32
  0
VERTEX
  8
0
  5
2221
 10
46.0861
 20
56.7761
 30
-1.26000e-14
  70
    32
  0
VERTEX
  8
0
  5
2222
 10
46.0712
 20
56.7794
 30
-1.26000e-14
  70
    32
  0
VERTEX
  8
0
  5
2223
 10
46.0563
 20
56.7827
 30
-1.26000e-14
  70
    32
  0
VERTEX
  8
0
  5
2224
 10
46.0413
 20
56.7860
 30
-1.26000e-14
  70
    32
  0
VERTEX
  8
0
  5
2225
 10
46.0264
 20
56.7894
 30
-1.26000e-14
  70
    32
  0
VERTEX
  8
0
  5
2226
 10
46.0114
 20
56.7929
 30
-1.26000e-14
  70
    32
  0
VERTEX
  8
0
  5
2227
 10
45.9964
 20
56.7963
 30
-1.26000e-14
  70
    32
  0
VERTEX
  8
0
  5
2228
 10
45.9813
 20
56.7999
 30
-1.26001e-14
  70
    32
  0
VERTEX
  8
0
  5
2229
 10
45.9663
 20
56.8034
 30
-1.26003e-14
  70
    32
  0
VERTEX
  8
0
  5
222A
 10
45.9512
 20
56.8070
 30
-1.26006e-14
  70
    32
  0
VERTEX
  8
0
  5
222B
 10
45.9361
 20
56.8107
 30
-1.26010e-14
  70
    32
  0
VERTEX
  8
0
  5
222C
 10
45.9210
 20
56.8143
 30
-1.26014e-14
  70
    32
  0
VERTEX
  8
0
  5
222D
 10
45.9059
 20
56.8181
 30
-1.26019e-14
  70
    32
  0
VERTEX
  8
0
  5
222E
 10
45.8907
 20
56.8218
 30
-1.26025e-14
  70
    32
  0
VERTEX
  8
0
  5
222F
 10
45.8755
 20
56.8257
 30
-1.26032e-14
  70
    32
  0
VERTEX
  8
0
  5
2230
 10
45.8604
 20
56.8295
 30
-1.26039e-14
  70
    32
  0
VERTEX
  8
0
  5
2231
 10
45.8451
 20
56.8334
 30
-1.26047e-14
  70
    32
  0
VERTEX
  8
0
  5
2232
 10
45.8299
 20
56.8373
 30
-1.26055e-14
  70
    32
  0
VERTEX
  8
0
  5
2233
 10
45.8147
 20
56.8413
 30
-1.26064e-14
  70
    32
  0
VERTEX
  8
0
  5
2234
 10
45.7994
 20
56.8453
 30
-1.26074e-14
  70
    32
  0
VERTEX
  8
0
  5
2235
 10
45.7841
 20
56.8494
 30
-1.26085e-14
  70
    32
  0
VERTEX
  8
0
  5
2236
 10
45.7688
 20
56.8535
 30
-1.26096e-14
  70
    32
  0
VERTEX
  8
0
  5
2237
 10
45.7535
 20
56.8576
 30
-1.26107e-14
  70
    32
  0
VERTEX
  8
0
  5
2238
 10
45.7382
 20
56.8618
 30
-1.26119e-14
  70
    32
  0
VERTEX
  8
0
  5
2239
 10
45.7228
 20
56.8660
 30
-1.26132e-14
  70
    32
  0
VERTEX
  8
0
  5
223A
 10
45.7074
 20
56.8703
 30
-1.26144e-14
  70
    32
  0
VERTEX
  8
0
  5
223B
 10
45.6920
 20
56.8746
 30
-1.26158e-14
  70
    32
  0
VERTEX
  8
0
  5
223C
 10
45.6766
 20
56.8789
 30
-1.26172e-14
  70
    32
  0
VERTEX
  8
0
  5
223D
 10
45.6612
 20
56.8833
 30
-1.26186e-14
  70
    32
  0
VERTEX
  8
0
  5
223E
 10
45.6457
 20
56.8877
 30
-1.26201e-14
  70
    32
  0
VERTEX
  8
0
  5
223F
 10
45.6303
 20
56.8921
 30
-1.26216e-14
  70
    32
  0
VERTEX
  8
0
  5
2240
 10
45.6148
 20
56.8966
 30
-1.26231e-14
  70
    32
  0
VERTEX
  8
0
  5
2241
 10
45.5993
 20
56.9012
 30
-1.26247e-14
  70
    32
  0
VERTEX
  8
0
  5
2242
 10
45.5838
 20
56.9057
 30
-1.26263e-14
  70
    32
  0
VERTEX
  8
0
  5
2243
 10
45.5683
 20
56.9104
 30
-1.26279e-14
  70
    32
  0
VERTEX
  8
0
  5
2244
 10
45.5527
 20
56.9150
 30
-1.26296e-14
  70
    32
  0
VERTEX
  8
0
  5
2245
 10
45.5372
 20
56.9197
 30
-1.26313e-14
  70
    32
  0
VERTEX
  8
0
  5
2246
 10
45.5216
 20
56.9244
 30
-1.26330e-14
  70
    32
  0
VERTEX
  8
0
  5
2247
 10
45.5060
 20
56.9292
 30
-1.26347e-14
  70
    32
  0
VERTEX
  8
0
  5
2248
 10
45.4904
 20
56.9340
 30
-1.26365e-14
  70
    32
  0
VERTEX
  8
0
  5
2249
 10
45.4748
 20
56.9389
 30
-1.26382e-14
  70
    32
  0
VERTEX
  8
0
  5
224A
 10
45.4591
 20
56.9437
 30
-1.26400e-14
  70
    32
  0
VERTEX
  8
0
  5
224B
 10
45.4435
 20
56.9487
 30
-1.26418e-14
  70
    32
  0
VERTEX
  8
0
  5
224C
 10
45.4278
 20
56.9536
 30
-1.26436e-14
  70
    32
  0
VERTEX
  8
0
  5
224D
 10
45.4122
 20
56.9586
 30
-1.26454e-14
  70
    32
  0
VERTEX
  8
0
  5
224E
 10
45.3965
 20
56.9637
 30
-1.26472e-14
  70
    32
  0
VERTEX
  8
0
  5
224F
 10
45.3808
 20
56.9687
 30
-1.26490e-14
  70
    32
  0
VERTEX
  8
0
  5
2250
 10
45.3650
 20
56.9739
 30
-1.26508e-14
  70
    32
  0
VERTEX
  8
0
  5
2251
 10
45.3493
 20
56.9790
 30
-1.26526e-14
  70
    32
  0
VERTEX
  8
0
  5
2252
 10
45.3336
 20
56.9842
 30
-1.26544e-14
  70
    32
  0
VERTEX
  8
0
  5
2253
 10
45.3178
 20
56.9894
 30
-1.26562e-14
  70
    32
  0
VERTEX
  8
0
  5
2254
 10
45.3020
 20
56.9947
 30
-1.26580e-14
  70
    32
  0
VERTEX
  8
0
  5
2255
 10
45.2862
 20
57.0000
 30
-1.26598e-14
  70
    32
  0
VERTEX
  8
0
  5
2256
 10
45.2704
 20
57.0053
 30
-1.26616e-14
  70
    32
  0
VERTEX
  8
0
  5
2257
 10
45.2546
 20
57.0107
 30
-1.26634e-14
  70
    32
  0
VERTEX
  8
0
  5
2258
 10
45.2388
 20
57.0161
 30
-1.26651e-14
  70
    32
  0
VERTEX
  8
0
  5
2259
 10
45.2230
 20
57.0216
 30
-1.26668e-14
  70
    32
  0
VERTEX
  8
0
  5
225A
 10
45.2071
 20
57.0271
 30
-1.26685e-14
  70
    32
  0
VERTEX
  8
0
  5
225B
 10
45.1912
 20
57.0326
 30
-1.26702e-14
  70
    32
  0
VERTEX
  8
0
  5
225C
 10
45.1754
 20
57.0381
 30
-1.26719e-14
  70
    32
  0
VERTEX
  8
0
  5
225D
 10
45.1595
 20
57.0437
 30
-1.26735e-14
  70
    32
  0
VERTEX
  8
0
  5
225E
 10
45.1436
 20
57.0494
 30
-1.26751e-14
  70
    32
  0
VERTEX
  8
0
  5
225F
 10
45.1277
 20
57.0551
 30
-1.26767e-14
  70
    32
  0
VERTEX
  8
0
  5
2260
 10
45.1118
 20
57.0608
 30
-1.26783e-14
  70
    32
  0
VERTEX
  8
0
  5
2261
 10
45.0958
 20
57.0665
 30
-1.26798e-14
  70
    32
  0
VERTEX
  8
0
  5
2262
 10
45.0799
 20
57.0723
 30
-1.26812e-14
  70
    32
  0
VERTEX
  8
0
  5
2263
 10
45.0639
 20
57.0781
 30
-1.26827e-14
  70
    32
  0
VERTEX
  8
0
  5
2264
 10
45.0480
 20
57.0840
 30
-1.26841e-14
  70
    32
  0
VERTEX
  8
0
  5
2265
 10
45.0320
 20
57.0899
 30
-1.26854e-14
  70
    32
  0
VERTEX
  8
0
  5
2266
 10
45.0160
 20
57.0958
 30
-1.26867e-14
  70
    32
  0
VERTEX
  8
0
  5
2267
 10
45.0000
 20
57.1017
 30
-1.26880e-14
  70
    32
  0
VERTEX
  8
0
  5
2268
 10
44.9840
 20
57.1077
 30
-1.26892e-14
  70
    32
  0
VERTEX
  8
0
  5
2269
 10
44.9680
 20
57.1138
 30
-1.26903e-14
  70
    32
  0
VERTEX
  8
0
  5
226A
 10
44.9520
 20
57.1198
 30
-1.26914e-14
  70
    32
  0
VERTEX
  8
0
  5
226B
 10
44.9360
 20
57.1259
 30
-1.26925e-14
  70
    32
  0
VERTEX
  8
0
  5
226C
 10
44.9199
 20
57.1321
 30
-1.26935e-14
  70
    32
  0
VERTEX
  8
0
  5
226D
 10
44.9039
 20
57.1383
 30
-1.26944e-14
  70
    32
  0
VERTEX
  8
0
  5
226E
 10
44.8878
 20
57.1445
 30
-1.26952e-14
  70
    32
  0
VERTEX
  8
0
  5
226F
 10
44.8718
 20
57.1507
 30
-1.26960e-14
  70
    32
  0
VERTEX
  8
0
  5
2270
 10
44.8557
 20
57.1570
 30
-1.26968e-14
  70
    32
  0
VERTEX
  8
0
  5
2271
 10
44.8396
 20
57.1633
 30
-1.26974e-14
  70
    32
  0
VERTEX
  8
0
  5
2272
 10
44.8235
 20
57.1696
 30
-1.26980e-14
  70
    32
  0
VERTEX
  8
0
  5
2273
 10
44.8074
 20
57.1760
 30
-1.26985e-14
  70
    32
  0
VERTEX
  8
0
  5
2274
 10
44.7913
 20
57.1824
 30
-1.26990e-14
  70
    32
  0
VERTEX
  8
0
  5
2275
 10
44.7752
 20
57.1889
 30
-1.26994e-14
  70
    32
  0
VERTEX
  8
0
  5
2276
 10
44.7591
 20
57.1954
 30
-1.26996e-14
  70
    32
  0
VERTEX
  8
0
  5
2277
 10
44.7430
 20
57.2019
 30
-1.26998e-14
  70
    32
  0
VERTEX
  8
0
  5
2278
 10
44.7268
 20
57.2085
 30
-1.27000e-14
  70
    32
  0
VERTEX
  8
0
  5
2279
 10
44.7107
 20
57.2150
 30
-1.27000e-14
  70
    32
  0
VERTEX
  8
0
  5
227A
 10
44.6946
 20
57.2217
 30
-1.27001e-14
  70
    32
  0
VERTEX
  8
0
  5
227B
 10
44.6784
 20
57.2283
 30
-1.27004e-14
  70
    32
  0
VERTEX
  8
0
  5
227C
 10
44.6622
 20
57.2350
 30
-1.27008e-14
  70
    32
  0
VERTEX
  8
0
  5
227D
 10
44.6461
 20
57.2417
 30
-1.27014e-14
  70
    32
  0
VERTEX
  8
0
  5
227E
 10
44.6299
 20
57.2485
 30
-1.27022e-14
  70
    32
  0
VERTEX
  8
0
  5
227F
 10
44.6137
 20
57.2553
 30
-1.27031e-14
  70
    32
  0
VERTEX
  8
0
  5
2280
 10
44.5975
 20
57.2621
 30
-1.27041e-14
  70
    32
  0
VERTEX
  8
0
  5
2281
 10
44.5813
 20
57.2690
 30
-1.27053e-14
  70
    32
  0
VERTEX
  8
0
  5
2282
 10
44.5651
 20
57.2758
 30
-1.27066e-14
  70
    32
  0
VERTEX
  8
0
  5
2283
 10
44.5489
 20
57.2828
 30
-1.27080e-14
  70
    32
  0
VERTEX
  8
0
  5
2284
 10
44.5327
 20
57.2897
 30
-1.27096e-14
  70
    32
  0
VERTEX
  8
0
  5
2285
 10
44.5165
 20
57.2967
 30
-1.27112e-14
  70
    32
  0
VERTEX
  8
0
  5
2286
 10
44.5003
 20
57.3037
 30
-1.27130e-14
  70
    32
  0
VERTEX
  8
0
  5
2287
 10
44.4841
 20
57.3108
 30
-1.27148e-14
  70
    32
  0
VERTEX
  8
0
  5
2288
 10
44.4678
 20
57.3179
 30
-1.27167e-14
  70
    32
  0
VERTEX
  8
0
  5
2289
 10
44.4516
 20
57.3250
 30
-1.27188e-14
  70
    32
  0
VERTEX
  8
0
  5
228A
 10
44.4354
 20
57.3321
 30
-1.27209e-14
  70
    32
  0
VERTEX
  8
0
  5
228B
 10
44.4191
 20
57.3393
 30
-1.27231e-14
  70
    32
  0
VERTEX
  8
0
  5
228C
 10
44.4029
 20
57.3465
 30
-1.27253e-14
  70
    32
  0
VERTEX
  8
0
  5
228D
 10
44.3866
 20
57.3537
 30
-1.27276e-14
  70
    32
  0
VERTEX
  8
0
  5
228E
 10
44.3704
 20
57.3610
 30
-1.27300e-14
  70
    32
  0
VERTEX
  8
0
  5
228F
 10
44.3541
 20
57.3683
 30
-1.27324e-14
  70
    32
  0
VERTEX
  8
0
  5
2290
 10
44.3378
 20
57.3756
 30
-1.27348e-14
  70
    32
  0
VERTEX
  8
0
  5
2291
 10
44.3216
 20
57.3830
 30
-1.27373e-14
  70
    32
  0
VERTEX
  8
0
  5
2292
 10
44.3053
 20
57.3904
 30
-1.27399e-14
  70
    32
  0
VERTEX
  8
0
  5
2293
 10
44.2890
 20
57.3978
 30
-1.27424e-14
  70
    32
  0
VERTEX
  8
0
  5
2294
 10
44.2727
 20
57.4053
 30
-1.27450e-14
  70
    32
  0
VERTEX
  8
0
  5
2295
 10
44.2565
 20
57.4127
 30
-1.27475e-14
  70
    32
  0
VERTEX
  8
0
  5
2296
 10
44.2402
 20
57.4203
 30
-1.27501e-14
  70
    32
  0
VERTEX
  8
0
  5
2297
 10
44.2239
 20
57.4278
 30
-1.27527e-14
  70
    32
  0
VERTEX
  8
0
  5
2298
 10
44.2076
 20
57.4354
 30
-1.27553e-14
  70
    32
  0
VERTEX
  8
0
  5
2299
 10
44.1913
 20
57.4430
 30
-1.27578e-14
  70
    32
  0
VERTEX
  8
0
  5
229A
 10
44.1750
 20
57.4506
 30
-1.27604e-14
  70
    32
  0
VERTEX
  8
0
  5
229B
 10
44.1587
 20
57.4582
 30
-1.27629e-14
  70
    32
  0
VERTEX
  8
0
  5
229C
 10
44.1424
 20
57.4659
 30
-1.27654e-14
  70
    32
  0
VERTEX
  8
0
  5
229D
 10
44.1262
 20
57.4737
 30
-1.27678e-14
  70
    32
  0
VERTEX
  8
0
  5
229E
 10
44.1099
 20
57.4814
 30
-1.27702e-14
  70
    32
  0
VERTEX
  8
0
  5
229F
 10
44.0936
 20
57.4892
 30
-1.27726e-14
  70
    32
  0
VERTEX
  8
0
  5
22A0
 10
44.0773
 20
57.4970
 30
-1.27749e-14
  70
    32
  0
VERTEX
  8
0
  5
22A1
 10
44.0610
 20
57.5048
 30
-1.27771e-14
  70
    32
  0
VERTEX
  8
0
  5
22A2
 10
44.0447
 20
57.5127
 30
-1.27793e-14
  70
    32
  0
VERTEX
  8
0
  5
22A3
 10
44.0284
 20
57.5205
 30
-1.27814e-14
  70
    32
  0
VERTEX
  8
0
  5
22A4
 10
44.0121
 20
57.5285
 30
-1.27834e-14
  70
    32
  0
VERTEX
  8
0
  5
22A5
 10
43.9958
 20
57.5364
 30
-1.27854e-14
  70
    32
  0
VERTEX
  8
0
  5
22A6
 10
43.9795
 20
57.5444
 30
-1.27872e-14
  70
    32
  0
VERTEX
  8
0
  5
22A7
 10
43.9632
 20
57.5524
 30
-1.27890e-14
  70
    32
  0
VERTEX
  8
0
  5
22A8
 10
43.9469
 20
57.5604
 30
-1.27906e-14
  70
    32
  0
VERTEX
  8
0
  5
22A9
 10
43.9306
 20
57.5684
 30
-1.27921e-14
  70
    32
  0
VERTEX
  8
0
  5
22AA
 10
43.9143
 20
57.5765
 30
-1.27935e-14
  70
    32
  0
VERTEX
  8
0
  5
22AB
 10
43.8980
 20
57.5846
 30
-1.27948e-14
  70
    32
  0
VERTEX
  8
0
  5
22AC
 10
43.8817
 20
57.5927
 30
-1.27960e-14
  70
    32
  0
VERTEX
  8
0
  5
22AD
 10
43.8654
 20
57.6009
 30
-1.27970e-14
  70
    32
  0
VERTEX
  8
0
  5
22AE
 10
43.8491
 20
57.6091
 30
-1.27979e-14
  70
    32
  0
VERTEX
  8
0
  5
22AF
 10
43.8329
 20
57.6173
 30
-1.27986e-14
  70
    32
  0
VERTEX
  8
0
  5
22B0
 10
43.8166
 20
57.6255
 30
-1.27992e-14
  70
    32
  0
VERTEX
  8
0
  5
22B1
 10
43.8003
 20
57.6338
 30
-1.27997e-14
  70
    32
  0
VERTEX
  8
0
  5
22B2
 10
43.7840
 20
57.6420
 30
-1.27999e-14
  70
    32
  0
VERTEX
  8
0
  5
22B3
 10
43.7677
 20
57.6503
 30
-1.28000e-14
  70
    32
  0
SEQEND
  8
0
  5
22B4
  0
POLYLINE
  8
0
  5
22B5
  66
     1
 10
0.000000
 20
0.000000
 30
0.000000
  70
     8
  0
VERTEX
  8
0
  5
22B6
 10
150.971
 20
57.6503
 30
-1.28000e-14
  70
    32
  0
VERTEX
  8
0
  5
22B7
 10
150.954
 20
57.6420
 30
-1.27999e-14
  70
    32
  0
VERTEX
  8
0
  5
22B8
 10
150.938
 20
57.6338
 30
-1.27997e-14
  70
    32
  0
VERTEX
  8
0
  5
22B9
 10
150.922
 20
57.6255
 30
-1.27992e-14
  70
    32
  0
VERTEX
  8
0
  5
22BA
 10
150.905
 20
57.6173
 30
-1.27986e-14
  70
    32
  0
VERTEX
  8
0
  5
22BB
 10
150.889
 20
57.6091
 30
-1.27979e-14
  70
    32
  0
VERTEX
  8
0
  5
22BC
 10
150.873
 20
57.6009
 30
-1.27970e-14
  70
    32
  0
VERTEX
  8
0
  5
22BD
 10
150.857
 20
57.5927
 30
-1.27960e-14
  70
    32
  0
VERTEX
  8
0
  5
22BE
 10
150.840
 20
57.5846
 30
-1.27948e-14
  70
    32
  0
VERTEX
  8
0
  5
22BF
 10
150.824
 20
57.5765
 30
-1.27935e-14
  70
    32
  0
VERTEX
  8
0
  5
22C0
 10
150.808
 20
57.5684
 30
-1.27921e-14
  70
    32
  0
VERTEX
  8
0
  5
22C1
 10
150.791
 20
57.5604
 30
-1.27906e-14
  70
    32
  0
VERTEX
  8
0
  5
22C2
 10
150.775
 20
57.5524
 30
-1.27890e-14
  70
    32
  0
VERTEX
  8
0
  5
22C3
 10
150.759
 20
57.5444
 30
-1.27872e-14
  70
    32
  0
VERTEX
  8
0
  5
22C4
 10
150.742
 20
57.5364
 30
-1.27854e-14
  70
    32
  0
VERTEX
  8
0
  5
22C5
 10
150.726
 20
57.5285
 30
-1.27834e-14
  70
    32
  0
VERTEX
  8
0
  5
22C6
 10
150.710
 20
57.5205
 30
-1.27814e-14
  70
    32
  0
VERTEX
  8
0
  5
22C7
 10
150.694
 20
57.5127
 30
-1.27793e-14
  70
    32
  0
VERTEX
  8
0
  5
22C8
 10
150.677
 20
57.5048
 30
-1.27771e-14
  70
    32
  0
VERTEX
  8
0
  5
22C9
 10
150.661
 20
57.4970
 30
-1.27749e-14
  70
    32
  0
VERTEX
  8
0
  5
22CA
 10
150.645
 20
57.4892
 30
-1.27726e-14
  70
    32
  0
VERTEX
  8
0
  5
22CB
 10
150.628
 20
57.4814
 30
-1.27702e-14
  70
    32
  0
VERTEX
  8
0
  5
22CC
 10
150.612
 20
57.4737
 30
-1.27678e-14
  70
    32
  0
VERTEX
  8
0
  5
22CD
 10
150.596
 20
57.4659
 30
-1.27654e-14
  70
    32
  0
VERTEX
  8
0
  5
22CE
 10
150.580
 20
57.4582
 30
-1.27629e-14
  70
    32
  0
VERTEX
  8
0
  5
22CF
 10
150.563
 20
57.4506
 30
-1.27604e-14
  70
    32
  0
VERTEX
  8
0
  5
22D0
 10
150.547
 20
57.4430
 30
-1.27578e-14
  70
    32
  0
VERTEX
  8
0
  5
22D1
 10
150.531
 20
57.4354
 30
-1.27553e-14
  70
    32
  0
VERTEX
  8
0
  5
22D2
 10
150.514
 20
57.4278
 30
-1.27527e-14
  70
    32
  0
VERTEX
  8
0
  5
22D3
 10
150.498
 20
57.4203
 30
-1.27501e-14
  70
    32
  0
VERTEX
  8
0
  5
22D4
 10
150.482
 20
57.4127
 30
-1.27475e-14
  70
    32
  0
VERTEX
  8
0
  5
22D5
 10
150.466
 20
57.4053
 30
-1.27450e-14
  70
    32
  0
VERTEX
  8
0
  5
22D6
 10
150.449
 20
57.3978
 30
-1.27424e-14
  70
    32
  0
VERTEX
  8
0
  5
22D7
 10
150.433
 20
57.3904
 30
-1.27399e-14
  70
    32
  0
VERTEX
  8
0
  5
22D8
 10
150.417
 20
57.3830
 30
-1.27373e-14
  70
    32
  0
VERTEX
  8
0
  5
22D9
 10
150.400
 20
57.3756
 30
-1.27348e-14
  70
    32
  0
VERTEX
  8
0
  5
22DA
 10
150.384
 20
57.3683
 30
-1.27324e-14
  70
    32
  0
VERTEX
  8
0
  5
22DB
 10
150.368
 20
57.3610
 30
-1.27300e-14
  70
    32
  0
VERTEX
  8
0
  5
22DC
 10
150.352
 20
57.3537
 30
-1.27276e-14
  70
    32
  0
VERTEX
  8
0
  5
22DD
 10
150.335
 20
57.3465
 30
-1.27253e-14
  70
    32
  0
VERTEX
  8
0
  5
22DE
 10
150.319
 20
57.3393
 30
-1.27231e-14
  70
    32
  0
VERTEX
  8
0
  5
22DF
 10
150.303
 20
57.3321
 30
-1.27209e-14
  70
    32
  0
VERTEX
  8
0
  5
22E0
 10
150.287
 20
57.3250
 30
-1.27188e-14
  70
    32
  0
VERTEX
  8
0
  5
22E1
 10
150.270
 20
57.3179
 30
-1.27167e-14
  70
    32
  0
VERTEX
  8
0
  5
22E2
 10
150.254
 20
57.3108
 30
-1.27148e-14
  70
    32
  0
VERTEX
  8
0
  5
22E3
 10
150.238
 20
57.3037
 30
-1.27130e-14
  70
    32
  0
VERTEX
  8
0
  5
22E4
 10
150.222
 20
57.2967
 30
-1.27112e-14
  70
    32
  0
VERTEX
  8
0
  5
22E5
 10
150.206
 20
57.2897
 30
-1.27096e-14
  70
    32
  0
VERTEX
  8
0
  5
22E6
 10
150.189
 20
57.2828
 30
-1.27080e-14
  70
    32
  0
VERTEX
  8
0
  5
22E7
 10
150.173
 20
57.2758
 30
-1.27066e-14
  70
    32
  0
VERTEX
  8
0
  5
22E8
 10
150.157
 20
57.2690
 30
-1.27053e-14
  70
    32
  0
VERTEX
  8
0
  5
22E9
 10
150.141
 20
57.2621
 30
-1.27041e-14
  70
    32
  0
VERTEX
  8
0
  5
22EA
 10
150.125
 20
57.2553
 30
-1.27031e-14
  70
    32
  0
VERTEX
  8
0
  5
22EB
 10
150.108
 20
57.2485
 30
-1.27022e-14
  70
    32
  0
VERTEX
  8
0
  5
22EC
 10
150.092
 20
57.2417
 30
-1.27014e-14
  70
    32
  0
VERTEX
  8
0
  5
22ED
 10
150.076
 20
57.2350
 30
-1.27008e-14
  70
    32
  0
VERTEX
  8
0
  5
22EE
 10
150.060
 20
57.2283
 30
-1.27004e-14
  70
    32
  0
VERTEX
  8
0
  5
22EF
 10
150.044
 20
57.2217
 30
-1.27001e-14
  70
    32
  0
VERTEX
  8
0
  5
22F0
 10
150.028
 20
57.2150
 30
-1.27000e-14
  70
    32
  0
VERTEX
  8
0
  5
22F1
 10
150.011
 20
57.2085
 30
-1.27000e-14
  70
    32
  0
VERTEX
  8
0
  5
22F2
 10
149.995
 20
57.2019
 30
-1.26998e-14
  70
    32
  0
VERTEX
  8
0
  5
22F3
 10
149.979
 20
57.1954
 30
-1.26996e-14
  70
    32
  0
VERTEX
  8
0
  5
22F4
 10
149.963
 20
57.1889
 30
-1.26994e-14
  70
    32
  0
VERTEX
  8
0
  5
22F5
 10
149.947
 20
57.1824
 30
-1.26990e-14
  70
    32
  0
VERTEX
  8
0
  5
22F6
 10
149.931
 20
57.1760
 30
-1.26985e-14
  70
    32
  0
VERTEX
  8
0
  5
22F7
 10
149.915
 20
57.1696
 30
-1.26980e-14
  70
    32
  0
VERTEX
  8
0
  5
22F8
 10
149.899
 20
57.1633
 30
-1.26974e-14
  70
    32
  0
VERTEX
  8
0
  5
22F9
 10
149.883
 20
57.1570
 30
-1.26968e-14
  70
    32
  0
VERTEX
  8
0
  5
22FA
 10
149.866
 20
57.1507
 30
-1.26960e-14
  70
    32
  0
VERTEX
  8
0
  5
22FB
 10
149.850
 20
57.1445
 30
-1.26952e-14
  70
    32
  0
VERTEX
  8
0
  5
22FC
 10
149.834
 20
57.1383
 30
-1.26944e-14
  70
    32
  0
VERTEX
  8
0
  5
22FD
 10
149.818
 20
57.1321
 30
-1.26935e-14
  70
    32
  0
VERTEX
  8
0
  5
22FE
 10
149.802
 20
57.1259
 30
-1.26925e-14
  70
    32
  0
VERTEX
  8
0
  5
22FF
 10
149.786
 20
57.1198
 30
-1.26914e-14
  70
    32
  0
VERTEX
  8
0
  5
2300
 10
149.770
 20
57.1138
 30
-1.26903e-14
  70
    32
  0
VERTEX
  8
0
  5
2301
 10
149.754
 20
57.1077
 30
-1.26892e-14
  70
    32
  0
VERTEX
  8
0
  5
2302
 10
149.738
 20
57.1017
 30
-1.26880e-14
  70
    32
  0
VERTEX
  8
0
  5
2303
 10
149.722
 20
57.0958
 30
-1.26867e-14
  70
    32
  0
VERTEX
  8
0
  5
2304
 10
149.706
 20
57.0899
 30
-1.26854e-14
  70
    32
  0
VERTEX
  8
0
  5
2305
 10
149.690
 20
57.0840
 30
-1.26841e-14
  70
    32
  0
VERTEX
  8
0
  5
2306
 10
149.674
 20
57.0781
 30
-1.26827e-14
  70
    32
  0
VERTEX
  8
0
  5
2307
 10
149.658
 20
57.0723
 30
-1.26812e-14
  70
    32
  0
VERTEX
  8
0
  5
2308
 10
149.642
 20
57.0665
 30
-1.26798e-14
  70
    32
  0
VERTEX
  8
0
  5
2309
 10
149.627
 20
57.0608
 30
-1.26783e-14
  70
    32
  0
VERTEX
  8
0
  5
230A
 10
149.611
 20
57.0551
 30
-1.26767e-14
  70
    32
  0
VERTEX
  8
0
  5
230B
 10
149.595
 20
57.0494
 30
-1.26751e-14
  70
    32
  0
VERTEX
  8
0
  5
230C
 10
149.579
 20
57.0437
 30
-1.26735e-14
  70
    32
  0
VERTEX
  8
0
  5
230D
 10
149.563
 20
57.0381
 30
-1.26719e-14
  70
    32
  0
VERTEX
  8
0
  5
230E
 10
149.547
 20
57.0326
 30
-1.26702e-14
  70
    32
  0
VERTEX
  8
0
  5
230F
 10
149.531
 20
57.0271
 30
-1.26685e-14
  70
    32
  0
VERTEX
  8
0
  5
2310
 10
149.515
 20
57.0216
 30
-1.26668e-14
  70
    32
  0
VERTEX
  8
0
  5
2311
 10
149.499
 20
57.0161
 30
-1.26651e-14
  70
    32
  0
VERTEX
  8
0
  5
2312
 10
149.484
 20
57.0107
 30
-1.26634e-14
  70
    32
  0
VERTEX
  8
0
  5
2313
 10
149.468
 20
57.0053
 30
-1.26616e-14
  70
    32
  0
VERTEX
  8
0
  5
2314
 10
149.452
 20
57.0000
 30
-1.26598e-14
  70
    32
  0
VERTEX
  8
0
  5
2315
 10
149.436
 20
56.9947
 30
-1.26580e-14
  70
    32
  0
VERTEX
  8
0
  5
2316
 10
149.420
 20
56.9894
 30
-1.26562e-14
  70
    32
  0
VERTEX
  8
0
  5
2317
 10
149.405
 20
56.9842
 30
-1.26544e-14
  70
    32
  0
VERTEX
  8
0
  5
2318
 10
149.389
 20
56.9790
 30
-1.26526e-14
  70
    32
  0
VERTEX
  8
0
  5
2319
 10
149.373
 20
56.9739
 30
-1.26508e-14
  70
    32
  0
VERTEX
  8
0
  5
231A
 10
149.358
 20
56.9687
 30
-1.26490e-14
  70
    32
  0
VERTEX
  8
0
  5
231B
 10
149.342
 20
56.9637
 30
-1.26472e-14
  70
    32
  0
VERTEX
  8
0
  5
231C
 10
149.326
 20
56.9586
 30
-1.26454e-14
  70
    32
  0
VERTEX
  8
0
  5
231D
 10
149.310
 20
56.9536
 30
-1.26436e-14
  70
    32
  0
VERTEX
  8
0
  5
231E
 10
149.295
 20
56.9487
 30
-1.26418e-14
  70
    32
  0
VERTEX
  8
0
  5
231F
 10
149.279
 20
56.9437
 30
-1.26400e-14
  70
    32
  0
VERTEX
  8
0
  5
2320
 10
149.263
 20
56.9389
 30
-1.26382e-14
  70
    32
  0
VERTEX
  8
0
  5
2321
 10
149.248
 20
56.9340
 30
-1.26365e-14
  70
    32
  0
VERTEX
  8
0
  5
2322
 10
149.232
 20
56.9292
 30
-1.26347e-14
  70
    32
  0
VERTEX
  8
0
  5
2323
 10
149.217
 20
56.9244
 30
-1.26330e-14
  70
    32
  0
VERTEX
  8
0
  5
2324
 10
149.201
 20
56.9197
 30
-1.26313e-14
  70
    32
  0
VERTEX
  8
0
  5
2325
 10
149.186
 20
56.9150
 30
-1.26296e-14
  70
    32
  0
VERTEX
  8
0
  5
2326
 10
149.170
 20
56.9104
 30
-1.26279e-14
  70
    32
  0
VERTEX
  8
0
  5
2327
 10
149.154
 20
56.9057
 30
-1.26263e-14
  70
    32
  0
VERTEX
  8
0
  5
2328
 10
149.139
 20
56.9012
 30
-1.26247e-14
  70
    32
  0
VERTEX
  8
0
  5
2329
 10
149.123
 20
56.8966
 30
-1.26231e-14
  70
    32
  0
VERTEX
  8
0
  5
232A
 10
149.108
 20
56.8921
 30
-1.26216e-14
  70
    32
  0
VERTEX
  8
0
  5
232B
 10
149.093
 20
56.8877
 30
-1.26201e-14
  70
    32
  0
VERTEX
  8
0
  5
232C
 10
149.077
 20
56.8833
 30
-1.26186e-14
  70
    32
  0
VERTEX
  8
0
  5
232D
 10
149.062
 20
56.8789
 30
-1.26172e-14
  70
    32
  0
VERTEX
  8
0
  5
232E
 10
149.046
 20
56.8746
 30
-1.26158e-14
  70
    32
  0
VERTEX
  8
0
  5
232F
 10
149.031
 20
56.8703
 30
-1.26144e-14
  70
    32
  0
VERTEX
  8
0
  5
2330
 10
149.015
 20
56.8660
 30
-1.26132e-14
  70
    32
  0
VERTEX
  8
0
  5
2331
 10
149.000
 20
56.8618
 30
-1.26119e-14
  70
    32
  0
VERTEX
  8
0
  5
2332
 10
148.985
 20
56.8576
 30
-1.26107e-14
  70
    32
  0
VERTEX
  8
0
  5
2333
 10
148.969
 20
56.8535
 30
-1.26096e-14
  70
    32
  0
VERTEX
  8
0
  5
2334
 10
148.954
 20
56.8494
 30
-1.26085e-14
  70
    32
  0
VERTEX
  8
0
  5
2335
 10
148.939
 20
56.8453
 30
-1.26074e-14
  70
    32
  0
VERTEX
  8
0
  5
2336
 10
148.924
 20
56.8413
 30
-1.26064e-14
  70
    32
  0
VERTEX
  8
0
  5
2337
 10
148.908
 20
56.8373
 30
-1.26055e-14
  70
    32
  0
VERTEX
  8
0
  5
2338
 10
148.893
 20
56.8334
 30
-1.26047e-14
  70
    32
  0
VERTEX
  8
0
  5
2339
 10
148.878
 20
56.8295
 30
-1.26039e-14
  70
    32
  0
VERTEX
  8
0
  5
233A
 10
148.863
 20
56.8257
 30
-1.26032e-14
  70
    32
  0
VERTEX
  8
0
  5
233B
 10
148.848
 20
56.8218
 30
-1.26025e-14
  70
    32
  0
VERTEX
  8
0
  5
233C
 10
148.832
 20
56.8181
 30
-1.26019e-14
  70
    32
  0
VERTEX
  8
0
  5
233D
 10
148.817
 20
56.8143
 30
-1.26014e-14
  70
    32
  0
VERTEX
  8
0
  5
233E
 10
148.802
 20
56.8107
 30
-1.26010e-14
  70
    32
  0
VERTEX
  8
0
  5
233F
 10
148.787
 20
56.8070
 30
-1.26006e-14
  70
    32
  0
VERTEX
  8
0
  5
2340
 10
148.772
 20
56.8034
 30
-1.26003e-14
  70
    32
  0
VERTEX
  8
0
  5
2341
 10
148.757
 20
56.7999
 30
-1.26001e-14
  70
    32
  0
VERTEX
  8
0
  5
2342
 10
148.742
 20
56.7963
 30
-1.26000e-14
  70
    32
  0
VERTEX
  8
0
  5
2343
 10
148.727
 20
56.7929
 30
-1.26000e-14
  70
    32
  0
VERTEX
  8
0
  5
2344
 10
148.712
 20
56.7894
 30
-1.26000e-14
  70
    32
  0
VERTEX
  8
0
  5
2345
 10
148.697
 20
56.7860
 30
-1.26000e-14
  70
    32
  0
VERTEX
  8
0
  5
2346
 10
148.682
 20
56.7827
 30
-1.26000e-14
  70
    32
  0
VERTEX
  8
0
  5
2347
 10
148.667
 20
56.7794
 30
-1.26000e-14
  70
    32
  0
VERTEX
  8
0
  5
2348
 10
148.652
 20
56.7761
 30
-1.26000e-14
  70
    32
  0
VERTEX
  8
0
  5
2349
 10
148.637
 20
56.7729
 30
-1.26000e-14
  70
    32
  0
VERTEX
  8
0
  5
234A
 10
148.622
 20
56.7697
 30
-1.26000e-14
  70
    32
  0
VERTEX
  8
0
  5
234B
 10
148.608
 20
56.7665
 30
-1.26000e-14
  70
    32
  0
VERTEX
  8
0
  5
234C
 10
148.593
 20
56.7634
 30
-1.26000e-14
  70
    32
  0
VERTEX
  8
0
  5
234D
 10
148.578
 20
56.7604
 30
-1.26000e-14
  70
    32
  0
VERTEX
  8
0
  5
234E
 10
148.563
 20
56.7574
 30
-1.26000e-14
  70
    32
  0
VERTEX
  8
0
  5
234F
 10
148.548
 20
56.7544
 30
-1.26000e-14
  70
    32
  0
VERTEX
  8
0
  5
2350
 10
148.534
 20
56.7515
 30
-1.26000e-14
  70
    32
  0
VERTEX
  8
0
  5
2351
 10
148.519
 20
56.7486
 30
-1.26000e-14
  70
    32
  0
VERTEX
  8
0
  5
2352
 10
148.504
 20
56.7457
 30
-1.26000e-14
  70
    32
  0
VERTEX
  8
0
  5
2353
 10
148.490
 20
56.7429
 30
-1.26000e-14
  70
    32
  0
VERTEX
  8
0
  5
2354
 10
148.475
 20
56.7401
 30
-1.26000e-14
  70
    32
  0
VERTEX
  8
0
  5
2355
 10
148.460
 20
56.7374
 30
-1.26000e-14
  70
    32
  0
VERTEX
  8
0
  5
2356
 10
148.446
 20
56.7347
 30
-1.26000e-14
  70
    32
  0
VERTEX
  8
0
  5
2357
 10
148.431
 20
56.7321
 30
-1.26000e-14
  70
    32
  0
VERTEX
  8
0
  5
2358
 10
148.417
 20
56.7295
 30
-1.26000e-14
  70
    32
  0
VERTEX
  8
0
  5
2359
 10
148.402
 20
56.7269
 30
-1.26000e-14
  70
    32
  0
VERTEX
  8
0
  5
235A
 10
148.388
 20
56.7244
 30
-1.26000e-14
  70
    32
  0
VERTEX
  8
0
  5
235B
 10
148.373
 20
56.7220
 30
-1.26000e-14
  70
    32
  0
VERTEX
  8
0
  5
235C
 10
148.359
 20
56.7195
 30
-1.26000e-14
  70
    32
  0
VERTEX
  8
0
  5
235D
 10
148.344
 20
56.7171
 30
-1.26000e-14
  70
    32
  0
VERTEX
  8
0
  5
235E
 10
148.330
 20
56.7148
 30
-1.26000e-14
  70
    32
  0
VERTEX
  8
0
  5
235F
 10
148.316
 20
56.7125
 30
-1.26000e-14
  70
    32
  0
VERTEX
  8
0
  5
2360
 10
148.301
 20
56.7102
 30
-1.26000e-14
  70
    32
  0
VERTEX
  8
0
  5
2361
 10
148.287
 20
56.7080
 30
-1.26000e-14
  70
    32
  0
VERTEX
  8
0
  5
2362
 10
148.273
 20
56.7058
 30
-1.26000e-14
  70
    32
  0
VERTEX
  8
0
  5
2363
 10
148.258
 20
56.7037
 30
-1.26000e-14
  70
    32
  0
VERTEX
  8
0
  5
2364
 10
148.244
 20
56.7016
 30
-1.26000e-14
  70
    32
  0
VERTEX
  8
0
  5
2365
 10
148.230
 20
56.6996
 30
-1.26000e-14
  70
    32
  0
VERTEX
  8
0
  5
2366
 10
148.216
 20
56.6976
 30
-1.26000e-14
  70
    32
  0
VERTEX
  8
0
  5
2367
 10
148.202
 20
56.6956
 30
-1.26000e-14
  70
    32
  0
VERTEX
  8
0
  5
2368
 10
148.187
 20
56.6937
 30
-1.26000e-14
  70
    32
  0
VERTEX
  8
0
  5
2369
 10
148.173
 20
56.6918
 30
-1.26000e-14
  70
    32
  0
VERTEX
  8
0
  5
236A
 10
148.159
 20
56.6899
 30
-1.26000e-14
  70
    32
  0
VERTEX
  8
0
  5
236B
 10
148.145
 20
56.6881
 30
-1.26000e-14
  70
    32
  0
VERTEX
  8
0
  5
236C
 10
148.131
 20
56.6864
 30
-1.26000e-14
  70
    32
  0
VERTEX
  8
0
  5
236D
 10
148.117
 20
56.6847
 30
-1.26000e-14
  70
    32
  0
VERTEX
  8
0
  5
236E
 10
148.103
 20
56.6830
 30
-1.26000e-14
  70
    32
  0
VERTEX
  8
0
  5
236F
 10
148.089
 20
56.6814
 30
-1.26000e-14
  70
    32
  0
VERTEX
  8
0
  5
2370
 10
148.075
 20
56.6798
 30
-1.26000e-14
  70
    32
  0
VERTEX
  8
0
  5
2371
 10
148.061
 20
56.6782
 30
-1.26000e-14
  70
    32
  0
VERTEX
  8
0
  5
2372
 10
148.047
 20
56.6767
 30
-1.26000e-14
  70
    32
  0
VERTEX
  8
0
  5
2373
 10
148.034
 20
56.6752
 30
-1.26000e-14
  70
    32
  0
VERTEX
  8
0
  5
2374
 10
148.020
 20
56.6738
 30
-1.26000e-14
  70
    32
  0
VERTEX
  8
0
  5
2375
 10
148.006
 20
56.6724
 30
-1.26000e-14
  70
    32
  0
VERTEX
  8
0
  5
2376
 10
147.992
 20
56.6711
 30
-1.26000e-14
  70
    32
  0
VERTEX
  8
0
  5
2377
 10
147.979
 20
56.6698
 30
-1.26000e-14
  70
    32
  0
VERTEX
  8
0
  5
2378
 10
147.965
 20
56.6685
 30
-1.26000e-14
  70
    32
  0
VERTEX
  8
0
  5
2379
 10
147.951
 20
56.6673
 30
-1.26000e-14
  70
    32
  0
VERTEX
  8
0
  5
237A
 10
147.937
 20
56.6662
 30
-1.26000e-14
  70
    32
  0
VERTEX
  8
0
  5
237B
 10
147.924
 20
56.6650
 30
-1.26000e-14
  70
    32
  0
VERTEX
  8
0
  5
237C
 10
147.910
 20
56.6639
 30
-1.26000e-14
  70
    32
  0
VERTEX
  8
0
  5
237D
 10
147.897
 20
56.6629
 30
-1.26000e-14
  70
    32
  0
VERTEX
  8
0
  5
237E
 10
147.883
 20
56.6619
 30
-1.26000e-14
  70
    32
  0
VERTEX
  8
0
  5
237F
 10
147.870
 20
56.6609
 30
-1.26000e-14
  70
    32
  0
VERTEX
  8
0
  5
2380
 10
147.856
 20
56.6600
 30
-1.26000e-14
  70
    32
  0
VERTEX
  8
0
  5
2381
 10
147.843
 20
56.6591
 30
-1.26000e-14
  70
    32
  0
VERTEX
  8
0
  5
2382
 10
147.829
 20
56.6583
 30
-1.26000e-14
  70
    32
  0
VERTEX
  8
0
  5
2383
 10
147.816
 20
56.6575
 30
-1.26000e-14
  70
    32
  0
VERTEX
  8
0
  5
2384
 10
147.803
 20
56.6568
 30
-1.26000e-14
  70
    32
  0
VERTEX
  8
0
  5
2385
 10
147.789
 20
56.6560
 30
-1.26000e-14
  70
    32
  0
VERTEX
  8
0
  5
2386
 10
147.776
 20
56.6554
 30
-1.26000e-14
  70
    32
  0
VERTEX
  8
0
  5
2387
 10
147.763
 20
56.6547
 30
-1.26000e-14
  70
    32
  0
VERTEX
  8
0
  5
2388
 10
147.749
 20
56.6542
 30
-1.26000e-14
  70
    32
  0
VERTEX
  8
0
  5
2389
 10
147.736
 20
56.6536
 30
-1.26000e-14
  70
    32
  0
VERTEX
  8
0
  5
238A
 10
147.723
 20
56.6531
 30
-1.26000e-14
  70
    32
  0
VERTEX
  8
0
  5
238B
 10
147.710
 20
56.6527
 30
-1.26000e-14
  70
    32
  0
VERTEX
  8
0
  5
238C
 10
147.697
 20
56.6522
 30
-1.26000e-14
  70
    32
  0
VERTEX
  8
0
  5
238D
 10
147.684
 20
56.6519
 30
-1.26000e-14
  70
    32
  0
VERTEX
  8
0
  5
238E
 10
147.671
 20
56.6515
 30
-1.26000e-14
  70
    32
  0
VERTEX
  8
0
  5
238F
 10
147.658
 20
56.6512
 30
-1.26000e-14
  70
    32
  0
VERTEX
  8
0
  5
2390
 10
147.645
 20
56.6510
 30
-1.26000e-14
  70
    32
  0
VERTEX
  8
0
  5
2391
 10
147.632
 20
56.6508
 30
-1.26000e-14
  70
    32
  0
VERTEX
  8
0
  5
2392
 10
147.619
 20
56.6506
 30
-1.26000e-14
  70
    32
  0
VERTEX
  8
0
  5
2393
 10
147.606
 20
56.6505
 30
-1.26000e-14
  70
    32
  0
VERTEX
  8
0
  5
2394
 10
147.593
 20
56.6504
 30
-1.26000e-14
  70
    32
  0
VERTEX
  8
0
  5
2395
 10
147.580
 20
56.6504
 30
-1.26000e-14
  70
    32
  0
VERTEX
  8
0
  5
2396
 10
147.567
 20
56.6504
 30
-1.26000e-14
  70
    32
  0
VERTEX
  8
0
  5
2397
 10
147.555
 20
56.6504
 30
-1.26000e-14
  70
    32
  0
VERTEX
  8
0
  5
2398
 10
147.542
 20
56.6505
 30
-1.26000e-14
  70
    32
  0
VERTEX
  8
0
  5
2399
 10
147.529
 20
56.6506
 30
-1.26000e-14
  70
    32
  0
VERTEX
  8
0
  5
239A
 10
147.516
 20
56.6508
 30
-1.26000e-14
  70
    32
  0
VERTEX
  8
0
  5
239B
 10
147.504
 20
56.6510
 30
-1.26000e-14
  70
    32
  0
VERTEX
  8
0
  5
239C
 10
147.491
 20
56.6512
 30
-1.26000e-14
  70
    32
  0
VERTEX
  8
0
  5
239D
 10
147.478
 20
56.6515
 30
-1.26000e-14
  70
    32
  0
VERTEX
  8
0
  5
239E
 10
147.466
 20
56.6519
 30
-1.26000e-14
  70
    32
  0
VERTEX
  8
0
  5
239F
 10
147.453
 20
56.6522
 30
-1.26000e-14
  70
    32
  0
VERTEX
  8
0
  5
23A0
 10
147.440
 20
56.6527
 30
-1.26000e-14
  70
    32
  0
VERTEX
  8
0
  5
23A1
 10
147.428
 20
56.6531
 30
-1.26000e-14
  70
    32
  0
VERTEX
  8
0
  5
23A2
 10
147.415
 20
56.6536
 30
-1.26000e-14
  70
    32
  0
VERTEX
  8
0
  5
23A3
 10
147.403
 20
56.6542
 30
-1.26000e-14
  70
    32
  0
VERTEX
  8
0
  5
23A4
 10
147.390
 20
56.6547
 30
-1.26000e-14
  70
    32
  0
VERTEX
  8
0
  5
23A5
 10
147.378
 20
56.6554
 30
-1.26000e-14
  70
    32
  0
VERTEX
  8
0
  5
23A6
 10
147.365
 20
56.6560
 30
-1.26000e-14
  70
    32
  0
VERTEX
  8
0
  5
23A7
 10
147.353
 20
56.6568
 30
-1.26000e-14
  70
    32
  0
VERTEX
  8
0
  5
23A8
 10
147.341
 20
56.6575
 30
-1.26000e-14
  70
    32
  0
VERTEX
  8
0
  5
23A9
 10
147.328
 20
56.6583
 30
-1.26000e-14
  70
    32
  0
VERTEX
  8
0
  5
23AA
 10
147.316
 20
56.6591
 30
-1.26000e-14
  70
    32
  0
VERTEX
  8
0
  5
23AB
 10
147.303
 20
56.6600
 30
-1.26000e-14
  70
    32
  0
VERTEX
  8
0
  5
23AC
 10
147.291
 20
56.6609
 30
-1.26000e-14
  70
    32
  0
VERTEX
  8
0
  5
23AD
 10
147.279
 20
56.6619
 30
-1.26000e-14
  70
    32
  0
VERTEX
  8
0
  5
23AE
 10
147.266
 20
56.6629
 30
-1.26000e-14
  70
    32
  0
VERTEX
  8
0
  5
23AF
 10
147.254
 20
56.6639
 30
-1.26000e-14
  70
    32
  0
VERTEX
  8
0
  5
23B0
 10
147.242
 20
56.6650
 30
-1.26000e-14
  70
    32
  0
VERTEX
  8
0
  5
23B1
 10
147.230
 20
56.6662
 30
-1.26000e-14
  70
    32
  0
VERTEX
  8
0
  5
23B2
 10
147.218
 20
56.6673
 30
-1.26000e-14
  70
    32
  0
VERTEX
  8
0
  5
23B3
 10
147.205
 20
56.6685
 30
-1.26000e-14
  70
    32
  0
VERTEX
  8
0
  5
23B4
 10
147.193
 20
56.6698
 30
-1.26000e-14
  70
    32
  0
VERTEX
  8
0
  5
23B5
 10
147.181
 20
56.6711
 30
-1.26000e-14
  70
    32
  0
VERTEX
  8
0
  5
23B6
 10
147.169
 20
56.6724
 30
-1.26000e-14
  70
    32
  0
VERTEX
  8
0
  5
23B7
 10
147.157
 20
56.6738
 30
-1.26000e-14
  70
    32
  0
VERTEX
  8
0
  5
23B8
 10
147.145
 20
56.6752
 30
-1.26000e-14
  70
    32
  0
VERTEX
  8
0
  5
23B9
 10
147.133
 20
56.6767
 30
-1.26000e-14
  70
    32
  0
VERTEX
  8
0
  5
23BA
 10
147.121
 20
56.6782
 30
-1.26000e-14
  70
    32
  0
VERTEX
  8
0
  5
23BB
 10
147.109
 20
56.6798
 30
-1.26000e-14
  70
    32
  0
VERTEX
  8
0
  5
23BC
 10
147.097
 20
56.6814
 30
-1.26000e-14
  70
    32
  0
VERTEX
  8
0
  5
23BD
 10
147.085
 20
56.6830
 30
-1.26000e-14
  70
    32
  0
VERTEX
  8
0
  5
23BE
 10
147.073
 20
56.6847
 30
-1.26000e-14
  70
    32
  0
VERTEX
  8
0
  5
23BF
 10
147.062
 20
56.6864
 30
-1.26000e-14
  70
    32
  0
VERTEX
  8
0
  5
23C0
 10
147.050
 20
56.6881
 30
-1.26000e-14
  70
    32
  0
VERTEX
  8
0
  5
23C1
 10
147.038
 20
56.6899
 30
-1.26000e-14
  70
    32
  0
VERTEX
  8
0
  5
23C2
 10
147.026
 20
56.6918
 30
-1.26000e-14
  70
    32
  0
VERTEX
  8
0
  5
23C3
 10
147.014
 20
56.6937
 30
-1.26000e-14
  70
    32
  0
VERTEX
  8
0
  5
23C4
 10
147.003
 20
56.6956
 30
-1.26000e-14
  70
    32
  0
VERTEX
  8
0
  5
23C5
 10
146.991
 20
56.6976
 30
-1.26000e-14
  70
    32
  0
VERTEX
  8
0
  5
23C6
 10
146.979
 20
56.6996
 30
-1.26000e-14
  70
    32
  0
VERTEX
  8
0
  5
23C7
 10
146.968
 20
56.7016
 30
-1.26000e-14
  70
    32
  0
VERTEX
  8
0
  5
23C8
 10
146.956
 20
56.7037
 30
-1.26000e-14
  70
    32
  0
VERTEX
  8
0
  5
23C9
 10
146.944
 20
56.7058
 30
-1.26000e-14
  70
    32
  0
VERTEX
  8
0
  5
23CA
 10
146.933
 20
56.7080
 30
-1.26000e-14
  70
    32
  0
VERTEX
  8
0
  5
23CB
 10
146.921
 20
56.7102
 30
-1.26000e-14
  70
    32
  0
VERTEX
  8
0
  5
23CC
 10
146.910
 20
56.7125
 30
-1.26000e-14
  70
    32
  0
VERTEX
  8
0
  5
23CD
 10
146.898
 20
56.7148
 30
-1.26000e-14
  70
    32
  0
VERTEX
  8
0
  5
23CE
 10
146.887
 20
56.7171
 30
-1.26000e-14
  70
    32
  0
VERTEX
  8
0
  5
23CF
 10
146.875
 20
56.7195
 30
-1.26000e-14
  70
    32
  0
VERTEX
  8
0
  5
23D0
 10
146.864
 20
56.7220
 30
-1.26000e-14
  70
    32
  0
VERTEX
  8
0
  5
23D1
 10
146.853
 20
56.7244
 30
-1.26000e-14
  70
    32
  0
VERTEX
  8
0
  5
23D2
 10
146.841
 20
56.7269
 30
-1.26000e-14
  70
    32
  0
VERTEX
  8
0
  5
23D3
 10
146.830
 20
56.7295
 30
-1.26000e-14
  70
    32
  0
VERTEX
  8
0
  5
23D4
 10
146.819
 20
56.7321
 30
-1.26000e-14
  70
    32
  0
VERTEX
  8
0
  5
23D5
 10
146.808
 20
56.7347
 30
-1.26000e-14
  70
    32
  0
VERTEX
  8
0
  5
23D6
 10
146.796
 20
56.7374
 30
-1.26000e-14
  70
    32
  0
VERTEX
  8
0
  5
23D7
 10
146.785
 20
56.7401
 30
-1.26000e-14
  70
    32
  0
VERTEX
  8
0
  5
23D8
 10
146.774
 20
56.7429
 30
-1.26000e-14
  70
    32
  0
VERTEX
  8
0
  5
23D9
 10
146.763
 20
56.7457
 30
-1.26000e-14
  70
    32
  0
VERTEX
  8
0
  5
23DA
 10
146.752
 20
56.7486
 30
-1.26000e-14
  70
    32
  0
VERTEX
  8
0
  5
23DB
 10
146.741
 20
56.7515
 30
-1.26000e-14
  70
    32
  0
VERTEX
  8
0
  5
23DC
 10
146.730
 20
56.7544
 30
-1.26000e-14
  70
    32
  0
VERTEX
  8
0
  5
23DD
 10
146.719
 20
56.7574
 30
-1.26000e-14
  70
    32
  0
VERTEX
  8
0
  5
23DE
 10
146.708
 20
56.7604
 30
-1.26000e-14
  70
    32
  0
VERTEX
  8
0
  5
23DF
 10
146.697
 20
56.7634
 30
-1.26000e-14
  70
    32
  0
VERTEX
  8
0
  5
23E0
 10
146.686
 20
56.7665
 30
-1.26000e-14
  70
    32
  0
VERTEX
  8
0
  5
23E1
 10
146.675
 20
56.7697
 30
-1.26000e-14
  70
    32
  0
VERTEX
  8
0
  5
23E2
 10
146.664
 20
56.7729
 30
-1.26000e-14
  70
    32
  0
VERTEX
  8
0
  5
23E3
 10
146.653
 20
56.7761
 30
-1.26000e-14
  70
    32
  0
VERTEX
  8
0
  5
23E4
 10
146.642
 20
56.7794
 30
-1.26000e-14
  70
    32
  0
VERTEX
  8
0
  5
23E5
 10
146.632
 20
56.7827
 30
-1.26000e-14
  70
    32
  0
VERTEX
  8
0
  5
23E6
 10
146.621
 20
56.7860
 30
-1.26000e-14
  70
    32
  0
VERTEX
  8
0
  5
23E7
 10
146.610
 20
56.7894
 30
-1.26000e-14
  70
    32
  0
VERTEX
  8
0
  5
23E8
 10
146.600
 20
56.7929
 30
-1.26000e-14
  70
    32
  0
VERTEX
  8
0
  5
23E9
 10
146.589
 20
56.7963
 30
-1.26000e-14
  70
    32
  0
VERTEX
  8
0
  5
23EA
 10
146.578
 20
56.7999
 30
-1.26001e-14
  70
    32
  0
VERTEX
  8
0
  5
23EB
 10
146.568
 20
56.8034
 30
-1.26003e-14
  70
    32
  0
VERTEX
  8
0
  5
23EC
 10
146.557
 20
56.8070
 30
-1.26006e-14
  70
    32
  0
VERTEX
  8
0
  5
23ED
 10
146.547
 20
56.8107
 30
-1.26010e-14
  70
    32
  0
VERTEX
  8
0
  5
23EE
 10
146.536
 20
56.8143
 30
-1.26014e-14
  70
    32
  0
VERTEX
  8
0
  5
23EF
 10
146.526
 20
56.8181
 30
-1.26019e-14
  70
    32
  0
VERTEX
  8
0
  5
23F0
 10
146.515
 20
56.8218
 30
-1.26025e-14
  70
    32
  0
VERTEX
  8
0
  5
23F1
 10
146.505
 20
56.8257
 30
-1.26032e-14
  70
    32
  0
VERTEX
  8
0
  5
23F2
 10
146.495
 20
56.8295
 30
-1.26039e-14
  70
    32
  0
VERTEX
  8
0
  5
23F3
 10
146.484
 20
56.8334
 30
-1.26047e-14
  70
    32
  0
VERTEX
  8
0
  5
23F4
 10
146.474
 20
56.8373
 30
-1.26055e-14
  70
    32
  0
VERTEX
  8
0
  5
23F5
 10
146.464
 20
56.8413
 30
-1.26064e-14
  70
    32
  0
VERTEX
  8
0
  5
23F6
 10
146.454
 20
56.8453
 30
-1.26074e-14
  70
    32
  0
VERTEX
  8
0
  5
23F7
 10
146.443
 20
56.8494
 30
-1.26085e-14
  70
    32
  0
VERTEX
  8
0
  5
23F8
 10
146.433
 20
56.8535
 30
-1.26096e-14
  70
    32
  0
VERTEX
  8
0
  5
23F9
 10
146.423
 20
56.8576
 30
-1.26107e-14
  70
    32
  0
VERTEX
  8
0
  5
23FA
 10
146.413
 20
56.8618
 30
-1.26119e-14
  70
    32
  0
VERTEX
  8
0
  5
23FB
 10
146.403
 20
56.8660
 30
-1.26132e-14
  70
    32
  0
VERTEX
  8
0
  5
23FC
 10
146.393
 20
56.8703
 30
-1.26144e-14
  70
    32
  0
VERTEX
  8
0
  5
23FD
 10
146.383
 20
56.8746
 30
-1.26158e-14
  70
    32
  0
VERTEX
  8
0
  5
23FE
 10
146.373
 20
56.8789
 30
-1.26172e-14
  70
    32
  0
VERTEX
  8
0
  5
23FF
 10
146.363
 20
56.8833
 30
-1.26186e-14
  70
    32
  0
VERTEX
  8
0
  5
2400
 10
146.353
 20
56.8877
 30
-1.26201e-14
  70
    32
  0
VERTEX
  8
0
  5
2401
 10
146.343
 20
56.8921
 30
-1.26216e-14
  70
    32
  0
VERTEX
  8
0
  5
2402
 10
146.334
 20
56.8966
 30
-1.26231e-14
  70
    32
  0
VERTEX
  8
0
  5
2403
 10
146.324
 20
56.9012
 30
-1.26247e-14
  70
    32
  0
VERTEX
  8
0
  5
2404
 10
146.314
 20
56.9057
 30
-1.26263e-14
  70
    32
  0
VERTEX
  8
0
  5
2405
 10
146.304
 20
56.9104
 30
-1.26279e-14
  70
    32
  0
VERTEX
  8
0
  5
2406
 10
146.295
 20
56.9150
 30
-1.26296e-14
  70
    32
  0
VERTEX
  8
0
  5
2407
 10
146.285
 20
56.9197
 30
-1.26313e-14
  70
    32
  0
VERTEX
  8
0
  5
2408
 10
146.275
 20
56.9244
 30
-1.26330e-14
  70
    32
  0
VERTEX
  8
0
  5
2409
 10
146.266
 20
56.9292
 30
-1.26347e-14
  70
    32
  0
VERTEX
  8
0
  5
240A
 10
146.256
 20
56.9340
 30
-1.26365e-14
  70
    32
  0
VERTEX
  8
0
  5
240B
 10
146.247
 20
56.9389
 30
-1.26382e-14
  70
    32
  0
VERTEX
  8
0
  5
240C
 10
146.237
 20
56.9437
 30
-1.26400e-14
  70
    32
  0
VERTEX
  8
0
  5
240D
 10
146.228
 20
56.9487
 30
-1.26418e-14
  70
    32
  0
VERTEX
  8
0
  5
240E
 10
146.218
 20
56.9536
 30
-1.26436e-14
  70
    32
  0
VERTEX
  8
0
  5
240F
 10
146.209
 20
56.9586
 30
-1.26454e-14
  70
    32
  0
VERTEX
  8
0
  5
2410
 10
146.200
 20
56.9637
 30
-1.26472e-14
  70
    32
  0
VERTEX
  8
0
  5
2411
 10
146.190
 20
56.9687
 30
-1.26490e-14
  70
    32
  0
VERTEX
  8
0
  5
2412
 10
146.181
 20
56.9739
 30
-1.26508e-14
  70
    32
  0
VERTEX
  8
0
  5
2413
 10
146.172
 20
56.9790
 30
-1.26526e-14
  70
    32
  0
VERTEX
  8
0
  5
2414
 10
146.163
 20
56.9842
 30
-1.26544e-14
  70
    32
  0
VERTEX
  8
0
  5
2415
 10
146.154
 20
56.9894
 30
-1.26562e-14
  70
    32
  0
VERTEX
  8
0
  5
2416
 10
146.144
 20
56.9947
 30
-1.26580e-14
  70
    32
  0
VERTEX
  8
0
  5
2417
 10
146.135
 20
57.0000
 30
-1.26598e-14
  70
    32
  0
VERTEX
  8
0
  5
2418
 10
146.126
 20
57.0053
 30
-1.26616e-14
  70
    32
  0
VERTEX
  8
0
  5
2419
 10
146.117
 20
57.0107
 30
-1.26634e-14
  70
    32
  0
VERTEX
  8
0
  5
241A
 10
146.108
 20
57.0161
 30
-1.26651e-14
  70
    32
  0
VERTEX
  8
0
  5
241B
 10
146.099
 20
57.0216
 30
-1.26668e-14
  70
    32
  0
VERTEX
  8
0
  5
241C
 10
146.090
 20
57.0271
 30
-1.26685e-14
  70
    32
  0
VERTEX
  8
0
  5
241D
 10
146.081
 20
57.0326
 30
-1.26702e-14
  70
    32
  0
VERTEX
  8
0
  5
241E
 10
146.073
 20
57.0381
 30
-1.26719e-14
  70
    32
  0
VERTEX
  8
0
  5
241F
 10
146.064
 20
57.0437
 30
-1.26735e-14
  70
    32
  0
VERTEX
  8
0
  5
2420
 10
146.055
 20
57.0494
 30
-1.26751e-14
  70
    32
  0
VERTEX
  8
0
  5
2421
 10
146.046
 20
57.0551
 30
-1.26767e-14
  70
    32
  0
VERTEX
  8
0
  5
2422
 10
146.038
 20
57.0608
 30
-1.26783e-14
  70
    32
  0
VERTEX
  8
0
  5
2423
 10
146.029
 20
57.0665
 30
-1.26798e-14
  70
    32
  0
VERTEX
  8
0
  5
2424
 10
146.020
 20
57.0723
 30
-1.26812e-14
  70
    32
  0
VERTEX
  8
0
  5
2425
 10
146.012
 20
57.0781
 30
-1.26827e-14
  70
    32
  0
VERTEX
  8
0
  5
2426
 10
146.003
 20
57.0840
 30
-1.26841e-14
  70
    32
  0
VERTEX
  8
0
  5
2427
 10
145.995
 20
57.0899
 30
-1.26854e-14
  70
    32
  0
VERTEX
  8
0
  5
2428
 10
145.986
 20
57.0958
 30
-1.26867e-14
  70
    32
  0
VERTEX
  8
0
  5
2429
 10
145.978
 20
57.1017
 30
-1.26880e-14
  70
    32
  0
VERTEX
  8
0
  5
242A
 10
145.969
 20
57.1077
 30
-1.26892e-14
  70
    32
  0
VERTEX
  8
0
  5
242B
 10
145.961
 20
57.1138
 30
-1.26903e-14
  70
    32
  0
VERTEX
  8
0
  5
242C
 10
145.952
 20
57.1198
 30
-1.26914e-14
  70
    32
  0
VERTEX
  8
0
  5
242D
 10
145.944
 20
57.1259
 30
-1.26925e-14
  70
    32
  0
VERTEX
  8
0
  5
242E
 10
145.936
 20
57.1321
 30
-1.26935e-14
  70
    32
  0
VERTEX
  8
0
  5
242F
 10
145.928
 20
57.1383
 30
-1.26944e-14
  70
    32
  0
VERTEX
  8
0
  5
2430
 10
145.919
 20
57.1445
 30
-1.26952e-14
  70
    32
  0
VERTEX
  8
0
  5
2431
 10
145.911
 20
57.1507
 30
-1.26960e-14
  70
    32
  0
VERTEX
  8
0
  5
2432
 10
145.903
 20
57.1570
 30
-1.26968e-14
  70
    32
  0
VERTEX
  8
0
  5
2433
 10
145.895
 20
57.1633
 30
-1.26974e-14
  70
    32
  0
VERTEX
  8
0
  5
2434
 10
145.887
 20
57.1696
 30
-1.26980e-14
  70
    32
  0
VERTEX
  8
0
  5
2435
 10
145.879
 20
57.1760
 30
-1.26985e-14
  70
    32
  0
VERTEX
  8
0
  5
2436
 10
145.871
 20
57.1824
 30
-1.26990e-14
  70
    32
  0
VERTEX
  8
0
  5
2437
 10
145.863
 20
57.1889
 30
-1.26994e-14
  70
    32
  0
VERTEX
  8
0
  5
2438
 10
145.855
 20
57.1954
 30
-1.26996e-14
  70
    32
  0
VERTEX
  8
0
  5
2439
 10
145.847
 20
57.2019
 30
-1.26998e-14
  70
    32
  0
VERTEX
  8
0
  5
243A
 10
145.839
 20
57.2085
 30
-1.27000e-14
  70
    32
  0
VERTEX
  8
0
  5
243B
 10
145.831
 20
57.2150
 30
-1.27000e-14
  70
    32
  0
VERTEX
  8
0
  5
243C
 10
145.824
 20
57.2217
 30
-1.27001e-14
  70
    32
  0
VERTEX
  8
0
  5
243D
 10
145.816
 20
57.2283
 30
-1.27004e-14
  70
    32
  0
VERTEX
  8
0
  5
243E
 10
145.808
 20
57.2350
 30
-1.27008e-14
  70
    32
  0
VERTEX
  8
0
  5
243F
 10
145.801
 20
57.2417
 30
-1.27014e-14
  70
    32
  0
VERTEX
  8
0
  5
2440
 10
145.793
 20
57.2485
 30
-1.27022e-14
  70
    32
  0
VERTEX
  8
0
  5
2441
 10
145.785
 20
57.2553
 30
-1.27031e-14
  70
    32
  0
VERTEX
  8
0
  5
2442
 10
145.778
 20
57.2621
 30
-1.27041e-14
  70
    32
  0
VERTEX
  8
0
  5
2443
 10
145.770
 20
57.2690
 30
-1.27053e-14
  70
    32
  0
VERTEX
  8
0
  5
2444
 10
145.763
 20
57.2758
 30
-1.27066e-14
  70
    32
  0
VERTEX
  8
0
  5
2445
 10
145.755
 20
57.2828
 30
-1.27080e-14
  70
    32
  0
VERTEX
  8
0
  5
2446
 10
145.748
 20
57.2897
 30
-1.27096e-14
  70
    32
  0
VERTEX
  8
0
  5
2447
 10
145.741
 20
57.2967
 30
-1.27112e-14
  70
    32
  0
VERTEX
  8
0
  5
2448
 10
145.733
 20
57.3037
 30
-1.27130e-14
  70
    32
  0
VERTEX
  8
0
  5
2449
 10
145.726
 20
57.3108
 30
-1.27148e-14
  70
    32
  0
VERTEX
  8
0
  5
244A
 10
145.719
 20
57.3179
 30
-1.27167e-14
  70
    32
  0
VERTEX
  8
0
  5
244B
 10
145.712
 20
57.3250
 30
-1.27188e-14
  70
    32
  0
VERTEX
  8
0
  5
244C
 10
145.704
 20
57.3321
 30
-1.27209e-14
  70
    32
  0
VERTEX
  8
0
  5
244D
 10
145.697
 20
57.3393
 30
-1.27231e-14
  70
    32
  0
VERTEX
  8
0
  5
244E
 10
145.690
 20
57.3465
 30
-1.27253e-14
  70
    32
  0
VERTEX
  8
0
  5
244F
 10
145.683
 20
57.3537
 30
-1.27276e-14
  70
    32
  0
VERTEX
  8
0
  5
2450
 10
145.676
 20
57.3610
 30
-1.27300e-14
  70
    32
  0
VERTEX
  8
0
  5
2451
 10
145.669
 20
57.3683
 30
-1.27324e-14
  70
    32
  0
VERTEX
  8
0
  5
2452
 10
145.662
 20
57.3756
 30
-1.27348e-14
  70
    32
  0
VERTEX
  8
0
  5
2453
 10
145.655
 20
57.3830
 30
-1.27373e-14
  70
    32
  0
VERTEX
  8
0
  5
2454
 10
145.648
 20
57.3904
 30
-1.27399e-14
  70
    32
  0
VERTEX
  8
0
  5
2455
 10
145.641
 20
57.3978
 30
-1.27424e-14
  70
    32
  0
VERTEX
  8
0
  5
2456
 10
145.634
 20
57.4053
 30
-1.27450e-14
  70
    32
  0
VERTEX
  8
0
  5
2457
 10
145.628
 20
57.4127
 30
-1.27475e-14
  70
    32
  0
VERTEX
  8
0
  5
2458
 10
145.621
 20
57.4203
 30
-1.27501e-14
  70
    32
  0
VERTEX
  8
0
  5
2459
 10
145.614
 20
57.4278
 30
-1.27527e-14
  70
    32
  0
VERTEX
  8
0
  5
245A
 10
145.608
 20
57.4354
 30
-1.27553e-14
  70
    32
  0
VERTEX
  8
0
  5
245B
 10
145.601
 20
57.4430
 30
-1.27578e-14
  70
    32
  0
VERTEX
  8
0
  5
245C
 10
145.594
 20
57.4506
 30
-1.27604e-14
  70
    32
  0
VERTEX
  8
0
  5
245D
 10
145.588
 20
57.4582
 30
-1.27629e-14
  70
    32
  0
VERTEX
  8
0
  5
245E
 10
145.581
 20
57.4659
 30
-1.27654e-14
  70
    32
  0
VERTEX
  8
0
  5
245F
 10
145.575
 20
57.4737
 30
-1.27678e-14
  70
    32
  0
VERTEX
  8
0
  5
2460
 10
145.568
 20
57.4814
 30
-1.27702e-14
  70
    32
  0
VERTEX
  8
0
  5
2461
 10
145.562
 20
57.4892
 30
-1.27726e-14
  70
    32
  0
VERTEX
  8
0
  5
2462
 10
145.555
 20
57.4970
 30
-1.27749e-14
  70
    32
  0
VERTEX
  8
0
  5
2463
 10
145.549
 20
57.5048
 30
-1.27771e-14
  70
    32
  0
VERTEX
  8
0
  5
2464
 10
145.543
 20
57.5127
 30
-1.27793e-14
  70
    32
  0
VERTEX
  8
0
  5
2465
 10
145.536
 20
57.5205
 30
-1.27814e-14
  70
    32
  0
VERTEX
  8
0
  5
2466
 10
145.530
 20
57.5285
 30
-1.27834e-14
  70
    32
  0
VERTEX
  8
0
  5
2467
 10
145.524
 20
57.5364
 30
-1.27854e-14
  70
    32
  0
VERTEX
  8
0
  5
2468
 10
145.518
 20
57.5444
 30
-1.27872e-14
  70
    32
  0
VERTEX
  8
0
  5
2469
 10
145.512
 20
57.5524
 30
-1.27890e-14
  70
    32
  0
VERTEX
  8
0
  5
246A
 10
145.506
 20
57.5604
 30
-1.27906e-14
  70
    32
  0
VERTEX
  8
0
  5
246B
 10
145.499
 20
57.5684
 30
-1.27921e-14
  70
    32
  0
VERTEX
  8
0
  5
246C
 10
145.493
 20
57.5765
 30
-1.27935e-14
  70
    32
  0
VERTEX
  8
0
  5
246D
 10
145.487
 20
57.5846
 30
-1.27948e-14
  70
    32
  0
VERTEX
  8
0
  5
246E
 10
145.482
 20
57.5927
 30
-1.27960e-14
  70
    32
  0
VERTEX
  8
0
  5
246F
 10
145.476
 20
57.6009
 30
-1.27970e-14
  70
    32
  0
VERTEX
  8
0
  5
2470
 10
145.470
 20
57.6091
 30
-1.27979e-14
  70
    32
  0
VERTEX
  8
0
  5
2471
 10
145.464
 20
57.6173
 30
-1.27986e-14
  70
    32
  0
VERTEX
  8
0
  5
2472
 10
145.458
 20
57.6255
 30
-1.27992e-14
  70
    32
  0
VERTEX
  8
0
  5
2473
 10
145.452
 20
57.6338
 30
-1.27997e-14
  70
    32
  0
VERTEX
  8
0
  5
2474
 10
145.447
 20
57.6420
 30
-1.27999e-14
  70
    32
  0
VERTEX
  8
0
  5
2475
 10
145.441
 20
57.6503
 30
-1.28000e-14
  70
    32
  0
SEQEND
  8
0
  5
2476
  0
POLYLINE
  8
0
  5
2477
  66
     1
 10
0.000000
 20
0.000000
 30
0.000000
  70
     8
  0
VERTEX
  8
0
  5
2478
 10
168.369
 20
56.6503
 30
-1.26000e-14
  70
    32
  0
VERTEX
  8
0
  5
2479
 10
168.369
 20
56.6504
 30
-1.26000e-14
  70
    32
  0
VERTEX
  8
0
  5
247A
 10
168.369
 20
56.6504
 30
-1.26000e-14
  70
    32
  0
VERTEX
  8
0
  5
247B
 10
168.369
 20
56.6505
 30
-1.26000e-14
  70
    32
  0
VERTEX
  8
0
  5
247C
 10
168.369
 20
56.6506
 30
-1.26000e-14
  70
    32
  0
VERTEX
  8
0
  5
247D
 10
168.369
 20
56.6507
 30
-1.26000e-14
  70
    32
  0
VERTEX
  8
0
  5
247E
 10
168.370
 20
56.6509
 30
-1.26000e-14
  70
    32
  0
VERTEX
  8
0
  5
247F
 10
168.370
 20
56.6511
 30
-1.26000e-14
  70
    32
  0
VERTEX
  8
0
  5
2480
 10
168.370
 20
56.6514
 30
-1.26000e-14
  70
    32
  0
VERTEX
  8
0
  5
2481
 10
168.370
 20
56.6516
 30
-1.26000e-14
  70
    32
  0
VERTEX
  8
0
  5
2482
 10
168.371
 20
56.6520
 30
-1.26000e-14
  70
    32
  0
VERTEX
  8
0
  5
2483
 10
168.371
 20
56.6523
 30
-1.26000e-14
  70
    32
  0
VERTEX
  8
0
  5
2484
 10
168.371
 20
56.6527
 30
-1.26000e-14
  70
    32
  0
VERTEX
  8
0
  5
2485
 10
168.372
 20
56.6531
 30
-1.26000e-14
  70
    32
  0
VERTEX
  8
0
  5
2486
 10
168.372
 20
56.6535
 30
-1.26000e-14
  70
    32
  0
VERTEX
  8
0
  5
2487
 10
168.372
 20
56.6540
 30
-1.26000e-14
  70
    32
  0
VERTEX
  8
0
  5
2488
 10
168.373
 20
56.6545
 30
-1.26000e-14
  70
    32
  0
VERTEX
  8
0
  5
2489
 10
168.373
 20
56.6550
 30
-1.26000e-14
  70
    32
  0
VERTEX
  8
0
  5
248A
 10
168.374
 20
56.6556
 30
-1.26000e-14
  70
    32
  0
VERTEX
  8
0
  5
248B
 10
168.374
 20
56.6561
 30
-1.26000e-14
  70
    32
  0
VERTEX
  8
0
  5
248C
 10
168.375
 20
56.6568
 30
-1.26000e-14
  70
    32
  0
VERTEX
  8
0
  5
248D
 10
168.375
 20
56.6574
 30
-1.26000e-14
  70
    32
  0
VERTEX
  8
0
  5
248E
 10
168.376
 20
56.6581
 30
-1.26000e-14
  70
    32
  0
VERTEX
  8
0
  5
248F
 10
168.377
 20
56.6588
 30
-1.26000e-14
  70
    32
  0
VERTEX
  8
0
  5
2490
 10
168.377
 20
56.6596
 30
-1.26000e-14
  70
    32
  0
VERTEX
  8
0
  5
2491
 10
168.378
 20
56.6604
 30
-1.26000e-14
  70
    32
  0
VERTEX
  8
0
  5
2492
 10
168.379
 20
56.6612
 30
-1.26000e-14
  70
    32
  0
VERTEX
  8
0
  5
2493
 10
168.380
 20
56.6621
 30
-1.26000e-14
  70
    32
  0
VERTEX
  8
0
  5
2494
 10
168.380
 20
56.6629
 30
-1.26000e-14
  70
    32
  0
VERTEX
  8
0
  5
2495
 10
168.381
 20
56.6639
 30
-1.26000e-14
  70
    32
  0
VERTEX
  8
0
  5
2496
 10
168.382
 20
56.6648
 30
-1.26000e-14
  70
    32
  0
VERTEX
  8
0
  5
2497
 10
168.383
 20
56.6658
 30
-1.26000e-14
  70
    32
  0
VERTEX
  8
0
  5
2498
 10
168.384
 20
56.6668
 30
-1.26000e-14
  70
    32
  0
VERTEX
  8
0
  5
2499
 10
168.385
 20
56.6678
 30
-1.26000e-14
  70
    32
  0
VERTEX
  8
0
  5
249A
 10
168.386
 20
56.6689
 30
-1.26000e-14
  70
    32
  0
VERTEX
  8
0
  5
249B
 10
168.387
 20
56.6700
 30
-1.26000e-14
  70
    32
  0
VERTEX
  8
0
  5
249C
 10
168.388
 20
56.6712
 30
-1.26000e-14
  70
    32
  0
VERTEX
  8
0
  5
249D
 10
168.389
 20
56.6723
 30
-1.26000e-14
  70
    32
  0
VERTEX
  8
0
  5
249E
 10
168.390
 20
56.6735
 30
-1.26000e-14
  70
    32
  0
VERTEX
  8
0
  5
249F
 10
168.391
 20
56.6748
 30
-1.26000e-14
  70
    32
  0
VERTEX
  8
0
  5
24A0
 10
168.392
 20
56.6761
 30
-1.26000e-14
  70
    32
  0
VERTEX
  8
0
  5
24A1
 10
168.393
 20
56.6774
 30
-1.26000e-14
  70
    32
  0
VERTEX
  8
0
  5
24A2
 10
168.394
 20
56.6787
 30
-1.26000e-14
  70
    32
  0
VERTEX
  8
0
  5
24A3
 10
168.396
 20
56.6801
 30
-1.26000e-14
  70
    32
  0
VERTEX
  8
0
  5
24A4
 10
168.397
 20
56.6815
 30
-1.26000e-14
  70
    32
  0
VERTEX
  8
0
  5
24A5
 10
168.398
 20
56.6829
 30
-1.26000e-14
  70
    32
  0
VERTEX
  8
0
  5
24A6
 10
168.399
 20
56.6844
 30
-1.26000e-14
  70
    32
  0
VERTEX
  8
0
  5
24A7
 10
168.401
 20
56.6858
 30
-1.26000e-14
  70
    32
  0
VERTEX
  8
0
  5
24A8
 10
168.402
 20
56.6874
 30
-1.26000e-14
  70
    32
  0
VERTEX
  8
0
  5
24A9
 10
168.403
 20
56.6889
 30
-1.26000e-14
  70
    32
  0
VERTEX
  8
0
  5
24AA
 10
168.405
 20
56.6905
 30
-1.26000e-14
  70
    32
  0
VERTEX
  8
0
  5
24AB
 10
168.406
 20
56.6922
 30
-1.26000e-14
  70
    32
  0
VERTEX
  8
0
  5
24AC
 10
168.408
 20
56.6938
 30
-1.26000e-14
  70
    32
  0
VERTEX
  8
0
  5
24AD
 10
168.409
 20
56.6955
 30
-1.26000e-14
  70
    32
  0
VERTEX
  8
0
  5
24AE
 10
168.411
 20
56.6972
 30
-1.26000e-14
  70
    32
  0
VERTEX
  8
0
  5
24AF
 10
168.412
 20
56.6990
 30
-1.26000e-14
  70
    32
  0
VERTEX
  8
0
  5
24B0
 10
168.414
 20
56.7008
 30
-1.26000e-14
  70
    32
  0
VERTEX
  8
0
  5
24B1
 10
168.415
 20
56.7026
 30
-1.26000e-14
  70
    32
  0
VERTEX
  8
0
  5
24B2
 10
168.417
 20
56.7044
 30
-1.26000e-14
  70
    32
  0
VERTEX
  8
0
  5
24B3
 10
168.419
 20
56.7063
 30
-1.26000e-14
  70
    32
  0
VERTEX
  8
0
  5
24B4
 10
168.421
 20
56.7082
 30
-1.26000e-14
  70
    32
  0
VERTEX
  8
0
  5
24B5
 10
168.422
 20
56.7102
 30
-1.26000e-14
  70
    32
  0
VERTEX
  8
0
  5
24B6
 10
168.424
 20
56.7121
 30
-1.26000e-14
  70
    32
  0
VERTEX
  8
0
  5
24B7
 10
168.426
 20
56.7142
 30
-1.26000e-14
  70
    32
  0
VERTEX
  8
0
  5
24B8
 10
168.428
 20
56.7162
 30
-1.26000e-14
  70
    32
  0
VERTEX
  8
0
  5
24B9
 10
168.429
 20
56.7183
 30
-1.26000e-14
  70
    32
  0
VERTEX
  8
0
  5
24BA
 10
168.431
 20
56.7204
 30
-1.26000e-14
  70
    32
  0
VERTEX
  8
0
  5
24BB
 10
168.433
 20
56.7225
 30
-1.26000e-14
  70
    32
  0
VERTEX
  8
0
  5
24BC
 10
168.435
 20
56.7247
 30
-1.26000e-14
  70
    32
  0
VERTEX
  8
0
  5
24BD
 10
168.437
 20
56.7269
 30
-1.26000e-14
  70
    32
  0
VERTEX
  8
0
  5
24BE
 10
168.439
 20
56.7291
 30
-1.26000e-14
  70
    32
  0
VERTEX
  8
0
  5
24BF
 10
168.441
 20
56.7314
 30
-1.26000e-14
  70
    32
  0
VERTEX
  8
0
  5
24C0
 10
168.443
 20
56.7337
 30
-1.26000e-14
  70
    32
  0
VERTEX
  8
0
  5
24C1
 10
168.445
 20
56.7360
 30
-1.26000e-14
  70
    32
  0
VERTEX
  8
0
  5
24C2
 10
168.447
 20
56.7384
 30
-1.26000e-14
  70
    32
  0
VERTEX
  8
0
  5
24C3
 10
168.449
 20
56.7408
 30
-1.26000e-14
  70
    32
  0
VERTEX
  8
0
  5
24C4
 10
168.452
 20
56.7432
 30
-1.26000e-14
  70
    32
  0
VERTEX
  8
0
  5
24C5
 10
168.454
 20
56.7457
 30
-1.26000e-14
  70
    32
  0
VERTEX
  8
0
  5
24C6
 10
168.456
 20
56.7482
 30
-1.26000e-14
  70
    32
  0
VERTEX
  8
0
  5
24C7
 10
168.458
 20
56.7507
 30
-1.26000e-14
  70
    32
  0
VERTEX
  8
0
  5
24C8
 10
168.461
 20
56.7533
 30
-1.26000e-14
  70
    32
  0
VERTEX
  8
0
  5
24C9
 10
168.463
 20
56.7559
 30
-1.26000e-14
  70
    32
  0
VERTEX
  8
0
  5
24CA
 10
168.465
 20
56.7585
 30
-1.26000e-14
  70
    32
  0
VERTEX
  8
0
  5
24CB
 10
168.468
 20
56.7611
 30
-1.26000e-14
  70
    32
  0
VERTEX
  8
0
  5
24CC
 10
168.470
 20
56.7638
 30
-1.26000e-14
  70
    32
  0
VERTEX
  8
0
  5
24CD
 10
168.472
 20
56.7665
 30
-1.26000e-14
  70
    32
  0
VERTEX
  8
0
  5
24CE
 10
168.475
 20
56.7693
 30
-1.26000e-14
  70
    32
  0
VERTEX
  8
0
  5
24CF
 10
168.477
 20
56.7721
 30
-1.26000e-14
  70
    32
  0
VERTEX
  8
0
  5
24D0
 10
168.480
 20
56.7749
 30
-1.26000e-14
  70
    32
  0
VERTEX
  8
0
  5
24D1
 10
168.482
 20
56.7777
 30
-1.26000e-14
  70
    32
  0
VERTEX
  8
0
  5
24D2
 10
168.485
 20
56.7806
 30
-1.26000e-14
  70
    32
  0
VERTEX
  8
0
  5
24D3
 10
168.487
 20
56.7835
 30
-1.26000e-14
  70
    32
  0
VERTEX
  8
0
  5
24D4
 10
168.490
 20
56.7865
 30
-1.26000e-14
  70
    32
  0
VERTEX
  8
0
  5
24D5
 10
168.493
 20
56.7895
 30
-1.26000e-14
  70
    32
  0
VERTEX
  8
0
  5
24D6
 10
168.495
 20
56.7925
 30
-1.26000e-14
  70
    32
  0
VERTEX
  8
0
  5
24D7
 10
168.498
 20
56.7955
 30
-1.26000e-14
  70
    32
  0
VERTEX
  8
0
  5
24D8
 10
168.501
 20
56.7986
 30
-1.26001e-14
  70
    32
  0
VERTEX
  8
0
  5
24D9
 10
168.504
 20
56.8017
 30
-1.26002e-14
  70
    32
  0
VERTEX
  8
0
  5
24DA
 10
168.506
 20
56.8048
 30
-1.26004e-14
  70
    32
  0
VERTEX
  8
0
  5
24DB
 10
168.509
 20
56.8080
 30
-1.26007e-14
  70
    32
  0
VERTEX
  8
0
  5
24DC
 10
168.512
 20
56.8112
 30
-1.26010e-14
  70
    32
  0
VERTEX
  8
0
  5
24DD
 10
168.515
 20
56.8144
 30
-1.26014e-14
  70
    32
  0
VERTEX
  8
0
  5
24DE
 10
168.518
 20
56.8177
 30
-1.26019e-14
  70
    32
  0
VERTEX
  8
0
  5
24DF
 10
168.521
 20
56.8210
 30
-1.26024e-14
  70
    32
  0
VERTEX
  8
0
  5
24E0
 10
168.524
 20
56.8243
 30
-1.26029e-14
  70
    32
  0
VERTEX
  8
0
  5
24E1
 10
168.527
 20
56.8277
 30
-1.26035e-14
  70
    32
  0
VERTEX
  8
0
  5
24E2
 10
168.530
 20
56.8311
 30
-1.26042e-14
  70
    32
  0
VERTEX
  8
0
  5
24E3
 10
168.533
 20
56.8345
 30
-1.26049e-14
  70
    32
  0
VERTEX
  8
0
  5
24E4
 10
168.536
 20
56.8380
 30
-1.26057e-14
  70
    32
  0
VERTEX
  8
0
  5
24E5
 10
168.539
 20
56.8414
 30
-1.26065e-14
  70
    32
  0
VERTEX
  8
0
  5
24E6
 10
168.542
 20
56.8450
 30
-1.26073e-14
  70
    32
  0
VERTEX
  8
0
  5
24E7
 10
168.545
 20
56.8485
 30
-1.26082e-14
  70
    32
  0
VERTEX
  8
0
  5
24E8
 10
168.548
 20
56.8521
 30
-1.26092e-14
  70
    32
  0
VERTEX
  8
0
  5
24E9
 10
168.552
 20
56.8557
 30
-1.26102e-14
  70
    32
  0
VERTEX
  8
0
  5
24EA
 10
168.555
 20
56.8593
 30
-1.26112e-14
  70
    32
  0
VERTEX
  8
0
  5
24EB
 10
168.558
 20
56.8630
 30
-1.26123e-14
  70
    32
  0
VERTEX
  8
0
  5
24EC
 10
168.561
 20
56.8667
 30
-1.26134e-14
  70
    32
  0
VERTEX
  8
0
  5
24ED
 10
168.565
 20
56.8705
 30
-1.26145e-14
  70
    32
  0
VERTEX
  8
0
  5
24EE
 10
168.568
 20
56.8742
 30
-1.26157e-14
  70
    32
  0
VERTEX
  8
0
  5
24EF
 10
168.572
 20
56.8780
 30
-1.26169e-14
  70
    32
  0
VERTEX
  8
0
  5
24F0
 10
168.575
 20
56.8818
 30
-1.26181e-14
  70
    32
  0
VERTEX
  8
0
  5
24F1
 10
168.578
 20
56.8857
 30
-1.26194e-14
  70
    32
  0
VERTEX
  8
0
  5
24F2
 10
168.582
 20
56.8896
 30
-1.26207e-14
  70
    32
  0
VERTEX
  8
0
  5
24F3
 10
168.585
 20
56.8935
 30
-1.26220e-14
  70
    32
  0
VERTEX
  8
0
  5
24F4
 10
168.589
 20
56.8975
 30
-1.26234e-14
  70
    32
  0
VERTEX
  8
0
  5
24F5
 10
168.592
 20
56.9014
 30
-1.26248e-14
  70
    32
  0
VERTEX
  8
0
  5
24F6
 10
168.596
 20
56.9054
 30
-1.26262e-14
  70
    32
  0
VERTEX
  8
0
  5
24F7
 10
168.600
 20
56.9095
 30
-1.26276e-14
  70
    32
  0
VERTEX
  8
0
  5
24F8
 10
168.603
 20
56.9136
 30
-1.26291e-14
  70
    32
  0
VERTEX
  8
0
  5
24F9
 10
168.607
 20
56.9177
 30
-1.26305e-14
  70
    32
  0
VERTEX
  8
0
  5
24FA
 10
168.610
 20
56.9218
 30
-1.26320e-14
  70
    32
  0
VERTEX
  8
0
  5
24FB
 10
168.614
 20
56.9259
 30
-1.26335e-14
  70
    32
  0
VERTEX
  8
0
  5
24FC
 10
168.618
 20
56.9301
 30
-1.26350e-14
  70
    32
  0
VERTEX
  8
0
  5
24FD
 10
168.622
 20
56.9343
 30
-1.26366e-14
  70
    32
  0
VERTEX
  8
0
  5
24FE
 10
168.625
 20
56.9386
 30
-1.26381e-14
  70
    32
  0
VERTEX
  8
0
  5
24FF
 10
168.629
 20
56.9429
 30
-1.26397e-14
  70
    32
  0
VERTEX
  8
0
  5
2500
 10
168.633
 20
56.9472
 30
-1.26412e-14
  70
    32
  0
VERTEX
  8
0
  5
2501
 10
168.637
 20
56.9515
 30
-1.26428e-14
  70
    32
  0
VERTEX
  8
0
  5
2502
 10
168.641
 20
56.9559
 30
-1.26444e-14
  70
    32
  0
VERTEX
  8
0
  5
2503
 10
168.645
 20
56.9603
 30
-1.26460e-14
  70
    32
  0
VERTEX
  8
0
  5
2504
 10
168.649
 20
56.9647
 30
-1.26476e-14
  70
    32
  0
VERTEX
  8
0
  5
2505
 10
168.653
 20
56.9692
 30
-1.26491e-14
  70
    32
  0
VERTEX
  8
0
  5
2506
 10
168.657
 20
56.9736
 30
-1.26507e-14
  70
    32
  0
VERTEX
  8
0
  5
2507
 10
168.661
 20
56.9782
 30
-1.26523e-14
  70
    32
  0
VERTEX
  8
0
  5
2508
 10
168.665
 20
56.9827
 30
-1.26539e-14
  70
    32
  0
VERTEX
  8
0
  5
2509
 10
168.669
 20
56.9873
 30
-1.26555e-14
  70
    32
  0
VERTEX
  8
0
  5
250A
 10
168.673
 20
56.9919
 30
-1.26571e-14
  70
    32
  0
VERTEX
  8
0
  5
250B
 10
168.677
 20
56.9965
 30
-1.26586e-14
  70
    32
  0
VERTEX
  8
0
  5
250C
 10
168.681
 20
57.0011
 30
-1.26602e-14
  70
    32
  0
VERTEX
  8
0
  5
250D
 10
168.685
 20
57.0058
 30
-1.26618e-14
  70
    32
  0
VERTEX
  8
0
  5
250E
 10
168.690
 20
57.0105
 30
-1.26633e-14
  70
    32
  0
VERTEX
  8
0
  5
250F
 10
168.694
 20
57.0153
 30
-1.26648e-14
  70
    32
  0
VERTEX
  8
0
  5
2510
 10
168.698
 20
57.0201
 30
-1.26664e-14
  70
    32
  0
VERTEX
  8
0
  5
2511
 10
168.702
 20
57.0249
 30
-1.26679e-14
  70
    32
  0
VERTEX
  8
0
  5
2512
 10
168.707
 20
57.0297
 30
-1.26694e-14
  70
    32
  0
VERTEX
  8
0
  5
2513
 10
168.711
 20
57.0345
 30
-1.26708e-14
  70
    32
  0
VERTEX
  8
0
  5
2514
 10
168.715
 20
57.0394
 30
-1.26723e-14
  70
    32
  0
VERTEX
  8
0
  5
2515
 10
168.720
 20
57.0443
 30
-1.26737e-14
  70
    32
  0
VERTEX
  8
0
  5
2516
 10
168.724
 20
57.0493
 30
-1.26751e-14
  70
    32
  0
VERTEX
  8
0
  5
2517
 10
168.729
 20
57.0543
 30
-1.26765e-14
  70
    32
  0
VERTEX
  8
0
  5
2518
 10
168.733
 20
57.0593
 30
-1.26779e-14
  70
    32
  0
VERTEX
  8
0
  5
2519
 10
168.738
 20
57.0643
 30
-1.26792e-14
  70
    32
  0
VERTEX
  8
0
  5
251A
 10
168.742
 20
57.0693
 30
-1.26805e-14
  70
    32
  0
VERTEX
  8
0
  5
251B
 10
168.747
 20
57.0744
 30
-1.26818e-14
  70
    32
  0
VERTEX
  8
0
  5
251C
 10
168.751
 20
57.0795
 30
-1.26830e-14
  70
    32
  0
VERTEX
  8
0
  5
251D
 10
168.756
 20
57.0847
 30
-1.26842e-14
  70
    32
  0
VERTEX
  8
0
  5
251E
 10
168.760
 20
57.0898
 30
-1.26854e-14
  70
    32
  0
VERTEX
  8
0
  5
251F
 10
168.765
 20
57.0950
 30
-1.26865e-14
  70
    32
  0
VERTEX
  8
0
  5
2520
 10
168.770
 20
57.1002
 30
-1.26877e-14
  70
    32
  0
VERTEX
  8
0
  5
2521
 10
168.774
 20
57.1055
 30
-1.26887e-14
  70
    32
  0
VERTEX
  8
0
  5
2522
 10
168.779
 20
57.1107
 30
-1.26898e-14
  70
    32
  0
VERTEX
  8
0
  5
2523
 10
168.784
 20
57.1160
 30
-1.26907e-14
  70
    32
  0
VERTEX
  8
0
  5
2524
 10
168.789
 20
57.1214
 30
-1.26917e-14
  70
    32
  0
VERTEX
  8
0
  5
2525
 10
168.793
 20
57.1267
 30
-1.26926e-14
  70
    32
  0
VERTEX
  8
0
  5
2526
 10
168.798
 20
57.1321
 30
-1.26935e-14
  70
    32
  0
VERTEX
  8
0
  5
2527
 10
168.803
 20
57.1375
 30
-1.26943e-14
  70
    32
  0
VERTEX
  8
0
  5
2528
 10
168.808
 20
57.1430
 30
-1.26950e-14
  70
    32
  0
VERTEX
  8
0
  5
2529
 10
168.813
 20
57.1484
 30
-1.26958e-14
  70
    32
  0
VERTEX
  8
0
  5
252A
 10
168.818
 20
57.1539
 30
-1.26964e-14
  70
    32
  0
VERTEX
  8
0
  5
252B
 10
168.823
 20
57.1594
 30
-1.26970e-14
  70
    32
  0
VERTEX
  8
0
  5
252C
 10
168.828
 20
57.1650
 30
-1.26976e-14
  70
    32
  0
VERTEX
  8
0
  5
252D
 10
168.833
 20
57.1705
 30
-1.26981e-14
  70
    32
  0
VERTEX
  8
0
  5
252E
 10
168.838
 20
57.1761
 30
-1.26986e-14
  70
    32
  0
VERTEX
  8
0
  5
252F
 10
168.843
 20
57.1818
 30
-1.26989e-14
  70
    32
  0
VERTEX
  8
0
  5
2530
 10
168.848
 20
57.1874
 30
-1.26993e-14
  70
    32
  0
VERTEX
  8
0
  5
2531
 10
168.853
 20
57.1931
 30
-1.26995e-14
  70
    32
  0
VERTEX
  8
0
  5
2532
 10
168.858
 20
57.1988
 30
-1.26998e-14
  70
    32
  0
VERTEX
  8
0
  5
2533
 10
168.863
 20
57.2045
 30
-1.26999e-14
  70
    32
  0
VERTEX
  8
0
  5
2534
 10
168.868
 20
57.2103
 30
-1.27000e-14
  70
    32
  0
VERTEX
  8
0
  5
2535
 10
168.873
 20
57.2161
 30
-1.27000e-14
  70
    32
  0
VERTEX
  8
0
  5
2536
 10
168.878
 20
57.2219
 30
-1.27001e-14
  70
    32
  0
VERTEX
  8
0
  5
2537
 10
168.884
 20
57.2277
 30
-1.27003e-14
  70
    32
  0
VERTEX
  8
0
  5
2538
 10
168.889
 20
57.2336
 30
-1.27007e-14
  70
    32
  0
VERTEX
  8
0
  5
2539
 10
168.894
 20
57.2394
 30
-1.27012e-14
  70
    32
  0
VERTEX
  8
0
  5
253A
 10
168.899
 20
57.2453
 30
-1.27018e-14
  70
    32
  0
VERTEX
  8
0
  5
253B
 10
168.905
 20
57.2513
 30
-1.27025e-14
  70
    32
  0
VERTEX
  8
0
  5
253C
 10
168.910
 20
57.2572
 30
-1.27034e-14
  70
    32
  0
VERTEX
  8
0
  5
253D
 10
168.915
 20
57.2632
 30
-1.27043e-14
  70
    32
  0
VERTEX
  8
0
  5
253E
 10
168.921
 20
57.2692
 30
-1.27053e-14
  70
    32
  0
VERTEX
  8
0
  5
253F
 10
168.926
 20
57.2753
 30
-1.27065e-14
  70
    32
  0
VERTEX
  8
0
  5
2540
 10
168.932
 20
57.2813
 30
-1.27077e-14
  70
    32
  0
VERTEX
  8
0
  5
2541
 10
168.937
 20
57.2874
 30
-1.27090e-14
  70
    32
  0
VERTEX
  8
0
  5
2542
 10
168.943
 20
57.2935
 30
-1.27104e-14
  70
    32
  0
VERTEX
  8
0
  5
2543
 10
168.948
 20
57.2997
 30
-1.27119e-14
  70
    32
  0
VERTEX
  8
0
  5
2544
 10
168.954
 20
57.3058
 30
-1.27135e-14
  70
    32
  0
VERTEX
  8
0
  5
2545
 10
168.959
 20
57.3120
 30
-1.27151e-14
  70
    32
  0
VERTEX
  8
0
  5
2546
 10
168.965
 20
57.3182
 30
-1.27169e-14
  70
    32
  0
VERTEX
  8
0
  5
2547
 10
168.970
 20
57.3245
 30
-1.27186e-14
  70
    32
  0
VERTEX
  8
0
  5
2548
 10
168.976
 20
57.3307
 30
-1.27205e-14
  70
    32
  0
VERTEX
  8
0
  5
2549
 10
168.981
 20
57.3370
 30
-1.27224e-14
  70
    32
  0
VERTEX
  8
0
  5
254A
 10
168.987
 20
57.3433
 30
-1.27243e-14
  70
    32
  0
VERTEX
  8
0
  5
254B
 10
168.993
 20
57.3496
 30
-1.27263e-14
  70
    32
  0
VERTEX
  8
0
  5
254C
 10
168.999
 20
57.3560
 30
-1.27283e-14
  70
    32
  0
VERTEX
  8
0
  5
254D
 10
169.004
 20
57.3624
 30
-1.27304e-14
  70
    32
  0
VERTEX
  8
0
  5
254E
 10
169.010
 20
57.3688
 30
-1.27326e-14
  70
    32
  0
VERTEX
  8
0
  5
254F
 10
169.016
 20
57.3752
 30
-1.27347e-14
  70
    32
  0
VERTEX
  8
0
  5
2550
 10
169.022
 20
57.3816
 30
-1.27369e-14
  70
    32
  0
VERTEX
  8
0
  5
2551
 10
169.027
 20
57.3881
 30
-1.27391e-14
  70
    32
  0
VERTEX
  8
0
  5
2552
 10
169.033
 20
57.3946
 30
-1.27413e-14
  70
    32
  0
VERTEX
  8
0
  5
2553
 10
169.039
 20
57.4011
 30
-1.27435e-14
  70
    32
  0
VERTEX
  8
0
  5
2554
 10
169.045
 20
57.4077
 30
-1.27458e-14
  70
    32
  0
VERTEX
  8
0
  5
2555
 10
169.051
 20
57.4142
 30
-1.27481e-14
  70
    32
  0
VERTEX
  8
0
  5
2556
 10
169.057
 20
57.4208
 30
-1.27503e-14
  70
    32
  0
VERTEX
  8
0
  5
2557
 10
169.063
 20
57.4274
 30
-1.27526e-14
  70
    32
  0
VERTEX
  8
0
  5
2558
 10
169.069
 20
57.4341
 30
-1.27548e-14
  70
    32
  0
VERTEX
  8
0
  5
2559
 10
169.075
 20
57.4407
 30
-1.27571e-14
  70
    32
  0
VERTEX
  8
0
  5
255A
 10
169.080
 20
57.4474
 30
-1.27593e-14
  70
    32
  0
VERTEX
  8
0
  5
255B
 10
169.087
 20
57.4541
 30
-1.27615e-14
  70
    32
  0
VERTEX
  8
0
  5
255C
 10
169.093
 20
57.4608
 30
-1.27637e-14
  70
    32
  0
VERTEX
  8
0
  5
255D
 10
169.099
 20
57.4676
 30
-1.27659e-14
  70
    32
  0
VERTEX
  8
0
  5
255E
 10
169.105
 20
57.4743
 30
-1.27681e-14
  70
    32
  0
VERTEX
  8
0
  5
255F
 10
169.111
 20
57.4811
 30
-1.27702e-14
  70
    32
  0
VERTEX
  8
0
  5
2560
 10
169.117
 20
57.4879
 30
-1.27722e-14
  70
    32
  0
VERTEX
  8
0
  5
2561
 10
169.123
 20
57.4948
 30
-1.27743e-14
  70
    32
  0
VERTEX
  8
0
  5
2562
 10
169.129
 20
57.5016
 30
-1.27762e-14
  70
    32
  0
VERTEX
  8
0
  5
2563
 10
169.135
 20
57.5085
 30
-1.27782e-14
  70
    32
  0
VERTEX
  8
0
  5
2564
 10
169.142
 20
57.5154
 30
-1.27801e-14
  70
    32
  0
VERTEX
  8
0
  5
2565
 10
169.148
 20
57.5223
 30
-1.27819e-14
  70
    32
  0
VERTEX
  8
0
  5
2566
 10
169.154
 20
57.5292
 30
-1.27836e-14
  70
    32
  0
VERTEX
  8
0
  5
2567
 10
169.160
 20
57.5362
 30
-1.27853e-14
  70
    32
  0
VERTEX
  8
0
  5
2568
 10
169.167
 20
57.5432
 30
-1.27870e-14
  70
    32
  0
VERTEX
  8
0
  5
2569
 10
169.173
 20
57.5502
 30
-1.27885e-14
  70
    32
  0
VERTEX
  8
0
  5
256A
 10
169.179
 20
57.5572
 30
-1.27900e-14
  70
    32
  0
VERTEX
  8
0
  5
256B
 10
169.185
 20
57.5643
 30
-1.27914e-14
  70
    32
  0
VERTEX
  8
0
  5
256C
 10
169.192
 20
57.5713
 30
-1.27927e-14
  70
    32
  0
VERTEX
  8
0
  5
256D
 10
169.198
 20
57.5784
 30
-1.27939e-14
  70
    32
  0
VERTEX
  8
0
  5
256E
 10
169.205
 20
57.5855
 30
-1.27950e-14
  70
    32
  0
VERTEX
  8
0
  5
256F
 10
169.211
 20
57.5926
 30
-1.27960e-14
  70
    32
  0
VERTEX
  8
0
  5
2570
 10
169.217
 20
57.5998
 30
-1.27969e-14
  70
    32
  0
VERTEX
  8
0
  5
2571
 10
169.224
 20
57.6069
 30
-1.27977e-14
  70
    32
  0
VERTEX
  8
0
  5
2572
 10
169.230
 20
57.6141
 30
-1.27984e-14
  70
    32
  0
VERTEX
  8
0
  5
2573
 10
169.237
 20
57.6213
 30
-1.27990e-14
  70
    32
  0
VERTEX
  8
0
  5
2574
 10
169.243
 20
57.6286
 30
-1.27994e-14
  70
    32
  0
VERTEX
  8
0
  5
2575
 10
169.250
 20
57.6358
 30
-1.27997e-14
  70
    32
  0
VERTEX
  8
0
  5
2576
 10
169.256
 20
57.6431
 30
-1.27999e-14
  70
    32
  0
VERTEX
  8
0
  5
2577
 10
169.263
 20
57.6503
 30
-1.28000e-14
  70
    32
  0
SEQEND
  8
0
  5
2578
  0
POLYLINE
  8
0
  5
2579
  66
     1
 10
0.000000
 20
0.000000
 30
0.000000
  70
     8
  0
VERTEX
  8
0
  5
257A
 10
101.279
 20
57.6503
 30
-1.28000e-14
  70
    32
  0
VERTEX
  8
0
  5
257B
 10
101.264
 20
57.6420
 30
-1.27999e-14
  70
    32
  0
VERTEX
  8
0
  5
257C
 10
101.248
 20
57.6338
 30
-1.27997e-14
  70
    32
  0
VERTEX
  8
0
  5
257D
 10
101.233
 20
57.6255
 30
-1.27992e-14
  70
    32
  0
VERTEX
  8
0
  5
257E
 10
101.217
 20
57.6173
 30
-1.27986e-14
  70
    32
  0
VERTEX
  8
0
  5
257F
 10
101.201
 20
57.6091
 30
-1.27979e-14
  70
    32
  0
VERTEX
  8
0
  5
2580
 10
101.186
 20
57.6009
 30
-1.27970e-14
  70
    32
  0
VERTEX
  8
0
  5
2581
 10
101.170
 20
57.5927
 30
-1.27960e-14
  70
    32
  0
VERTEX
  8
0
  5
2582
 10
101.154
 20
57.5846
 30
-1.27948e-14
  70
    32
  0
VERTEX
  8
0
  5
2583
 10
101.138
 20
57.5765
 30
-1.27935e-14
  70
    32
  0
VERTEX
  8
0
  5
2584
 10
101.123
 20
57.5684
 30
-1.27921e-14
  70
    32
  0
VERTEX
  8
0
  5
2585
 10
101.107
 20
57.5604
 30
-1.27906e-14
  70
    32
  0
VERTEX
  8
0
  5
2586
 10
101.091
 20
57.5524
 30
-1.27890e-14
  70
    32
  0
VERTEX
  8
0
  5
2587
 10
101.075
 20
57.5444
 30
-1.27872e-14
  70
    32
  0
VERTEX
  8
0
  5
2588
 10
101.059
 20
57.5364
 30
-1.27854e-14
  70
    32
  0
VERTEX
  8
0
  5
2589
 10
101.043
 20
57.5285
 30
-1.27834e-14
  70
    32
  0
VERTEX
  8
0
  5
258A
 10
101.027
 20
57.5205
 30
-1.27814e-14
  70
    32
  0
VERTEX
  8
0
  5
258B
 10
101.011
 20
57.5127
 30
-1.27793e-14
  70
    32
  0
VERTEX
  8
0
  5
258C
 10
100.995
 20
57.5048
 30
-1.27771e-14
  70
    32
  0
VERTEX
  8
0
  5
258D
 10
100.979
 20
57.4970
 30
-1.27749e-14
  70
    32
  0
VERTEX
  8
0
  5
258E
 10
100.963
 20
57.4892
 30
-1.27726e-14
  70
    32
  0
VERTEX
  8
0
  5
258F
 10
100.947
 20
57.4814
 30
-1.27702e-14
  70
    32
  0
VERTEX
  8
0
  5
2590
 10
100.931
 20
57.4737
 30
-1.27678e-14
  70
    32
  0
VERTEX
  8
0
  5
2591
 10
100.915
 20
57.4659
 30
-1.27654e-14
  70
    32
  0
VERTEX
  8
0
  5
2592
 10
100.899
 20
57.4582
 30
-1.27629e-14
  70
    32
  0
VERTEX
  8
0
  5
2593
 10
100.883
 20
57.4506
 30
-1.27604e-14
  70
    32
  0
VERTEX
  8
0
  5
2594
 10
100.867
 20
57.4430
 30
-1.27578e-14
  70
    32
  0
VERTEX
  8
0
  5
2595
 10
100.850
 20
57.4354
 30
-1.27553e-14
  70
    32
  0
VERTEX
  8
0
  5
2596
 10
100.834
 20
57.4278
 30
-1.27527e-14
  70
    32
  0
VERTEX
  8
0
  5
2597
 10
100.818
 20
57.4203
 30
-1.27501e-14
  70
    32
  0
VERTEX
  8
0
  5
2598
 10
100.802
 20
57.4127
 30
-1.27475e-14
  70
    32
  0
VERTEX
  8
0
  5
2599
 10
100.785
 20
57.4053
 30
-1.27450e-14
  70
    32
  0
VERTEX
  8
0
  5
259A
 10
100.769
 20
57.3978
 30
-1.27424e-14
  70
    32
  0
VERTEX
  8
0
  5
259B
 10
100.753
 20
57.3904
 30
-1.27399e-14
  70
    32
  0
VERTEX
  8
0
  5
259C
 10
100.736
 20
57.3830
 30
-1.27373e-14
  70
    32
  0
VERTEX
  8
0
  5
259D
 10
100.720
 20
57.3756
 30
-1.27348e-14
  70
    32
  0
VERTEX
  8
0
  5
259E
 10
100.703
 20
57.3683
 30
-1.27324e-14
  70
    32
  0
VERTEX
  8
0
  5
259F
 10
100.687
 20
57.3610
 30
-1.27300e-14
  70
    32
  0
VERTEX
  8
0
  5
25A0
 10
100.670
 20
57.3537
 30
-1.27276e-14
  70
    32
  0
VERTEX
  8
0
  5
25A1
 10
100.654
 20
57.3465
 30
-1.27253e-14
  70
    32
  0
VERTEX
  8
0
  5
25A2
 10
100.637
 20
57.3393
 30
-1.27231e-14
  70
    32
  0
VERTEX
  8
0
  5
25A3
 10
100.621
 20
57.3321
 30
-1.27209e-14
  70
    32
  0
VERTEX
  8
0
  5
25A4
 10
100.604
 20
57.3250
 30
-1.27188e-14
  70
    32
  0
VERTEX
  8
0
  5
25A5
 10
100.588
 20
57.3179
 30
-1.27167e-14
  70
    32
  0
VERTEX
  8
0
  5
25A6
 10
100.571
 20
57.3108
 30
-1.27148e-14
  70
    32
  0
VERTEX
  8
0
  5
25A7
 10
100.554
 20
57.3037
 30
-1.27130e-14
  70
    32
  0
VERTEX
  8
0
  5
25A8
 10
100.538
 20
57.2967
 30
-1.27112e-14
  70
    32
  0
VERTEX
  8
0
  5
25A9
 10
100.521
 20
57.2897
 30
-1.27096e-14
  70
    32
  0
VERTEX
  8
0
  5
25AA
 10
100.504
 20
57.2828
 30
-1.27080e-14
  70
    32
  0
VERTEX
  8
0
  5
25AB
 10
100.488
 20
57.2758
 30
-1.27066e-14
  70
    32
  0
VERTEX
  8
0
  5
25AC
 10
100.471
 20
57.2690
 30
-1.27053e-14
  70
    32
  0
VERTEX
  8
0
  5
25AD
 10
100.454
 20
57.2621
 30
-1.27041e-14
  70
    32
  0
VERTEX
  8
0
  5
25AE
 10
100.437
 20
57.2553
 30
-1.27031e-14
  70
    32
  0
VERTEX
  8
0
  5
25AF
 10
100.421
 20
57.2485
 30
-1.27022e-14
  70
    32
  0
VERTEX
  8
0
  5
25B0
 10
100.404
 20
57.2417
 30
-1.27014e-14
  70
    32
  0
VERTEX
  8
0
  5
25B1
 10
100.387
 20
57.2350
 30
-1.27008e-14
  70
    32
  0
VERTEX
  8
0
  5
25B2
 10
100.370
 20
57.2283
 30
-1.27004e-14
  70
    32
  0
VERTEX
  8
0
  5
25B3
 10
100.353
 20
57.2217
 30
-1.27001e-14
  70
    32
  0
VERTEX
  8
0
  5
25B4
 10
100.336
 20
57.2150
 30
-1.27000e-14
  70
    32
  0
VERTEX
  8
0
  5
25B5
 10
100.319
 20
57.2085
 30
-1.27000e-14
  70
    32
  0
VERTEX
  8
0
  5
25B6
 10
100.302
 20
57.2019
 30
-1.26998e-14
  70
    32
  0
VERTEX
  8
0
  5
25B7
 10
100.285
 20
57.1954
 30
-1.26996e-14
  70
    32
  0
VERTEX
  8
0
  5
25B8
 10
100.268
 20
57.1889
 30
-1.26994e-14
  70
    32
  0
VERTEX
  8
0
  5
25B9
 10
100.251
 20
57.1824
 30
-1.26990e-14
  70
    32
  0
VERTEX
  8
0
  5
25BA
 10
100.234
 20
57.1760
 30
-1.26985e-14
  70
    32
  0
VERTEX
  8
0
  5
25BB
 10
100.217
 20
57.1696
 30
-1.26980e-14
  70
    32
  0
VERTEX
  8
0
  5
25BC
 10
100.200
 20
57.1633
 30
-1.26974e-14
  70
    32
  0
VERTEX
  8
0
  5
25BD
 10
100.183
 20
57.1570
 30
-1.26968e-14
  70
    32
  0
VERTEX
  8
0
  5
25BE
 10
100.166
 20
57.1507
 30
-1.26960e-14
  70
    32
  0
VERTEX
  8
0
  5
25BF
 10
100.149
 20
57.1445
 30
-1.26952e-14
  70
    32
  0
VERTEX
  8
0
  5
25C0
 10
100.132
 20
57.1383
 30
-1.26944e-14
  70
    32
  0
VERTEX
  8
0
  5
25C1
 10
100.115
 20
57.1321
 30
-1.26935e-14
  70
    32
  0
VERTEX
  8
0
  5
25C2
 10
100.097
 20
57.1259
 30
-1.26925e-14
  70
    32
  0
VERTEX
  8
0
  5
25C3
 10
100.080
 20
57.1198
 30
-1.26914e-14
  70
    32
  0
VERTEX
  8
0
  5
25C4
 10
100.063
 20
57.1138
 30
-1.26903e-14
  70
    32
  0
VERTEX
  8
0
  5
25C5
 10
100.046
 20
57.1077
 30
-1.26892e-14
  70
    32
  0
VERTEX
  8
0
  5
25C6
 10
100.028
 20
57.1017
 30
-1.26880e-14
  70
    32
  0
VERTEX
  8
0
  5
25C7
 10
100.011
 20
57.0958
 30
-1.26867e-14
  70
    32
  0
VERTEX
  8
0
  5
25C8
 10
99.9937
 20
57.0899
 30
-1.26854e-14
  70
    32
  0
VERTEX
  8
0
  5
25C9
 10
99.9764
 20
57.0840
 30
-1.26841e-14
  70
    32
  0
VERTEX
  8
0
  5
25CA
 10
99.9591
 20
57.0781
 30
-1.26827e-14
  70
    32
  0
VERTEX
  8
0
  5
25CB
 10
99.9417
 20
57.0723
 30
-1.26812e-14
  70
    32
  0
VERTEX
  8
0
  5
25CC
 10
99.9243
 20
57.0665
 30
-1.26798e-14
  70
    32
  0
VERTEX
  8
0
  5
25CD
 10
99.9069
 20
57.0608
 30
-1.26783e-14
  70
    32
  0
VERTEX
  8
0
  5
25CE
 10
99.8895
 20
57.0551
 30
-1.26767e-14
  70
    32
  0
VERTEX
  8
0
  5
25CF
 10
99.8721
 20
57.0494
 30
-1.26751e-14
  70
    32
  0
VERTEX
  8
0
  5
25D0
 10
99.8546
 20
57.0437
 30
-1.26735e-14
  70
    32
  0
VERTEX
  8
0
  5
25D1
 10
99.8371
 20
57.0381
 30
-1.26719e-14
  70
    32
  0
VERTEX
  8
0
  5
25D2
 10
99.8197
 20
57.0326
 30
-1.26702e-14
  70
    32
  0
VERTEX
  8
0
  5
25D3
 10
99.8022
 20
57.0271
 30
-1.26685e-14
  70
    32
  0
VERTEX
  8
0
  5
25D4
 10
99.7846
 20
57.0216
 30
-1.26668e-14
  70
    32
  0
VERTEX
  8
0
  5
25D5
 10
99.7671
 20
57.0161
 30
-1.26651e-14
  70
    32
  0
VERTEX
  8
0
  5
25D6
 10
99.7496
 20
57.0107
 30
-1.26634e-14
  70
    32
  0
VERTEX
  8
0
  5
25D7
 10
99.7320
 20
57.0053
 30
-1.26616e-14
  70
    32
  0
VERTEX
  8
0
  5
25D8
 10
99.7144
 20
57.0000
 30
-1.26598e-14
  70
    32
  0
VERTEX
  8
0
  5
25D9
 10
99.6968
 20
56.9947
 30
-1.26580e-14
  70
    32
  0
VERTEX
  8
0
  5
25DA
 10
99.6792
 20
56.9894
 30
-1.26562e-14
  70
    32
  0
VERTEX
  8
0
  5
25DB
 10
99.6616
 20
56.9842
 30
-1.26544e-14
  70
    32
  0
VERTEX
  8
0
  5
25DC
 10
99.6439
 20
56.9790
 30
-1.26526e-14
  70
    32
  0
VERTEX
  8
0
  5
25DD
 10
99.6263
 20
56.9739
 30
-1.26508e-14
  70
    32
  0
VERTEX
  8
0
  5
25DE
 10
99.6086
 20
56.9687
 30
-1.26490e-14
  70
    32
  0
VERTEX
  8
0
  5
25DF
 10
99.5909
 20
56.9637
 30
-1.26472e-14
  70
    32
  0
VERTEX
  8
0
  5
25E0
 10
99.5732
 20
56.9586
 30
-1.26454e-14
  70
    32
  0
VERTEX
  8
0
  5
25E1
 10
99.5555
 20
56.9536
 30
-1.26436e-14
  70
    32
  0
VERTEX
  8
0
  5
25E2
 10
99.5378
 20
56.9487
 30
-1.26418e-14
  70
    32
  0
VERTEX
  8
0
  5
25E3
 10
99.5200
 20
56.9437
 30
-1.26400e-14
  70
    32
  0
VERTEX
  8
0
  5
25E4
 10
99.5023
 20
56.9389
 30
-1.26382e-14
  70
    32
  0
VERTEX
  8
0
  5
25E5
 10
99.4845
 20
56.9340
 30
-1.26365e-14
  70
    32
  0
VERTEX
  8
0
  5
25E6
 10
99.4667
 20
56.9292
 30
-1.26347e-14
  70
    32
  0
VERTEX
  8
0
  5
25E7
 10
99.4489
 20
56.9244
 30
-1.26330e-14
  70
    32
  0
VERTEX
  8
0
  5
25E8
 10
99.4311
 20
56.9197
 30
-1.26313e-14
  70
    32
  0
VERTEX
  8
0
  5
25E9
 10
99.4133
 20
56.9150
 30
-1.26296e-14
  70
    32
  0
VERTEX
  8
0
  5
25EA
 10
99.3954
 20
56.9104
 30
-1.26279e-14
  70
    32
  0
VERTEX
  8
0
  5
25EB
 10
99.3776
 20
56.9057
 30
-1.26263e-14
  70
    32
  0
VERTEX
  8
0
  5
25EC
 10
99.3597
 20
56.9012
 30
-1.26247e-14
  70
    32
  0
VERTEX
  8
0
  5
25ED
 10
99.3419
 20
56.8966
 30
-1.26231e-14
  70
    32
  0
VERTEX
  8
0
  5
25EE
 10
99.3240
 20
56.8921
 30
-1.26216e-14
  70
    32
  0
VERTEX
  8
0
  5
25EF
 10
99.3061
 20
56.8877
 30
-1.26201e-14
  70
    32
  0
VERTEX
  8
0
  5
25F0
 10
99.2882
 20
56.8833
 30
-1.26186e-14
  70
    32
  0
VERTEX
  8
0
  5
25F1
 10
99.2702
 20
56.8789
 30
-1.26172e-14
  70
    32
  0
VERTEX
  8
0
  5
25F2
 10
99.2523
 20
56.8746
 30
-1.26158e-14
  70
    32
  0
VERTEX
  8
0
  5
25F3
 10
99.2344
 20
56.8703
 30
-1.26144e-14
  70
    32
  0
VERTEX
  8
0
  5
25F4
 10
99.2164
 20
56.8660
 30
-1.26132e-14
  70
    32
  0
VERTEX
  8
0
  5
25F5
 10
99.1984
 20
56.8618
 30
-1.26119e-14
  70
    32
  0
VERTEX
  8
0
  5
25F6
 10
99.1805
 20
56.8576
 30
-1.26107e-14
  70
    32
  0
VERTEX
  8
0
  5
25F7
 10
99.1625
 20
56.8535
 30
-1.26096e-14
  70
    32
  0
VERTEX
  8
0
  5
25F8
 10
99.1445
 20
56.8494
 30
-1.26085e-14
  70
    32
  0
VERTEX
  8
0
  5
25F9
 10
99.1265
 20
56.8453
 30
-1.26074e-14
  70
    32
  0
VERTEX
  8
0
  5
25FA
 10
99.1085
 20
56.8413
 30
-1.26064e-14
  70
    32
  0
VERTEX
  8
0
  5
25FB
 10
99.0904
 20
56.8373
 30
-1.26055e-14
  70
    32
  0
VERTEX
  8
0
  5
25FC
 10
99.0724
 20
56.8334
 30
-1.26047e-14
  70
    32
  0
VERTEX
  8
0
  5
25FD
 10
99.0543
 20
56.8295
 30
-1.26039e-14
  70
    32
  0
VERTEX
  8
0
  5
25FE
 10
99.0363
 20
56.8257
 30
-1.26032e-14
  70
    32
  0
VERTEX
  8
0
  5
25FF
 10
99.0182
 20
56.8218
 30
-1.26025e-14
  70
    32
  0
VERTEX
  8
0
  5
2600
 10
99.0002
 20
56.8181
 30
-1.26019e-14
  70
    32
  0
VERTEX
  8
0
  5
2601
 10
98.9821
 20
56.8143
 30
-1.26014e-14
  70
    32
  0
VERTEX
  8
0
  5
2602
 10
98.9640
 20
56.8107
 30
-1.26010e-14
  70
    32
  0
VERTEX
  8
0
  5
2603
 10
98.9459
 20
56.8070
 30
-1.26006e-14
  70
    32
  0
VERTEX
  8
0
  5
2604
 10
98.9278
 20
56.8034
 30
-1.26003e-14
  70
    32
  0
VERTEX
  8
0
  5
2605
 10
98.9096
 20
56.7999
 30
-1.26001e-14
  70
    32
  0
VERTEX
  8
0
  5
2606
 10
98.8915
 20
56.7963
 30
-1.26000e-14
  70
    32
  0
VERTEX
  8
0
  5
2607
 10
98.8734
 20
56.7929
 30
-1.26000e-14
  70
    32
  0
VERTEX
  8
0
  5
2608
 10
98.8552
 20
56.7894
 30
-1.26000e-14
  70
    32
  0
VERTEX
  8
0
  5
2609
 10
98.8371
 20
56.7860
 30
-1.26000e-14
  70
    32
  0
VERTEX
  8
0
  5
260A
 10
98.8189
 20
56.7827
 30
-1.26000e-14
  70
    32
  0
VERTEX
  8
0
  5
260B
 10
98.8008
 20
56.7794
 30
-1.26000e-14
  70
    32
  0
VERTEX
  8
0
  5
260C
 10
98.7826
 20
56.7761
 30
-1.26000e-14
  70
    32
  0
VERTEX
  8
0
  5
260D
 10
98.7644
 20
56.7729
 30
-1.26000e-14
  70
    32
  0
VERTEX
  8
0
  5
260E
 10
98.7462
 20
56.7697
 30
-1.26000e-14
  70
    32
  0
VERTEX
  8
0
  5
260F
 10
98.7280
 20
56.7665
 30
-1.26000e-14
  70
    32
  0
VERTEX
  8
0
  5
2610
 10
98.7099
 20
56.7634
 30
-1.26000e-14
  70
    32
  0
VERTEX
  8
0
  5
2611
 10
98.6916
 20
56.7604
 30
-1.26000e-14
  70
    32
  0
VERTEX
  8
0
  5
2612
 10
98.6734
 20
56.7574
 30
-1.26000e-14
  70
    32
  0
VERTEX
  8
0
  5
2613
 10
98.6552
 20
56.7544
 30
-1.26000e-14
  70
    32
  0
VERTEX
  8
0
  5
2614
 10
98.6370
 20
56.7515
 30
-1.26000e-14
  70
    32
  0
VERTEX
  8
0
  5
2615
 10
98.6188
 20
56.7486
 30
-1.26000e-14
  70
    32
  0
VERTEX
  8
0
  5
2616
 10
98.6006
 20
56.7457
 30
-1.26000e-14
  70
    32
  0
VERTEX
  8
0
  5
2617
 10
98.5823
 20
56.7429
 30
-1.26000e-14
  70
    32
  0
VERTEX
  8
0
  5
2618
 10
98.5641
 20
56.7401
 30
-1.26000e-14
  70
    32
  0
VERTEX
  8
0
  5
2619
 10
98.5458
 20
56.7374
 30
-1.26000e-14
  70
    32
  0
VERTEX
  8
0
  5
261A
 10
98.5276
 20
56.7347
 30
-1.26000e-14
  70
    32
  0
VERTEX
  8
0
  5
261B
 10
98.5093
 20
56.7321
 30
-1.26000e-14
  70
    32
  0
VERTEX
  8
0
  5
261C
 10
98.4911
 20
56.7295
 30
-1.26000e-14
  70
    32
  0
VERTEX
  8
0
  5
261D
 10
98.4728
 20
56.7269
 30
-1.26000e-14
  70
    32
  0
VERTEX
  8
0
  5
261E
 10
98.4546
 20
56.7244
 30
-1.26000e-14
  70
    32
  0
VERTEX
  8
0
  5
261F
 10
98.4363
 20
56.7220
 30
-1.26000e-14
  70
    32
  0
VERTEX
  8
0
  5
2620
 10
98.4180
 20
56.7195
 30
-1.26000e-14
  70
    32
  0
VERTEX
  8
0
  5
2621
 10
98.3997
 20
56.7171
 30
-1.26000e-14
  70
    32
  0
VERTEX
  8
0
  5
2622
 10
98.3815
 20
56.7148
 30
-1.26000e-14
  70
    32
  0
VERTEX
  8
0
  5
2623
 10
98.3632
 20
56.7125
 30
-1.26000e-14
  70
    32
  0
VERTEX
  8
0
  5
2624
 10
98.3449
 20
56.7102
 30
-1.26000e-14
  70
    32
  0
VERTEX
  8
0
  5
2625
 10
98.3266
 20
56.7080
 30
-1.26000e-14
  70
    32
  0
VERTEX
  8
0
  5
2626
 10
98.3084
 20
56.7058
 30
-1.26000e-14
  70
    32
  0
VERTEX
  8
0
  5
2627
 10
98.2901
 20
56.7037
 30
-1.26000e-14
  70
    32
  0
VERTEX
  8
0
  5
2628
 10
98.2718
 20
56.7016
 30
-1.26000e-14
  70
    32
  0
VERTEX
  8
0
  5
2629
 10
98.2535
 20
56.6996
 30
-1.26000e-14
  70
    32
  0
VERTEX
  8
0
  5
262A
 10
98.2352
 20
56.6976
 30
-1.26000e-14
  70
    32
  0
VERTEX
  8
0
  5
262B
 10
98.2169
 20
56.6956
 30
-1.26000e-14
  70
    32
  0
VERTEX
  8
0
  5
262C
 10
98.1986
 20
56.6937
 30
-1.26000e-14
  70
    32
  0
VERTEX
  8
0
  5
262D
 10
98.1803
 20
56.6918
 30
-1.26000e-14
  70
    32
  0
VERTEX
  8
0
  5
262E
 10
98.1620
 20
56.6899
 30
-1.26000e-14
  70
    32
  0
VERTEX
  8
0
  5
262F
 10
98.1438
 20
56.6881
 30
-1.26000e-14
  70
    32
  0
VERTEX
  8
0
  5
2630
 10
98.1255
 20
56.6864
 30
-1.26000e-14
  70
    32
  0
VERTEX
  8
0
  5
2631
 10
98.1072
 20
56.6847
 30
-1.26000e-14
  70
    32
  0
VERTEX
  8
0
  5
2632
 10
98.0889
 20
56.6830
 30
-1.26000e-14
  70
    32
  0
VERTEX
  8
0
  5
2633
 10
98.0706
 20
56.6814
 30
-1.26000e-14
  70
    32
  0
VERTEX
  8
0
  5
2634
 10
98.0523
 20
56.6798
 30
-1.26000e-14
  70
    32
  0
VERTEX
  8
0
  5
2635
 10
98.0340
 20
56.6782
 30
-1.26000e-14
  70
    32
  0
VERTEX
  8
0
  5
2636
 10
98.0157
 20
56.6767
 30
-1.26000e-14
  70
    32
  0
VERTEX
  8
0
  5
2637
 10
97.9975
 20
56.6752
 30
-1.26000e-14
  70
    32
  0
VERTEX
  8
0
  5
2638
 10
97.9792
 20
56.6738
 30
-1.26000e-14
  70
    32
  0
VERTEX
  8
0
  5
2639
 10
97.9609
 20
56.6724
 30
-1.26000e-14
  70
    32
  0
VERTEX
  8
0
  5
263A
 10
97.9426
 20
56.6711
 30
-1.26000e-14
  70
    32
  0
VERTEX
  8
0
  5
263B
 10
97.9243
 20
56.6698
 30
-1.26000e-14
  70
    32
  0
VERTEX
  8
0
  5
263C
 10
97.9061
 20
56.6685
 30
-1.26000e-14
  70
    32
  0
VERTEX
  8
0
  5
263D
 10
97.8878
 20
56.6673
 30
-1.26000e-14
  70
    32
  0
VERTEX
  8
0
  5
263E
 10
97.8695
 20
56.6662
 30
-1.26000e-14
  70
    32
  0
VERTEX
  8
0
  5
263F
 10
97.8513
 20
56.6650
 30
-1.26000e-14
  70
    32
  0
VERTEX
  8
0
  5
2640
 10
97.8330
 20
56.6639
 30
-1.26000e-14
  70
    32
  0
VERTEX
  8
0
  5
2641
 10
97.8148
 20
56.6629
 30
-1.26000e-14
  70
    32
  0
VERTEX
  8
0
  5
2642
 10
97.7965
 20
56.6619
 30
-1.26000e-14
  70
    32
  0
VERTEX
  8
0
  5
2643
 10
97.7783
 20
56.6609
 30
-1.26000e-14
  70
    32
  0
VERTEX
  8
0
  5
2644
 10
97.7600
 20
56.6600
 30
-1.26000e-14
  70
    32
  0
VERTEX
  8
0
  5
2645
 10
97.7418
 20
56.6591
 30
-1.26000e-14
  70
    32
  0
VERTEX
  8
0
  5
2646
 10
97.7235
 20
56.6583
 30
-1.26000e-14
  70
    32
  0
VERTEX
  8
0
  5
2647
 10
97.7053
 20
56.6575
 30
-1.26000e-14
  70
    32
  0
VERTEX
  8
0
  5
2648
 10
97.6871
 20
56.6568
 30
-1.26000e-14
  70
    32
  0
VERTEX
  8
0
  5
2649
 10
97.6689
 20
56.6560
 30
-1.26000e-14
  70
    32
  0
VERTEX
  8
0
  5
264A
 10
97.6506
 20
56.6554
 30
-1.26000e-14
  70
    32
  0
VERTEX
  8
0
  5
264B
 10
97.6324
 20
56.6547
 30
-1.26000e-14
  70
    32
  0
VERTEX
  8
0
  5
264C
 10
97.6142
 20
56.6542
 30
-1.26000e-14
  70
    32
  0
VERTEX
  8
0
  5
264D
 10
97.5960
 20
56.6536
 30
-1.26000e-14
  70
    32
  0
VERTEX
  8
0
  5
264E
 10
97.5778
 20
56.6531
 30
-1.26000e-14
  70
    32
  0
VERTEX
  8
0
  5
264F
 10
97.5597
 20
56.6527
 30
-1.26000e-14
  70
    32
  0
VERTEX
  8
0
  5
2650
 10
97.5415
 20
56.6522
 30
-1.26000e-14
  70
    32
  0
VERTEX
  8
0
  5
2651
 10
97.5233
 20
56.6519
 30
-1.26000e-14
  70
    32
  0
VERTEX
  8
0
  5
2652
 10
97.5051
 20
56.6515
 30
-1.26000e-14
  70
    32
  0
VERTEX
  8
0
  5
2653
 10
97.4870
 20
56.6512
 30
-1.26000e-14
  70
    32
  0
VERTEX
  8
0
  5
2654
 10
97.4688
 20
56.6510
 30
-1.26000e-14
  70
    32
  0
VERTEX
  8
0
  5
2655
 10
97.4507
 20
56.6508
 30
-1.26000e-14
  70
    32
  0
VERTEX
  8
0
  5
2656
 10
97.4325
 20
56.6506
 30
-1.26000e-14
  70
    32
  0
VERTEX
  8
0
  5
2657
 10
97.4144
 20
56.6505
 30
-1.26000e-14
  70
    32
  0
VERTEX
  8
0
  5
2658
 10
97.3963
 20
56.6504
 30
-1.26000e-14
  70
    32
  0
VERTEX
  8
0
  5
2659
 10
97.3782
 20
56.6504
 30
-1.26000e-14
  70
    32
  0
VERTEX
  8
0
  5
265A
 10
97.3601
 20
56.6504
 30
-1.26000e-14
  70
    32
  0
VERTEX
  8
0
  5
265B
 10
97.3420
 20
56.6504
 30
-1.26000e-14
  70
    32
  0
VERTEX
  8
0
  5
265C
 10
97.3239
 20
56.6505
 30
-1.26000e-14
  70
    32
  0
VERTEX
  8
0
  5
265D
 10
97.3057
 20
56.6506
 30
-1.26000e-14
  70
    32
  0
VERTEX
  8
0
  5
265E
 10
97.2876
 20
56.6508
 30
-1.26000e-14
  70
    32
  0
VERTEX
  8
0
  5
265F
 10
97.2694
 20
56.6510
 30
-1.26000e-14
  70
    32
  0
VERTEX
  8
0
  5
2660
 10
97.2513
 20
56.6512
 30
-1.26000e-14
  70
    32
  0
VERTEX
  8
0
  5
2661
 10
97.2331
 20
56.6515
 30
-1.26000e-14
  70
    32
  0
VERTEX
  8
0
  5
2662
 10
97.2150
 20
56.6519
 30
-1.26000e-14
  70
    32
  0
VERTEX
  8
0
  5
2663
 10
97.1968
 20
56.6522
 30
-1.26000e-14
  70
    32
  0
VERTEX
  8
0
  5
2664
 10
97.1786
 20
56.6527
 30
-1.26000e-14
  70
    32
  0
VERTEX
  8
0
  5
2665
 10
97.1604
 20
56.6531
 30
-1.26000e-14
  70
    32
  0
VERTEX
  8
0
  5
2666
 10
97.1422
 20
56.6536
 30
-1.26000e-14
  70
    32
  0
VERTEX
  8
0
  5
2667
 10
97.1240
 20
56.6542
 30
-1.26000e-14
  70
    32
  0
VERTEX
  8
0
  5
2668
 10
97.1058
 20
56.6547
 30
-1.26000e-14
  70
    32
  0
VERTEX
  8
0
  5
2669
 10
97.0876
 20
56.6554
 30
-1.26000e-14
  70
    32
  0
VERTEX
  8
0
  5
266A
 10
97.0694
 20
56.6560
 30
-1.26000e-14
  70
    32
  0
VERTEX
  8
0
  5
266B
 10
97.0512
 20
56.6568
 30
-1.26000e-14
  70
    32
  0
VERTEX
  8
0
  5
266C
 10
97.0330
 20
56.6575
 30
-1.26000e-14
  70
    32
  0
VERTEX
  8
0
  5
266D
 10
97.0147
 20
56.6583
 30
-1.26000e-14
  70
    32
  0
VERTEX
  8
0
  5
266E
 10
96.9965
 20
56.6591
 30
-1.26000e-14
  70
    32
  0
VERTEX
  8
0
  5
266F
 10
96.9783
 20
56.6600
 30
-1.26000e-14
  70
    32
  0
VERTEX
  8
0
  5
2670
 10
96.9600
 20
56.6609
 30
-1.26000e-14
  70
    32
  0
VERTEX
  8
0
  5
2671
 10
96.9418
 20
56.6619
 30
-1.26000e-14
  70
    32
  0
VERTEX
  8
0
  5
2672
 10
96.9235
 20
56.6629
 30
-1.26000e-14
  70
    32
  0
VERTEX
  8
0
  5
2673
 10
96.9053
 20
56.6639
 30
-1.26000e-14
  70
    32
  0
VERTEX
  8
0
  5
2674
 10
96.8870
 20
56.6650
 30
-1.26000e-14
  70
    32
  0
VERTEX
  8
0
  5
2675
 10
96.8687
 20
56.6662
 30
-1.26000e-14
  70
    32
  0
VERTEX
  8
0
  5
2676
 10
96.8505
 20
56.6673
 30
-1.26000e-14
  70
    32
  0
VERTEX
  8
0
  5
2677
 10
96.8322
 20
56.6685
 30
-1.26000e-14
  70
    32
  0
VERTEX
  8
0
  5
2678
 10
96.8139
 20
56.6698
 30
-1.26000e-14
  70
    32
  0
VERTEX
  8
0
  5
2679
 10
96.7957
 20
56.6711
 30
-1.26000e-14
  70
    32
  0
VERTEX
  8
0
  5
267A
 10
96.7774
 20
56.6724
 30
-1.26000e-14
  70
    32
  0
VERTEX
  8
0
  5
267B
 10
96.7591
 20
56.6738
 30
-1.26000e-14
  70
    32
  0
VERTEX
  8
0
  5
267C
 10
96.7408
 20
56.6752
 30
-1.26000e-14
  70
    32
  0
VERTEX
  8
0
  5
267D
 10
96.7225
 20
56.6767
 30
-1.26000e-14
  70
    32
  0
VERTEX
  8
0
  5
267E
 10
96.7042
 20
56.6782
 30
-1.26000e-14
  70
    32
  0
VERTEX
  8
0
  5
267F
 10
96.6860
 20
56.6798
 30
-1.26000e-14
  70
    32
  0
VERTEX
  8
0
  5
2680
 10
96.6677
 20
56.6814
 30
-1.26000e-14
  70
    32
  0
VERTEX
  8
0
  5
2681
 10
96.6494
 20
56.6830
 30
-1.26000e-14
  70
    32
  0
VERTEX
  8
0
  5
2682
 10
96.6311
 20
56.6847
 30
-1.26000e-14
  70
    32
  0
VERTEX
  8
0
  5
2683
 10
96.6128
 20
56.6864
 30
-1.26000e-14
  70
    32
  0
VERTEX
  8
0
  5
2684
 10
96.5945
 20
56.6881
 30
-1.26000e-14
  70
    32
  0
VERTEX
  8
0
  5
2685
 10
96.5762
 20
56.6899
 30
-1.26000e-14
  70
    32
  0
VERTEX
  8
0
  5
2686
 10
96.5579
 20
56.6918
 30
-1.26000e-14
  70
    32
  0
VERTEX
  8
0
  5
2687
 10
96.5396
 20
56.6937
 30
-1.26000e-14
  70
    32
  0
VERTEX
  8
0
  5
2688
 10
96.5214
 20
56.6956
 30
-1.26000e-14
  70
    32
  0
VERTEX
  8
0
  5
2689
 10
96.5031
 20
56.6976
 30
-1.26000e-14
  70
    32
  0
VERTEX
  8
0
  5
268A
 10
96.4848
 20
56.6996
 30
-1.26000e-14
  70
    32
  0
VERTEX
  8
0
  5
268B
 10
96.4665
 20
56.7016
 30
-1.26000e-14
  70
    32
  0
VERTEX
  8
0
  5
268C
 10
96.4482
 20
56.7037
 30
-1.26000e-14
  70
    32
  0
VERTEX
  8
0
  5
268D
 10
96.4299
 20
56.7058
 30
-1.26000e-14
  70
    32
  0
VERTEX
  8
0
  5
268E
 10
96.4116
 20
56.7080
 30
-1.26000e-14
  70
    32
  0
VERTEX
  8
0
  5
268F
 10
96.3934
 20
56.7102
 30
-1.26000e-14
  70
    32
  0
VERTEX
  8
0
  5
2690
 10
96.3751
 20
56.7125
 30
-1.26000e-14
  70
    32
  0
VERTEX
  8
0
  5
2691
 10
96.3568
 20
56.7148
 30
-1.26000e-14
  70
    32
  0
VERTEX
  8
0
  5
2692
 10
96.3385
 20
56.7171
 30
-1.26000e-14
  70
    32
  0
VERTEX
  8
0
  5
2693
 10
96.3203
 20
56.7195
 30
-1.26000e-14
  70
    32
  0
VERTEX
  8
0
  5
2694
 10
96.3020
 20
56.7220
 30
-1.26000e-14
  70
    32
  0
VERTEX
  8
0
  5
2695
 10
96.2837
 20
56.7244
 30
-1.26000e-14
  70
    32
  0
VERTEX
  8
0
  5
2696
 10
96.2655
 20
56.7269
 30
-1.26000e-14
  70
    32
  0
VERTEX
  8
0
  5
2697
 10
96.2472
 20
56.7295
 30
-1.26000e-14
  70
    32
  0
VERTEX
  8
0
  5
2698
 10
96.2289
 20
56.7321
 30
-1.26000e-14
  70
    32
  0
VERTEX
  8
0
  5
2699
 10
96.2107
 20
56.7347
 30
-1.26000e-14
  70
    32
  0
VERTEX
  8
0
  5
269A
 10
96.1924
 20
56.7374
 30
-1.26000e-14
  70
    32
  0
VERTEX
  8
0
  5
269B
 10
96.1742
 20
56.7401
 30
-1.26000e-14
  70
    32
  0
VERTEX
  8
0
  5
269C
 10
96.1560
 20
56.7429
 30
-1.26000e-14
  70
    32
  0
VERTEX
  8
0
  5
269D
 10
96.1377
 20
56.7457
 30
-1.26000e-14
  70
    32
  0
VERTEX
  8
0
  5
269E
 10
96.1195
 20
56.7486
 30
-1.26000e-14
  70
    32
  0
VERTEX
  8
0
  5
269F
 10
96.1013
 20
56.7515
 30
-1.26000e-14
  70
    32
  0
VERTEX
  8
0
  5
26A0
 10
96.0830
 20
56.7544
 30
-1.26000e-14
  70
    32
  0
VERTEX
  8
0
  5
26A1
 10
96.0648
 20
56.7574
 30
-1.26000e-14
  70
    32
  0
VERTEX
  8
0
  5
26A2
 10
96.0466
 20
56.7604
 30
-1.26000e-14
  70
    32
  0
VERTEX
  8
0
  5
26A3
 10
96.0284
 20
56.7634
 30
-1.26000e-14
  70
    32
  0
VERTEX
  8
0
  5
26A4
 10
96.0102
 20
56.7665
 30
-1.26000e-14
  70
    32
  0
VERTEX
  8
0
  5
26A5
 10
95.9920
 20
56.7697
 30
-1.26000e-14
  70
    32
  0
VERTEX
  8
0
  5
26A6
 10
95.9739
 20
56.7729
 30
-1.26000e-14
  70
    32
  0
VERTEX
  8
0
  5
26A7
 10
95.9557
 20
56.7761
 30
-1.26000e-14
  70
    32
  0
VERTEX
  8
0
  5
26A8
 10
95.9375
 20
56.7794
 30
-1.26000e-14
  70
    32
  0
VERTEX
  8
0
  5
26A9
 10
95.9193
 20
56.7827
 30
-1.26000e-14
  70
    32
  0
VERTEX
  8
0
  5
26AA
 10
95.9012
 20
56.7860
 30
-1.26000e-14
  70
    32
  0
VERTEX
  8
0
  5
26AB
 10
95.8830
 20
56.7894
 30
-1.26000e-14
  70
    32
  0
VERTEX
  8
0
  5
26AC
 10
95.8649
 20
56.7929
 30
-1.26000e-14
  70
    32
  0
VERTEX
  8
0
  5
26AD
 10
95.8468
 20
56.7963
 30
-1.26000e-14
  70
    32
  0
VERTEX
  8
0
  5
26AE
 10
95.8286
 20
56.7999
 30
-1.26001e-14
  70
    32
  0
VERTEX
  8
0
  5
26AF
 10
95.8105
 20
56.8034
 30
-1.26003e-14
  70
    32
  0
VERTEX
  8
0
  5
26B0
 10
95.7924
 20
56.8070
 30
-1.26006e-14
  70
    32
  0
VERTEX
  8
0
  5
26B1
 10
95.7743
 20
56.8107
 30
-1.26010e-14
  70
    32
  0
VERTEX
  8
0
  5
26B2
 10
95.7562
 20
56.8143
 30
-1.26014e-14
  70
    32
  0
VERTEX
  8
0
  5
26B3
 10
95.7381
 20
56.8181
 30
-1.26019e-14
  70
    32
  0
VERTEX
  8
0
  5
26B4
 10
95.7200
 20
56.8218
 30
-1.26025e-14
  70
    32
  0
VERTEX
  8
0
  5
26B5
 10
95.7020
 20
56.8257
 30
-1.26032e-14
  70
    32
  0
VERTEX
  8
0
  5
26B6
 10
95.6839
 20
56.8295
 30
-1.26039e-14
  70
    32
  0
VERTEX
  8
0
  5
26B7
 10
95.6659
 20
56.8334
 30
-1.26047e-14
  70
    32
  0
VERTEX
  8
0
  5
26B8
 10
95.6478
 20
56.8373
 30
-1.26055e-14
  70
    32
  0
VERTEX
  8
0
  5
26B9
 10
95.6298
 20
56.8413
 30
-1.26064e-14
  70
    32
  0
VERTEX
  8
0
  5
26BA
 10
95.6118
 20
56.8453
 30
-1.26074e-14
  70
    32
  0
VERTEX
  8
0
  5
26BB
 10
95.5938
 20
56.8494
 30
-1.26085e-14
  70
    32
  0
VERTEX
  8
0
  5
26BC
 10
95.5758
 20
56.8535
 30
-1.26096e-14
  70
    32
  0
VERTEX
  8
0
  5
26BD
 10
95.5578
 20
56.8576
 30
-1.26107e-14
  70
    32
  0
VERTEX
  8
0
  5
26BE
 10
95.5398
 20
56.8618
 30
-1.26119e-14
  70
    32
  0
VERTEX
  8
0
  5
26BF
 10
95.5219
 20
56.8660
 30
-1.26132e-14
  70
    32
  0
VERTEX
  8
0
  5
26C0
 10
95.5039
 20
56.8703
 30
-1.26144e-14
  70
    32
  0
VERTEX
  8
0
  5
26C1
 10
95.4860
 20
56.8746
 30
-1.26158e-14
  70
    32
  0
VERTEX
  8
0
  5
26C2
 10
95.4680
 20
56.8789
 30
-1.26172e-14
  70
    32
  0
VERTEX
  8
0
  5
26C3
 10
95.4501
 20
56.8833
 30
-1.26186e-14
  70
    32
  0
VERTEX
  8
0
  5
26C4
 10
95.4322
 20
56.8877
 30
-1.26201e-14
  70
    32
  0
VERTEX
  8
0
  5
26C5
 10
95.4143
 20
56.8921
 30
-1.26216e-14
  70
    32
  0
VERTEX
  8
0
  5
26C6
 10
95.3964
 20
56.8966
 30
-1.26231e-14
  70
    32
  0
VERTEX
  8
0
  5
26C7
 10
95.3785
 20
56.9012
 30
-1.26247e-14
  70
    32
  0
VERTEX
  8
0
  5
26C8
 10
95.3607
 20
56.9057
 30
-1.26263e-14
  70
    32
  0
VERTEX
  8
0
  5
26C9
 10
95.3428
 20
56.9104
 30
-1.26279e-14
  70
    32
  0
VERTEX
  8
0
  5
26CA
 10
95.3250
 20
56.9150
 30
-1.26296e-14
  70
    32
  0
VERTEX
  8
0
  5
26CB
 10
95.3072
 20
56.9197
 30
-1.26313e-14
  70
    32
  0
VERTEX
  8
0
  5
26CC
 10
95.2894
 20
56.9244
 30
-1.26330e-14
  70
    32
  0
VERTEX
  8
0
  5
26CD
 10
95.2716
 20
56.9292
 30
-1.26347e-14
  70
    32
  0
VERTEX
  8
0
  5
26CE
 10
95.2538
 20
56.9340
 30
-1.26365e-14
  70
    32
  0
VERTEX
  8
0
  5
26CF
 10
95.2360
 20
56.9389
 30
-1.26382e-14
  70
    32
  0
VERTEX
  8
0
  5
26D0
 10
95.2182
 20
56.9437
 30
-1.26400e-14
  70
    32
  0
VERTEX
  8
0
  5
26D1
 10
95.2005
 20
56.9487
 30
-1.26418e-14
  70
    32
  0
VERTEX
  8
0
  5
26D2
 10
95.1828
 20
56.9536
 30
-1.26436e-14
  70
    32
  0
VERTEX
  8
0
  5
26D3
 10
95.1651
 20
56.9586
 30
-1.26454e-14
  70
    32
  0
VERTEX
  8
0
  5
26D4
 10
95.1474
 20
56.9637
 30
-1.26472e-14
  70
    32
  0
VERTEX
  8
0
  5
26D5
 10
95.1297
 20
56.9687
 30
-1.26490e-14
  70
    32
  0
VERTEX
  8
0
  5
26D6
 10
95.1120
 20
56.9739
 30
-1.26508e-14
  70
    32
  0
VERTEX
  8
0
  5
26D7
 10
95.0943
 20
56.9790
 30
-1.26526e-14
  70
    32
  0
VERTEX
  8
0
  5
26D8
 10
95.0767
 20
56.9842
 30
-1.26544e-14
  70
    32
  0
VERTEX
  8
0
  5
26D9
 10
95.0591
 20
56.9894
 30
-1.26562e-14
  70
    32
  0
VERTEX
  8
0
  5
26DA
 10
95.0415
 20
56.9947
 30
-1.26580e-14
  70
    32
  0
VERTEX
  8
0
  5
26DB
 10
95.0239
 20
57.0000
 30
-1.26598e-14
  70
    32
  0
VERTEX
  8
0
  5
26DC
 10
95.0063
 20
57.0053
 30
-1.26616e-14
  70
    32
  0
VERTEX
  8
0
  5
26DD
 10
94.9887
 20
57.0107
 30
-1.26634e-14
  70
    32
  0
VERTEX
  8
0
  5
26DE
 10
94.9712
 20
57.0161
 30
-1.26651e-14
  70
    32
  0
VERTEX
  8
0
  5
26DF
 10
94.9536
 20
57.0216
 30
-1.26668e-14
  70
    32
  0
VERTEX
  8
0
  5
26E0
 10
94.9361
 20
57.0271
 30
-1.26685e-14
  70
    32
  0
VERTEX
  8
0
  5
26E1
 10
94.9186
 20
57.0326
 30
-1.26702e-14
  70
    32
  0
VERTEX
  8
0
  5
26E2
 10
94.9011
 20
57.0381
 30
-1.26719e-14
  70
    32
  0
VERTEX
  8
0
  5
26E3
 10
94.8837
 20
57.0437
 30
-1.26735e-14
  70
    32
  0
VERTEX
  8
0
  5
26E4
 10
94.8662
 20
57.0494
 30
-1.26751e-14
  70
    32
  0
VERTEX
  8
0
  5
26E5
 10
94.8488
 20
57.0551
 30
-1.26767e-14
  70
    32
  0
VERTEX
  8
0
  5
26E6
 10
94.8314
 20
57.0608
 30
-1.26783e-14
  70
    32
  0
VERTEX
  8
0
  5
26E7
 10
94.8140
 20
57.0665
 30
-1.26798e-14
  70
    32
  0
VERTEX
  8
0
  5
26E8
 10
94.7966
 20
57.0723
 30
-1.26812e-14
  70
    32
  0
VERTEX
  8
0
  5
26E9
 10
94.7792
 20
57.0781
 30
-1.26827e-14
  70
    32
  0
VERTEX
  8
0
  5
26EA
 10
94.7619
 20
57.0840
 30
-1.26841e-14
  70
    32
  0
VERTEX
  8
0
  5
26EB
 10
94.7445
 20
57.0899
 30
-1.26854e-14
  70
    32
  0
VERTEX
  8
0
  5
26EC
 10
94.7272
 20
57.0958
 30
-1.26867e-14
  70
    32
  0
VERTEX
  8
0
  5
26ED
 10
94.7099
 20
57.1017
 30
-1.26880e-14
  70
    32
  0
VERTEX
  8
0
  5
26EE
 10
94.6927
 20
57.1077
 30
-1.26892e-14
  70
    32
  0
VERTEX
  8
0
  5
26EF
 10
94.6754
 20
57.1138
 30
-1.26903e-14
  70
    32
  0
VERTEX
  8
0
  5
26F0
 10
94.6582
 20
57.1198
 30
-1.26914e-14
  70
    32
  0
VERTEX
  8
0
  5
26F1
 10
94.6410
 20
57.1259
 30
-1.26925e-14
  70
    32
  0
VERTEX
  8
0
  5
26F2
 10
94.6238
 20
57.1321
 30
-1.26935e-14
  70
    32
  0
VERTEX
  8
0
  5
26F3
 10
94.6066
 20
57.1383
 30
-1.26944e-14
  70
    32
  0
VERTEX
  8
0
  5
26F4
 10
94.5894
 20
57.1445
 30
-1.26952e-14
  70
    32
  0
VERTEX
  8
0
  5
26F5
 10
94.5723
 20
57.1507
 30
-1.26960e-14
  70
    32
  0
VERTEX
  8
0
  5
26F6
 10
94.5552
 20
57.1570
 30
-1.26968e-14
  70
    32
  0
VERTEX
  8
0
  5
26F7
 10
94.5381
 20
57.1633
 30
-1.26974e-14
  70
    32
  0
VERTEX
  8
0
  5
26F8
 10
94.5210
 20
57.1696
 30
-1.26980e-14
  70
    32
  0
VERTEX
  8
0
  5
26F9
 10
94.5039
 20
57.1760
 30
-1.26985e-14
  70
    32
  0
VERTEX
  8
0
  5
26FA
 10
94.4869
 20
57.1824
 30
-1.26990e-14
  70
    32
  0
VERTEX
  8
0
  5
26FB
 10
94.4699
 20
57.1889
 30
-1.26994e-14
  70
    32
  0
VERTEX
  8
0
  5
26FC
 10
94.4529
 20
57.1954
 30
-1.26996e-14
  70
    32
  0
VERTEX
  8
0
  5
26FD
 10
94.4359
 20
57.2019
 30
-1.26998e-14
  70
    32
  0
VERTEX
  8
0
  5
26FE
 10
94.4190
 20
57.2085
 30
-1.27000e-14
  70
    32
  0
VERTEX
  8
0
  5
26FF
 10
94.4020
 20
57.2150
 30
-1.27000e-14
  70
    32
  0
VERTEX
  8
0
  5
2700
 10
94.3851
 20
57.2217
 30
-1.27001e-14
  70
    32
  0
VERTEX
  8
0
  5
2701
 10
94.3682
 20
57.2283
 30
-1.27004e-14
  70
    32
  0
VERTEX
  8
0
  5
2702
 10
94.3514
 20
57.2350
 30
-1.27008e-14
  70
    32
  0
VERTEX
  8
0
  5
2703
 10
94.3345
 20
57.2417
 30
-1.27014e-14
  70
    32
  0
VERTEX
  8
0
  5
2704
 10
94.3177
 20
57.2485
 30
-1.27022e-14
  70
    32
  0
VERTEX
  8
0
  5
2705
 10
94.3009
 20
57.2553
 30
-1.27031e-14
  70
    32
  0
VERTEX
  8
0
  5
2706
 10
94.2841
 20
57.2621
 30
-1.27041e-14
  70
    32
  0
VERTEX
  8
0
  5
2707
 10
94.2673
 20
57.2690
 30
-1.27053e-14
  70
    32
  0
VERTEX
  8
0
  5
2708
 10
94.2506
 20
57.2758
 30
-1.27066e-14
  70
    32
  0
VERTEX
  8
0
  5
2709
 10
94.2339
 20
57.2828
 30
-1.27080e-14
  70
    32
  0
VERTEX
  8
0
  5
270A
 10
94.2172
 20
57.2897
 30
-1.27096e-14
  70
    32
  0
VERTEX
  8
0
  5
270B
 10
94.2005
 20
57.2967
 30
-1.27112e-14
  70
    32
  0
VERTEX
  8
0
  5
270C
 10
94.1838
 20
57.3037
 30
-1.27130e-14
  70
    32
  0
VERTEX
  8
0
  5
270D
 10
94.1672
 20
57.3108
 30
-1.27148e-14
  70
    32
  0
VERTEX
  8
0
  5
270E
 10
94.1506
 20
57.3179
 30
-1.27167e-14
  70
    32
  0
VERTEX
  8
0
  5
270F
 10
94.1340
 20
57.3250
 30
-1.27188e-14
  70
    32
  0
VERTEX
  8
0
  5
2710
 10
94.1174
 20
57.3321
 30
-1.27209e-14
  70
    32
  0
VERTEX
  8
0
  5
2711
 10
94.1009
 20
57.3393
 30
-1.27231e-14
  70
    32
  0
VERTEX
  8
0
  5
2712
 10
94.0844
 20
57.3465
 30
-1.27253e-14
  70
    32
  0
VERTEX
  8
0
  5
2713
 10
94.0679
 20
57.3537
 30
-1.27276e-14
  70
    32
  0
VERTEX
  8
0
  5
2714
 10
94.0514
 20
57.3610
 30
-1.27300e-14
  70
    32
  0
VERTEX
  8
0
  5
2715
 10
94.0349
 20
57.3683
 30
-1.27324e-14
  70
    32
  0
VERTEX
  8
0
  5
2716
 10
94.0185
 20
57.3756
 30
-1.27348e-14
  70
    32
  0
VERTEX
  8
0
  5
2717
 10
94.0021
 20
57.3830
 30
-1.27373e-14
  70
    32
  0
VERTEX
  8
0
  5
2718
 10
93.9857
 20
57.3904
 30
-1.27399e-14
  70
    32
  0
VERTEX
  8
0
  5
2719
 10
93.9694
 20
57.3978
 30
-1.27424e-14
  70
    32
  0
VERTEX
  8
0
  5
271A
 10
93.9530
 20
57.4053
 30
-1.27450e-14
  70
    32
  0
VERTEX
  8
0
  5
271B
 10
93.9367
 20
57.4127
 30
-1.27475e-14
  70
    32
  0
VERTEX
  8
0
  5
271C
 10
93.9204
 20
57.4203
 30
-1.27501e-14
  70
    32
  0
VERTEX
  8
0
  5
271D
 10
93.9042
 20
57.4278
 30
-1.27527e-14
  70
    32
  0
VERTEX
  8
0
  5
271E
 10
93.8879
 20
57.4354
 30
-1.27553e-14
  70
    32
  0
VERTEX
  8
0
  5
271F
 10
93.8717
 20
57.4430
 30
-1.27578e-14
  70
    32
  0
VERTEX
  8
0
  5
2720
 10
93.8555
 20
57.4506
 30
-1.27604e-14
  70
    32
  0
VERTEX
  8
0
  5
2721
 10
93.8394
 20
57.4582
 30
-1.27629e-14
  70
    32
  0
VERTEX
  8
0
  5
2722
 10
93.8232
 20
57.4659
 30
-1.27654e-14
  70
    32
  0
VERTEX
  8
0
  5
2723
 10
93.8071
 20
57.4737
 30
-1.27678e-14
  70
    32
  0
VERTEX
  8
0
  5
2724
 10
93.7910
 20
57.4814
 30
-1.27702e-14
  70
    32
  0
VERTEX
  8
0
  5
2725
 10
93.7749
 20
57.4892
 30
-1.27726e-14
  70
    32
  0
VERTEX
  8
0
  5
2726
 10
93.7589
 20
57.4970
 30
-1.27749e-14
  70
    32
  0
VERTEX
  8
0
  5
2727
 10
93.7429
 20
57.5048
 30
-1.27771e-14
  70
    32
  0
VERTEX
  8
0
  5
2728
 10
93.7269
 20
57.5127
 30
-1.27793e-14
  70
    32
  0
VERTEX
  8
0
  5
2729
 10
93.7109
 20
57.5205
 30
-1.27814e-14
  70
    32
  0
VERTEX
  8
0
  5
272A
 10
93.6950
 20
57.5285
 30
-1.27834e-14
  70
    32
  0
VERTEX
  8
0
  5
272B
 10
93.6791
 20
57.5364
 30
-1.27854e-14
  70
    32
  0
VERTEX
  8
0
  5
272C
 10
93.6632
 20
57.5444
 30
-1.27872e-14
  70
    32
  0
VERTEX
  8
0
  5
272D
 10
93.6473
 20
57.5524
 30
-1.27890e-14
  70
    32
  0
VERTEX
  8
0
  5
272E
 10
93.6315
 20
57.5604
 30
-1.27906e-14
  70
    32
  0
VERTEX
  8
0
  5
272F
 10
93.6157
 20
57.5684
 30
-1.27921e-14
  70
    32
  0
VERTEX
  8
0
  5
2730
 10
93.5999
 20
57.5765
 30
-1.27935e-14
  70
    32
  0
VERTEX
  8
0
  5
2731
 10
93.5841
 20
57.5846
 30
-1.27948e-14
  70
    32
  0
VERTEX
  8
0
  5
2732
 10
93.5684
 20
57.5927
 30
-1.27960e-14
  70
    32
  0
VERTEX
  8
0
  5
2733
 10
93.5527
 20
57.6009
 30
-1.27970e-14
  70
    32
  0
VERTEX
  8
0
  5
2734
 10
93.5370
 20
57.6091
 30
-1.27979e-14
  70
    32
  0
VERTEX
  8
0
  5
2735
 10
93.5214
 20
57.6173
 30
-1.27986e-14
  70
    32
  0
VERTEX
  8
0
  5
2736
 10
93.5058
 20
57.6255
 30
-1.27992e-14
  70
    32
  0
VERTEX
  8
0
  5
2737
 10
93.4902
 20
57.6338
 30
-1.27997e-14
  70
    32
  0
VERTEX
  8
0
  5
2738
 10
93.4746
 20
57.6420
 30
-1.27999e-14
  70
    32
  0
VERTEX
  8
0
  5
2739
 10
93.4591
 20
57.6503
 30
-1.28000e-14
  70
    32
  0
SEQEND
  8
0
  5
273A
  0
POLYLINE
  8
0
  5
273B
  66
     1
 10
0.000000
 20
0.000000
 30
0.000000
  70
     8
  0
VERTEX
  8
0
  5
273C
 10
25.4754
 20
57.6503
 30
-1.28000e-14
  70
    32
  0
VERTEX
  8
0
  5
273D
 10
25.4819
 20
57.6431
 30
-1.27999e-14
  70
    32
  0
VERTEX
  8
0
  5
273E
 10
25.4885
 20
57.6358
 30
-1.27997e-14
  70
    32
  0
VERTEX
  8
0
  5
273F
 10
25.4950
 20
57.6286
 30
-1.27994e-14
  70
    32
  0
VERTEX
  8
0
  5
2740
 10
25.5015
 20
57.6213
 30
-1.27990e-14
  70
    32
  0
VERTEX
  8
0
  5
2741
 10
25.5080
 20
57.6141
 30
-1.27984e-14
  70
    32
  0
VERTEX
  8
0
  5
2742
 10
25.5144
 20
57.6069
 30
-1.27977e-14
  70
    32
  0
VERTEX
  8
0
  5
2743
 10
25.5209
 20
57.5998
 30
-1.27969e-14
  70
    32
  0
VERTEX
  8
0
  5
2744
 10
25.5273
 20
57.5926
 30
-1.27960e-14
  70
    32
  0
VERTEX
  8
0
  5
2745
 10
25.5337
 20
57.5855
 30
-1.27950e-14
  70
    32
  0
VERTEX
  8
0
  5
2746
 10
25.5401
 20
57.5784
 30
-1.27939e-14
  70
    32
  0
VERTEX
  8
0
  5
2747
 10
25.5465
 20
57.5713
 30
-1.27927e-14
  70
    32
  0
VERTEX
  8
0
  5
2748
 10
25.5528
 20
57.5643
 30
-1.27914e-14
  70
    32
  0
VERTEX
  8
0
  5
2749
 10
25.5592
 20
57.5572
 30
-1.27900e-14
  70
    32
  0
VERTEX
  8
0
  5
274A
 10
25.5655
 20
57.5502
 30
-1.27885e-14
  70
    32
  0
VERTEX
  8
0
  5
274B
 10
25.5718
 20
57.5432
 30
-1.27870e-14
  70
    32
  0
VERTEX
  8
0
  5
274C
 10
25.5780
 20
57.5362
 30
-1.27853e-14
  70
    32
  0
VERTEX
  8
0
  5
274D
 10
25.5843
 20
57.5292
 30
-1.27836e-14
  70
    32
  0
VERTEX
  8
0
  5
274E
 10
25.5905
 20
57.5223
 30
-1.27819e-14
  70
    32
  0
VERTEX
  8
0
  5
274F
 10
25.5967
 20
57.5154
 30
-1.27801e-14
  70
    32
  0
VERTEX
  8
0
  5
2750
 10
25.6029
 20
57.5085
 30
-1.27782e-14
  70
    32
  0
VERTEX
  8
0
  5
2751
 10
25.6091
 20
57.5016
 30
-1.27762e-14
  70
    32
  0
VERTEX
  8
0
  5
2752
 10
25.6153
 20
57.4948
 30
-1.27743e-14
  70
    32
  0
VERTEX
  8
0
  5
2753
 10
25.6214
 20
57.4879
 30
-1.27722e-14
  70
    32
  0
VERTEX
  8
0
  5
2754
 10
25.6275
 20
57.4811
 30
-1.27702e-14
  70
    32
  0
VERTEX
  8
0
  5
2755
 10
25.6336
 20
57.4743
 30
-1.27681e-14
  70
    32
  0
VERTEX
  8
0
  5
2756
 10
25.6397
 20
57.4676
 30
-1.27659e-14
  70
    32
  0
VERTEX
  8
0
  5
2757
 10
25.6457
 20
57.4608
 30
-1.27637e-14
  70
    32
  0
VERTEX
  8
0
  5
2758
 10
25.6518
 20
57.4541
 30
-1.27615e-14
  70
    32
  0
VERTEX
  8
0
  5
2759
 10
25.6578
 20
57.4474
 30
-1.27593e-14
  70
    32
  0
VERTEX
  8
0
  5
275A
 10
25.6638
 20
57.4407
 30
-1.27571e-14
  70
    32
  0
VERTEX
  8
0
  5
275B
 10
25.6697
 20
57.4341
 30
-1.27548e-14
  70
    32
  0
VERTEX
  8
0
  5
275C
 10
25.6757
 20
57.4274
 30
-1.27526e-14
  70
    32
  0
VERTEX
  8
0
  5
275D
 10
25.6816
 20
57.4208
 30
-1.27503e-14
  70
    32
  0
VERTEX
  8
0
  5
275E
 10
25.6875
 20
57.4142
 30
-1.27481e-14
  70
    32
  0
VERTEX
  8
0
  5
275F
 10
25.6934
 20
57.4077
 30
-1.27458e-14
  70
    32
  0
VERTEX
  8
0
  5
2760
 10
25.6993
 20
57.4011
 30
-1.27435e-14
  70
    32
  0
VERTEX
  8
0
  5
2761
 10
25.7051
 20
57.3946
 30
-1.27413e-14
  70
    32
  0
VERTEX
  8
0
  5
2762
 10
25.7110
 20
57.3881
 30
-1.27391e-14
  70
    32
  0
VERTEX
  8
0
  5
2763
 10
25.7168
 20
57.3816
 30
-1.27369e-14
  70
    32
  0
VERTEX
  8
0
  5
2764
 10
25.7225
 20
57.3752
 30
-1.27347e-14
  70
    32
  0
VERTEX
  8
0
  5
2765
 10
25.7283
 20
57.3688
 30
-1.27326e-14
  70
    32
  0
VERTEX
  8
0
  5
2766
 10
25.7340
 20
57.3624
 30
-1.27304e-14
  70
    32
  0
VERTEX
  8
0
  5
2767
 10
25.7398
 20
57.3560
 30
-1.27283e-14
  70
    32
  0
VERTEX
  8
0
  5
2768
 10
25.7455
 20
57.3496
 30
-1.27263e-14
  70
    32
  0
VERTEX
  8
0
  5
2769
 10
25.7511
 20
57.3433
 30
-1.27243e-14
  70
    32
  0
VERTEX
  8
0
  5
276A
 10
25.7568
 20
57.3370
 30
-1.27224e-14
  70
    32
  0
VERTEX
  8
0
  5
276B
 10
25.7624
 20
57.3307
 30
-1.27205e-14
  70
    32
  0
VERTEX
  8
0
  5
276C
 10
25.7680
 20
57.3245
 30
-1.27186e-14
  70
    32
  0
VERTEX
  8
0
  5
276D
 10
25.7736
 20
57.3182
 30
-1.27169e-14
  70
    32
  0
VERTEX
  8
0
  5
276E
 10
25.7792
 20
57.3120
 30
-1.27151e-14
  70
    32
  0
VERTEX
  8
0
  5
276F
 10
25.7847
 20
57.3058
 30
-1.27135e-14
  70
    32
  0
VERTEX
  8
0
  5
2770
 10
25.7902
 20
57.2997
 30
-1.27119e-14
  70
    32
  0
VERTEX
  8
0
  5
2771
 10
25.7957
 20
57.2935
 30
-1.27104e-14
  70
    32
  0
VERTEX
  8
0
  5
2772
 10
25.8012
 20
57.2874
 30
-1.27090e-14
  70
    32
  0
VERTEX
  8
0
  5
2773
 10
25.8066
 20
57.2813
 30
-1.27077e-14
  70
    32
  0
VERTEX
  8
0
  5
2774
 10
25.8121
 20
57.2753
 30
-1.27065e-14
  70
    32
  0
VERTEX
  8
0
  5
2775
 10
25.8175
 20
57.2692
 30
-1.27053e-14
  70
    32
  0
VERTEX
  8
0
  5
2776
 10
25.8229
 20
57.2632
 30
-1.27043e-14
  70
    32
  0
VERTEX
  8
0
  5
2777
 10
25.8282
 20
57.2572
 30
-1.27034e-14
  70
    32
  0
VERTEX
  8
0
  5
2778
 10
25.8336
 20
57.2513
 30
-1.27025e-14
  70
    32
  0
VERTEX
  8
0
  5
2779
 10
25.8389
 20
57.2453
 30
-1.27018e-14
  70
    32
  0
VERTEX
  8
0
  5
277A
 10
25.8442
 20
57.2394
 30
-1.27012e-14
  70
    32
  0
VERTEX
  8
0
  5
277B
 10
25.8494
 20
57.2336
 30
-1.27007e-14
  70
    32
  0
VERTEX
  8
0
  5
277C
 10
25.8547
 20
57.2277
 30
-1.27003e-14
  70
    32
  0
VERTEX
  8
0
  5
277D
 10
25.8599
 20
57.2219
 30
-1.27001e-14
  70
    32
  0
VERTEX
  8
0
  5
277E
 10
25.8651
 20
57.2161
 30
-1.27000e-14
  70
    32
  0
VERTEX
  8
0
  5
277F
 10
25.8702
 20
57.2103
 30
-1.27000e-14
  70
    32
  0
VERTEX
  8
0
  5
2780
 10
25.8754
 20
57.2045
 30
-1.26999e-14
  70
    32
  0
VERTEX
  8
0
  5
2781
 10
25.8805
 20
57.1988
 30
-1.26998e-14
  70
    32
  0
VERTEX
  8
0
  5
2782
 10
25.8856
 20
57.1931
 30
-1.26995e-14
  70
    32
  0
VERTEX
  8
0
  5
2783
 10
25.8907
 20
57.1874
 30
-1.26993e-14
  70
    32
  0
VERTEX
  8
0
  5
2784
 10
25.8957
 20
57.1818
 30
-1.26989e-14
  70
    32
  0
VERTEX
  8
0
  5
2785
 10
25.9008
 20
57.1761
 30
-1.26986e-14
  70
    32
  0
VERTEX
  8
0
  5
2786
 10
25.9058
 20
57.1705
 30
-1.26981e-14
  70
    32
  0
VERTEX
  8
0
  5
2787
 10
25.9108
 20
57.1650
 30
-1.26976e-14
  70
    32
  0
VERTEX
  8
0
  5
2788
 10
25.9157
 20
57.1594
 30
-1.26970e-14
  70
    32
  0
VERTEX
  8
0
  5
2789
 10
25.9206
 20
57.1539
 30
-1.26964e-14
  70
    32
  0
VERTEX
  8
0
  5
278A
 10
25.9255
 20
57.1484
 30
-1.26958e-14
  70
    32
  0
VERTEX
  8
0
  5
278B
 10
25.9304
 20
57.1430
 30
-1.26950e-14
  70
    32
  0
VERTEX
  8
0
  5
278C
 10
25.9353
 20
57.1375
 30
-1.26943e-14
  70
    32
  0
VERTEX
  8
0
  5
278D
 10
25.9401
 20
57.1321
 30
-1.26935e-14
  70
    32
  0
VERTEX
  8
0
  5
278E
 10
25.9449
 20
57.1267
 30
-1.26926e-14
  70
    32
  0
VERTEX
  8
0
  5
278F
 10
25.9497
 20
57.1214
 30
-1.26917e-14
  70
    32
  0
VERTEX
  8
0
  5
2790
 10
25.9545
 20
57.1160
 30
-1.26907e-14
  70
    32
  0
VERTEX
  8
0
  5
2791
 10
25.9592
 20
57.1107
 30
-1.26898e-14
  70
    32
  0
VERTEX
  8
0
  5
2792
 10
25.9639
 20
57.1055
 30
-1.26887e-14
  70
    32
  0
VERTEX
  8
0
  5
2793
 10
25.9686
 20
57.1002
 30
-1.26877e-14
  70
    32
  0
VERTEX
  8
0
  5
2794
 10
25.9733
 20
57.0950
 30
-1.26865e-14
  70
    32
  0
VERTEX
  8
0
  5
2795
 10
25.9779
 20
57.0898
 30
-1.26854e-14
  70
    32
  0
VERTEX
  8
0
  5
2796
 10
25.9825
 20
57.0847
 30
-1.26842e-14
  70
    32
  0
VERTEX
  8
0
  5
2797
 10
25.9871
 20
57.0795
 30
-1.26830e-14
  70
    32
  0
VERTEX
  8
0
  5
2798
 10
25.9917
 20
57.0744
 30
-1.26818e-14
  70
    32
  0
VERTEX
  8
0
  5
2799
 10
25.9962
 20
57.0693
 30
-1.26805e-14
  70
    32
  0
VERTEX
  8
0
  5
279A
 10
26.0007
 20
57.0643
 30
-1.26792e-14
  70
    32
  0
VERTEX
  8
0
  5
279B
 10
26.0052
 20
57.0593
 30
-1.26779e-14
  70
    32
  0
VERTEX
  8
0
  5
279C
 10
26.0097
 20
57.0543
 30
-1.26765e-14
  70
    32
  0
VERTEX
  8
0
  5
279D
 10
26.0141
 20
57.0493
 30
-1.26751e-14
  70
    32
  0
VERTEX
  8
0
  5
279E
 10
26.0185
 20
57.0443
 30
-1.26737e-14
  70
    32
  0
VERTEX
  8
0
  5
279F
 10
26.0229
 20
57.0394
 30
-1.26723e-14
  70
    32
  0
VERTEX
  8
0
  5
27A0
 10
26.0272
 20
57.0345
 30
-1.26708e-14
  70
    32
  0
VERTEX
  8
0
  5
27A1
 10
26.0316
 20
57.0297
 30
-1.26694e-14
  70
    32
  0
VERTEX
  8
0
  5
27A2
 10
26.0359
 20
57.0249
 30
-1.26679e-14
  70
    32
  0
VERTEX
  8
0
  5
27A3
 10
26.0402
 20
57.0201
 30
-1.26664e-14
  70
    32
  0
VERTEX
  8
0
  5
27A4
 10
26.0444
 20
57.0153
 30
-1.26648e-14
  70
    32
  0
VERTEX
  8
0
  5
27A5
 10
26.0487
 20
57.0105
 30
-1.26633e-14
  70
    32
  0
VERTEX
  8
0
  5
27A6
 10
26.0529
 20
57.0058
 30
-1.26618e-14
  70
    32
  0
VERTEX
  8
0
  5
27A7
 10
26.0570
 20
57.0011
 30
-1.26602e-14
  70
    32
  0
VERTEX
  8
0
  5
27A8
 10
26.0612
 20
56.9965
 30
-1.26586e-14
  70
    32
  0
VERTEX
  8
0
  5
27A9
 10
26.0653
 20
56.9919
 30
-1.26571e-14
  70
    32
  0
VERTEX
  8
0
  5
27AA
 10
26.0694
 20
56.9873
 30
-1.26555e-14
  70
    32
  0
VERTEX
  8
0
  5
27AB
 10
26.0735
 20
56.9827
 30
-1.26539e-14
  70
    32
  0
VERTEX
  8
0
  5
27AC
 10
26.0775
 20
56.9782
 30
-1.26523e-14
  70
    32
  0
VERTEX
  8
0
  5
27AD
 10
26.0816
 20
56.9736
 30
-1.26507e-14
  70
    32
  0
VERTEX
  8
0
  5
27AE
 10
26.0856
 20
56.9692
 30
-1.26491e-14
  70
    32
  0
VERTEX
  8
0
  5
27AF
 10
26.0895
 20
56.9647
 30
-1.26476e-14
  70
    32
  0
VERTEX
  8
0
  5
27B0
 10
26.0935
 20
56.9603
 30
-1.26460e-14
  70
    32
  0
VERTEX
  8
0
  5
27B1
 10
26.0974
 20
56.9559
 30
-1.26444e-14
  70
    32
  0
VERTEX
  8
0
  5
27B2
 10
26.1013
 20
56.9515
 30
-1.26428e-14
  70
    32
  0
VERTEX
  8
0
  5
27B3
 10
26.1052
 20
56.9472
 30
-1.26412e-14
  70
    32
  0
VERTEX
  8
0
  5
27B4
 10
26.1090
 20
56.9429
 30
-1.26397e-14
  70
    32
  0
VERTEX
  8
0
  5
27B5
 10
26.1128
 20
56.9386
 30
-1.26381e-14
  70
    32
  0
VERTEX
  8
0
  5
27B6
 10
26.1166
 20
56.9343
 30
-1.26366e-14
  70
    32
  0
VERTEX
  8
0
  5
27B7
 10
26.1203
 20
56.9301
 30
-1.26350e-14
  70
    32
  0
VERTEX
  8
0
  5
27B8
 10
26.1241
 20
56.9259
 30
-1.26335e-14
  70
    32
  0
VERTEX
  8
0
  5
27B9
 10
26.1278
 20
56.9218
 30
-1.26320e-14
  70
    32
  0
VERTEX
  8
0
  5
27BA
 10
26.1315
 20
56.9177
 30
-1.26305e-14
  70
    32
  0
VERTEX
  8
0
  5
27BB
 10
26.1351
 20
56.9136
 30
-1.26291e-14
  70
    32
  0
VERTEX
  8
0
  5
27BC
 10
26.1387
 20
56.9095
 30
-1.26276e-14
  70
    32
  0
VERTEX
  8
0
  5
27BD
 10
26.1423
 20
56.9054
 30
-1.26262e-14
  70
    32
  0
VERTEX
  8
0
  5
27BE
 10
26.1459
 20
56.9014
 30
-1.26248e-14
  70
    32
  0
VERTEX
  8
0
  5
27BF
 10
26.1494
 20
56.8975
 30
-1.26234e-14
  70
    32
  0
VERTEX
  8
0
  5
27C0
 10
26.1530
 20
56.8935
 30
-1.26220e-14
  70
    32
  0
VERTEX
  8
0
  5
27C1
 10
26.1565
 20
56.8896
 30
-1.26207e-14
  70
    32
  0
VERTEX
  8
0
  5
27C2
 10
26.1599
 20
56.8857
 30
-1.26194e-14
  70
    32
  0
VERTEX
  8
0
  5
27C3
 10
26.1633
 20
56.8818
 30
-1.26181e-14
  70
    32
  0
VERTEX
  8
0
  5
27C4
 10
26.1668
 20
56.8780
 30
-1.26169e-14
  70
    32
  0
VERTEX
  8
0
  5
27C5
 10
26.1701
 20
56.8742
 30
-1.26157e-14
  70
    32
  0
VERTEX
  8
0
  5
27C6
 10
26.1735
 20
56.8705
 30
-1.26145e-14
  70
    32
  0
VERTEX
  8
0
  5
27C7
 10
26.1768
 20
56.8667
 30
-1.26134e-14
  70
    32
  0
VERTEX
  8
0
  5
27C8
 10
26.1801
 20
56.8630
 30
-1.26123e-14
  70
    32
  0
VERTEX
  8
0
  5
27C9
 10
26.1834
 20
56.8593
 30
-1.26112e-14
  70
    32
  0
VERTEX
  8
0
  5
27CA
 10
26.1866
 20
56.8557
 30
-1.26102e-14
  70
    32
  0
VERTEX
  8
0
  5
27CB
 10
26.1898
 20
56.8521
 30
-1.26092e-14
  70
    32
  0
VERTEX
  8
0
  5
27CC
 10
26.1930
 20
56.8485
 30
-1.26082e-14
  70
    32
  0
VERTEX
  8
0
  5
27CD
 10
26.1962
 20
56.8450
 30
-1.26073e-14
  70
    32
  0
VERTEX
  8
0
  5
27CE
 10
26.1993
 20
56.8414
 30
-1.26065e-14
  70
    32
  0
VERTEX
  8
0
  5
27CF
 10
26.2024
 20
56.8380
 30
-1.26057e-14
  70
    32
  0
VERTEX
  8
0
  5
27D0
 10
26.2055
 20
56.8345
 30
-1.26049e-14
  70
    32
  0
VERTEX
  8
0
  5
27D1
 10
26.2085
 20
56.8311
 30
-1.26042e-14
  70
    32
  0
VERTEX
  8
0
  5
27D2
 10
26.2116
 20
56.8277
 30
-1.26035e-14
  70
    32
  0
VERTEX
  8
0
  5
27D3
 10
26.2145
 20
56.8243
 30
-1.26029e-14
  70
    32
  0
VERTEX
  8
0
  5
27D4
 10
26.2175
 20
56.8210
 30
-1.26024e-14
  70
    32
  0
VERTEX
  8
0
  5
27D5
 10
26.2204
 20
56.8177
 30
-1.26019e-14
  70
    32
  0
VERTEX
  8
0
  5
27D6
 10
26.2233
 20
56.8144
 30
-1.26014e-14
  70
    32
  0
VERTEX
  8
0
  5
27D7
 10
26.2262
 20
56.8112
 30
-1.26010e-14
  70
    32
  0
VERTEX
  8
0
  5
27D8
 10
26.2291
 20
56.8080
 30
-1.26007e-14
  70
    32
  0
VERTEX
  8
0
  5
27D9
 10
26.2319
 20
56.8048
 30
-1.26004e-14
  70
    32
  0
VERTEX
  8
0
  5
27DA
 10
26.2347
 20
56.8017
 30
-1.26002e-14
  70
    32
  0
VERTEX
  8
0
  5
27DB
 10
26.2374
 20
56.7986
 30
-1.26001e-14
  70
    32
  0
VERTEX
  8
0
  5
27DC
 10
26.2402
 20
56.7955
 30
-1.26000e-14
  70
    32
  0
VERTEX
  8
0
  5
27DD
 10
26.2429
 20
56.7925
 30
-1.26000e-14
  70
    32
  0
VERTEX
  8
0
  5
27DE
 10
26.2456
 20
56.7895
 30
-1.26000e-14
  70
    32
  0
VERTEX
  8
0
  5
27DF
 10
26.2482
 20
56.7865
 30
-1.26000e-14
  70
    32
  0
VERTEX
  8
0
  5
27E0
 10
26.2508
 20
56.7835
 30
-1.26000e-14
  70
    32
  0
VERTEX
  8
0
  5
27E1
 10
26.2534
 20
56.7806
 30
-1.26000e-14
  70
    32
  0
VERTEX
  8
0
  5
27E2
 10
26.2560
 20
56.7777
 30
-1.26000e-14
  70
    32
  0
VERTEX
  8
0
  5
27E3
 10
26.2585
 20
56.7749
 30
-1.26000e-14
  70
    32
  0
VERTEX
  8
0
  5
27E4
 10
26.2610
 20
56.7721
 30
-1.26000e-14
  70
    32
  0
VERTEX
  8
0
  5
27E5
 10
26.2635
 20
56.7693
 30
-1.26000e-14
  70
    32
  0
VERTEX
  8
0
  5
27E6
 10
26.2659
 20
56.7665
 30
-1.26000e-14
  70
    32
  0
VERTEX
  8
0
  5
27E7
 10
26.2684
 20
56.7638
 30
-1.26000e-14
  70
    32
  0
VERTEX
  8
0
  5
27E8
 10
26.2707
 20
56.7611
 30
-1.26000e-14
  70
    32
  0
VERTEX
  8
0
  5
27E9
 10
26.2731
 20
56.7585
 30
-1.26000e-14
  70
    32
  0
VERTEX
  8
0
  5
27EA
 10
26.2754
 20
56.7559
 30
-1.26000e-14
  70
    32
  0
VERTEX
  8
0
  5
27EB
 10
26.2777
 20
56.7533
 30
-1.26000e-14
  70
    32
  0
VERTEX
  8
0
  5
27EC
 10
26.2800
 20
56.7507
 30
-1.26000e-14
  70
    32
  0
VERTEX
  8
0
  5
27ED
 10
26.2823
 20
56.7482
 30
-1.26000e-14
  70
    32
  0
VERTEX
  8
0
  5
27EE
 10
26.2845
 20
56.7457
 30
-1.26000e-14
  70
    32
  0
VERTEX
  8
0
  5
27EF
 10
26.2867
 20
56.7432
 30
-1.26000e-14
  70
    32
  0
VERTEX
  8
0
  5
27F0
 10
26.2888
 20
56.7408
 30
-1.26000e-14
  70
    32
  0
VERTEX
  8
0
  5
27F1
 10
26.2910
 20
56.7384
 30
-1.26000e-14
  70
    32
  0
VERTEX
  8
0
  5
27F2
 10
26.2931
 20
56.7360
 30
-1.26000e-14
  70
    32
  0
VERTEX
  8
0
  5
27F3
 10
26.2951
 20
56.7337
 30
-1.26000e-14
  70
    32
  0
VERTEX
  8
0
  5
27F4
 10
26.2972
 20
56.7314
 30
-1.26000e-14
  70
    32
  0
VERTEX
  8
0
  5
27F5
 10
26.2992
 20
56.7291
 30
-1.26000e-14
  70
    32
  0
VERTEX
  8
0
  5
27F6
 10
26.3012
 20
56.7269
 30
-1.26000e-14
  70
    32
  0
VERTEX
  8
0
  5
27F7
 10
26.3031
 20
56.7247
 30
-1.26000e-14
  70
    32
  0
VERTEX
  8
0
  5
27F8
 10
26.3051
 20
56.7225
 30
-1.26000e-14
  70
    32
  0
VERTEX
  8
0
  5
27F9
 10
26.3070
 20
56.7204
 30
-1.26000e-14
  70
    32
  0
VERTEX
  8
0
  5
27FA
 10
26.3088
 20
56.7183
 30
-1.26000e-14
  70
    32
  0
VERTEX
  8
0
  5
27FB
 10
26.3107
 20
56.7162
 30
-1.26000e-14
  70
    32
  0
VERTEX
  8
0
  5
27FC
 10
26.3125
 20
56.7142
 30
-1.26000e-14
  70
    32
  0
VERTEX
  8
0
  5
27FD
 10
26.3143
 20
56.7121
 30
-1.26000e-14
  70
    32
  0
VERTEX
  8
0
  5
27FE
 10
26.3160
 20
56.7102
 30
-1.26000e-14
  70
    32
  0
VERTEX
  8
0
  5
27FF
 10
26.3178
 20
56.7082
 30
-1.26000e-14
  70
    32
  0
VERTEX
  8
0
  5
2800
 10
26.3195
 20
56.7063
 30
-1.26000e-14
  70
    32
  0
VERTEX
  8
0
  5
2801
 10
26.3211
 20
56.7044
 30
-1.26000e-14
  70
    32
  0
VERTEX
  8
0
  5
2802
 10
26.3228
 20
56.7026
 30
-1.26000e-14
  70
    32
  0
VERTEX
  8
0
  5
2803
 10
26.3244
 20
56.7008
 30
-1.26000e-14
  70
    32
  0
VERTEX
  8
0
  5
2804
 10
26.3260
 20
56.6990
 30
-1.26000e-14
  70
    32
  0
VERTEX
  8
0
  5
2805
 10
26.3275
 20
56.6972
 30
-1.26000e-14
  70
    32
  0
VERTEX
  8
0
  5
2806
 10
26.3291
 20
56.6955
 30
-1.26000e-14
  70
    32
  0
VERTEX
  8
0
  5
2807
 10
26.3306
 20
56.6938
 30
-1.26000e-14
  70
    32
  0
VERTEX
  8
0
  5
2808
 10
26.3320
 20
56.6922
 30
-1.26000e-14
  70
    32
  0
VERTEX
  8
0
  5
2809
 10
26.3335
 20
56.6905
 30
-1.26000e-14
  70
    32
  0
VERTEX
  8
0
  5
280A
 10
26.3349
 20
56.6889
 30
-1.26000e-14
  70
    32
  0
VERTEX
  8
0
  5
280B
 10
26.3363
 20
56.6874
 30
-1.26000e-14
  70
    32
  0
VERTEX
  8
0
  5
280C
 10
26.3376
 20
56.6858
 30
-1.26000e-14
  70
    32
  0
VERTEX
  8
0
  5
280D
 10
26.3390
 20
56.6844
 30
-1.26000e-14
  70
    32
  0
VERTEX
  8
0
  5
280E
 10
26.3403
 20
56.6829
 30
-1.26000e-14
  70
    32
  0
VERTEX
  8
0
  5
280F
 10
26.3415
 20
56.6815
 30
-1.26000e-14
  70
    32
  0
VERTEX
  8
0
  5
2810
 10
26.3428
 20
56.6801
 30
-1.26000e-14
  70
    32
  0
VERTEX
  8
0
  5
2811
 10
26.3440
 20
56.6787
 30
-1.26000e-14
  70
    32
  0
VERTEX
  8
0
  5
2812
 10
26.3452
 20
56.6774
 30
-1.26000e-14
  70
    32
  0
VERTEX
  8
0
  5
2813
 10
26.3463
 20
56.6761
 30
-1.26000e-14
  70
    32
  0
VERTEX
  8
0
  5
2814
 10
26.3475
 20
56.6748
 30
-1.26000e-14
  70
    32
  0
VERTEX
  8
0
  5
2815
 10
26.3485
 20
56.6735
 30
-1.26000e-14
  70
    32
  0
VERTEX
  8
0
  5
2816
 10
26.3496
 20
56.6723
 30
-1.26000e-14
  70
    32
  0
VERTEX
  8
0
  5
2817
 10
26.3507
 20
56.6712
 30
-1.26000e-14
  70
    32
  0
VERTEX
  8
0
  5
2818
 10
26.3517
 20
56.6700
 30
-1.26000e-14
  70
    32
  0
VERTEX
  8
0
  5
2819
 10
26.3527
 20
56.6689
 30
-1.26000e-14
  70
    32
  0
VERTEX
  8
0
  5
281A
 10
26.3536
 20
56.6678
 30
-1.26000e-14
  70
    32
  0
VERTEX
  8
0
  5
281B
 10
26.3545
 20
56.6668
 30
-1.26000e-14
  70
    32
  0
VERTEX
  8
0
  5
281C
 10
26.3554
 20
56.6658
 30
-1.26000e-14
  70
    32
  0
VERTEX
  8
0
  5
281D
 10
26.3563
 20
56.6648
 30
-1.26000e-14
  70
    32
  0
VERTEX
  8
0
  5
281E
 10
26.3572
 20
56.6639
 30
-1.26000e-14
  70
    32
  0
VERTEX
  8
0
  5
281F
 10
26.3580
 20
56.6629
 30
-1.26000e-14
  70
    32
  0
VERTEX
  8
0
  5
2820
 10
26.3587
 20
56.6621
 30
-1.26000e-14
  70
    32
  0
VERTEX
  8
0
  5
2821
 10
26.3595
 20
56.6612
 30
-1.26000e-14
  70
    32
  0
VERTEX
  8
0
  5
2822
 10
26.3602
 20
56.6604
 30
-1.26000e-14
  70
    32
  0
VERTEX
  8
0
  5
2823
 10
26.3609
 20
56.6596
 30
-1.26000e-14
  70
    32
  0
VERTEX
  8
0
  5
2824
 10
26.3616
 20
56.6588
 30
-1.26000e-14
  70
    32
  0
VERTEX
  8
0
  5
2825
 10
26.3622
 20
56.6581
 30
-1.26000e-14
  70
    32
  0
VERTEX
  8
0
  5
2826
 10
26.3629
 20
56.6574
 30
-1.26000e-14
  70
    32
  0
VERTEX
  8
0
  5
2827
 10
26.3634
 20
56.6568
 30
-1.26000e-14
  70
    32
  0
VERTEX
  8
0
  5
2828
 10
26.3640
 20
56.6561
 30
-1.26000e-14
  70
    32
  0
VERTEX
  8
0
  5
2829
 10
26.3645
 20
56.6556
 30
-1.26000e-14
  70
    32
  0
VERTEX
  8
0
  5
282A
 10
26.3650
 20
56.6550
 30
-1.26000e-14
  70
    32
  0
VERTEX
  8
0
  5
282B
 10
26.3655
 20
56.6545
 30
-1.26000e-14
  70
    32
  0
VERTEX
  8
0
  5
282C
 10
26.3659
 20
56.6540
 30
-1.26000e-14
  70
    32
  0
VERTEX
  8
0
  5
282D
 10
26.3663
 20
56.6535
 30
-1.26000e-14
  70
    32
  0
VERTEX
  8
0
  5
282E
 10
26.3667
 20
56.6531
 30
-1.26000e-14
  70
    32
  0
VERTEX
  8
0
  5
282F
 10
26.3671
 20
56.6527
 30
-1.26000e-14
  70
    32
  0
VERTEX
  8
0
  5
2830
 10
26.3674
 20
56.6523
 30
-1.26000e-14
  70
    32
  0
VERTEX
  8
0
  5
2831
 10
26.3677
 20
56.6520
 30
-1.26000e-14
  70
    32
  0
VERTEX
  8
0
  5
2832
 10
26.3680
 20
56.6516
 30
-1.26000e-14
  70
    32
  0
VERTEX
  8
0
  5
2833
 10
26.3682
 20
56.6514
 30
-1.26000e-14
  70
    32
  0
VERTEX
  8
0
  5
2834
 10
26.3684
 20
56.6511
 30
-1.26000e-14
  70
    32
  0
VERTEX
  8
0
  5
2835
 10
26.3686
 20
56.6509
 30
-1.26000e-14
  70
    32
  0
VERTEX
  8
0
  5
2836
 10
26.3688
 20
56.6507
 30
-1.26000e-14
  70
    32
  0
VERTEX
  8
0
  5
2837
 10
26.3689
 20
56.6506
 30
-1.26000e-14
  70
    32
  0
VERTEX
  8
0
  5
2838
 10
26.3690
 20
56.6505
 30
-1.26000e-14
  70
    32
  0
VERTEX
  8
0
  5
2839
 10
26.3691
 20
56.6504
 30
-1.26000e-14
  70
    32
  0
VERTEX
  8
0
  5
283A
 10
26.3691
 20
56.6504
 30
-1.26000e-14
  70
    32
  0
VERTEX
  8
0
  5
283B
 10
26.3691
 20
56.6503
 30
-1.26000e-14
  70
    32
  0
SEQEND
  8
0
  5
283C
  0
LINE
  5
2042
  8
0
 10
28.3691369365925503
 20
54.6503471930875406
 30
-0.0000000000000121
 11
166.369136936592497
 21
54.6503471930875975
 31
-0.0000000000000121
210
0.0
220
1.0
230
-0.0000000000000002
  0
LINE
  5
2043
  8
0
 10
-2.6308630634074461
 20
74.6503471930874838
 30
-0.0000000000000166
 11
197.369136936592497
 21
74.6503471930875406
 31
-0.0000000000000166
210
0.0
220
1.0
230
-0.0000000000000002
  0
LINE
  5
2044
  8
0
 10
-2.6308630634074461
 20
57.6503471930874767
 30
-0.0000000000000128
 11
197.369136936592497
 21
57.6503471930875406
 31
-0.0000000000000128
210
0.0
220
1.0
230
-0.0000000000000002
  0
ARC
  5
2045
  8
0
 10
-49.9191369365926931
 20
95.2314448619917755
 30
0.0
 40
2.9999999999998428
210
0.0
220
-0.0000000000000002
230
-1.0
 50
179.9999999999994031
 51
201.9247852205413949
  0
ARC
  5
2046
  8
0
 10
-144.8191369365927983
 20
95.2314448619919034
 30
0.0
 40
3.0000000000002842
210
0.0
220
-0.0000000000000002
230
-1.0
 50
338.0752147794593157
 51
359.9999999999984084
  0
LINE
  5
2047
  8
0
 10
141.8191369365925993
 20
104.650347193087498
 30
-0.0000000000000232
 11
141.8191369365925993
 21
95.2314448619918181
 31
-0.0000000000000211
210
0.0
220
1.0
230
-0.0000000000000002
  0
LINE
  5
2048
  8
0
 10
52.9191369365925297
 20
104.650347193087498
 30
-0.0000000000000232
 11
52.9191369365925297
 21
95.2314448619918039
 31
-0.0000000000000211
210
0.0
220
1.0
230
-0.0000000000000002
  0
LINE
  5
2049
  8
0
 10
142.0361124806277076
 20
94.1112775184659682
 30
-0.0000000000000209
 11
147.8514498853103873
 21
79.663234277018347
 31
-0.0000000000000177
210
0.0
220
1.0
230
-0.0000000000000002
  0
LINE
  5
204A
  8
0
 10
52.7021613925573575
 20
94.1112775184659682
 30
-0.0000000000000209
 11
46.8868239878746209
 21
79.6632342770183186
 31
-0.0000000000000177
210
0.0
220
1.0
230
-0.0000000000000002
  0
LINE
  5
204B
  8
0
 10
28.3691369365925503
 20
54.6503471930875406
 30
-0.0000000000000121
 11
26.369136936592561
 21
56.6503471930875406
 31
-0.0000000000000126
210
0.0
220
1.0
230
-0.0000000000000002
  0
LINE
  5
204C
  8
0
 10
166.369136936592497
 20
54.6503471930875833
 30
-0.0000000000000121
 11
168.3691369365926107
 21
56.6503471930876117
 31
-0.0000000000000126
210
0.0
220
1.0
230
-0.0000000000000002
  0
ARC
  5
204D
  8
0
 10
-39.4654254386352434
 20
82.6503471930875264
 30
0.0
 40
8.0000000000000018
210
0.0
220
-0.0000000000000002
230
-1.0
 50
201.9247852205434981
 51
269.9999999999997726
  0
ARC
  5
204E
  8
0
 10
-155.2728484345497861
 20
82.6503471930875264
 30
0.0
 40
7.9999999999999707
210
0.0
220
-0.0000000000000002
230
-1.0
 50
270.0
 51
338.0752147794564166
  0
LINE
  5
204F
  8
0
 10
197.369136936592497
 20
74.6503471930875691
 30
-0.0000000000000166
 11
197.369136936592497
 21
57.6503471930875691
 31
-0.0000000000000128
210
0.0
220
1.0
230
-0.0000000000000002
  0
LINE
  5
2050
  8
0
 10
-2.6308630634074199
 20
74.6503471930874554
 30
-0.0000000000000166
 11
-2.6308630634074142
 21
57.6503471930874696
 31
-0.0000000000000128
210
0.0
220
1.0
230
-0.0000000000000002
  0
LINE
  5
2051
  8
0
  6
VERDECKT
 62
     1
 10
143.6844491476736891
 20
188.974157974302301
 30
-0.000000000000042
 11
51.0538247255113902
 21
188.974157974302301
 31
-0.000000000000042
210
0.0
220
1.0
230
-0.0000000000000002
  0
LINE
  5
2052
  8
0
  6
VERDECKT
 62
     1
 10
140.269136936592389
 20
124.3437475285191027
 30
-0.0000000000000276
 11
140.269136936592389
 21
104.650347193087299
 31
-0.0000000000000232
210
0.0
220
1.0
230
-0.0000000000000002
  0
LINE
  5
2053
  8
0
  6
VERDECKT
 62
     1
 10
54.4691369365926903
 20
124.3437475285191027
 30
-0.0000000000000276
 11
54.4691369365926832
 21
104.650347193087299
 31
-0.0000000000000232
210
0.0
220
1.0
230
-0.0000000000000002
  0
LINE
  5
2054
  8
0
  6
VERDECKT
 62
     1
 10
143.6844491476736039
 20
188.974157974302301
 30
-0.000000000000042
 11
144.714216038435211
 21
186.7658157505524912
 31
-0.0000000000000415
210
0.0
220
1.0
230
-0.0000000000000002
  0
LINE
  5
2055
  8
0
  6
VERDECKT
 62
     1
 10
51.053824725511447
 20
188.974157974302301
 30
-0.000000000000042
 11
50.0240578347498328
 21
186.7658157505524912
 31
-0.0000000000000415
210
0.0
220
1.0
230
-0.0000000000000002
  0
ARC
  5
2056
  8
0
  6
VERDECKT
 62
     1
 10
-123.8691369365939039
 20
177.0455957305167942
 30
0.0
 40
22.9999999999983302
210
0.0
220
-0.0000000000000002
230
-1.0
 50
154.9999999999990052
 51
180.0000000000003979
  0
ARC
  5
2057
  8
0
  6
VERDECKT
 62
     1
 10
-70.8691369365919002
 20
177.0455957305165953
 30
0.0
 40
22.9999999999990798
210
0.0
220
-0.0000000000000002
230
-1.0
 50
0.0000000000001399
 51
25.0000000000005507
  0
LINE
  5
2058
  8
0
  6
VERDECKT
 62
     1
 10
47.8691369365927812
 20
169.9502121541067936
 30
-0.0000000000000377
 11
47.8691369365927812
 21
177.0455957305165953
 31
-0.0000000000000393
210
0.0
220
1.0
230
-0.0000000000000002
  0
LINE
  5
2059
  8
0
  6
VERDECKT
 62
     1
 10
146.8691369365922981
 20
169.9502121541067083
 30
-0.0000000000000377
 11
146.8691369365922981
 21
177.0455957305165953
 31
-0.0000000000000393
210
0.0
220
1.0
230
-0.0000000000000002
  0
ARC
  5
205A
  8
0
  6
VERDECKT
 62
     1
 10
-123.7724524329972979
 20
169.9502121541067083
 30
0.0
 40
23.0966845035950286
210
0.0
220
-0.0000000000000002
230
-1.0
 50
179.9999999999998863
 51
205.3784340094483127
  0
ARC
  5
205B
  8
0
  6
VERDECKT
 62
     1
 10
-70.9658214401868861
 20
169.9502121541065094
 30
0.0
 40
23.096684503594151
210
0.0
220
-0.0000000000000002
230
-1.0
 50
334.6215659905511757
 51
0.0000000000006361
  0
ARC
  5
205C
  8
0
  6
VERDECKT
 62
     1
 10
-156.5437832014121113
 20
154.4043537337715009
 30
0.0
 40
13.1749825984001792
210
0.0
220
-0.0000000000000002
230
-1.0
 50
359.5905992402260267
 51
25.3784340094489984
  0
ARC
  5
205D
  8
0
  6
VERDECKT
 62
     1
 10
-38.1944906717727193
 20
154.4043537337713872
 30
0.0
 40
13.1749825984004101
210
0.0
220
-0.0000000000000002
230
-1.0
 50
154.6215659905510904
 51
180.4094007597732912
  0
LINE
  5
205E
  8
0
  6
VERDECKT
 62
     1
 10
51.3691369365926604
 20
135.039073610504488
 30
-0.00000000000003
 11
51.3691369365926604
 21
154.3102141298923868
 31
-0.0000000000000343
210
0.0
220
1.0
230
-0.0000000000000002
  0
LINE
  5
205F
  8
0
  6
VERDECKT
 62
     1
 10
143.3691369365924118
 20
135.0390736105044027
 30
-0.00000000000003
 11
143.3691369365924118
 21
154.3102141298923868
 31
-0.0000000000000343
210
0.0
220
1.0
230
-0.0000000000000002
  0
ARC
  5
2060
  8
0
  6
VERDECKT
 62
     1
 10
-132.9691369365922071
 20
135.0390736105046017
 30
0.0
 40
10.4000000000001496
210
0.0
220
-0.0000000000000002
230
-1.0
 50
180.0000000000007105
 51
212.3280641221620044
  0
ARC
  5
2061
  8
0
  6
VERDECKT
 62
     1
 10
-61.7691369365925027
 20
135.039073610504488
 30
0.0
 40
10.3999999999997801
210
0.0
220
-0.0000000000000002
230
-1.0
 50
327.6719358778370861
 51
0.0
  0
ARC
  5
2062
  8
0
  6
VERDECKT
 62
     1
 10
-149.8691369365922981
 20
124.3437475285190033
 30
0.0
 40
9.5999999999998522
210
0.0
220
-0.0000000000000002
230
-1.0
 50
359.9999999999992042
 51
32.3280641221625373
  0
ARC
  5
2063
  8
0
  6
VERDECKT
 62
     1
 10
-44.8691369365930797
 20
124.3437475285191027
 30
0.0
 40
9.5999999999995751
210
0.0
220
-0.0000000000000002
230
-1.0
 50
147.6719358778373135
 51
180.0000000000011084
  0
LINE
  5
2064
  8
0
  6
VERDECKT
 62
     1
 10
51.053824725511447
 20
188.974157974302301
 30
-0.000000000000042
 11
49.6037322662527984
 21
189.650347193087498
 31
-0.0000000000000421
210
0.0
220
1.0
230
-0.0000000000000002
  0
LINE
  5
2065
  8
0
  6
VERDECKT
 62
     1
 10
143.6844491476736891
 20
188.9741579743023863
 30
-0.000000000000042
 11
145.134541606932288
 21
189.650347193087498
 31
-0.0000000000000421
210
0.0
220
1.0
230
-0.0000000000000002
  0
LINE
  5
2066
  8
0
  6
VERDECKT
 62
     1
 10
31.8005944416687498
 20
57.6503471930875691
 30
-0.0000000000000128
 11
31.8005944416687498
 21
74.6503471930875691
 31
-0.0000000000000166
210
0.0
220
1.0
230
-0.0000000000000002
  0
LINE
  5
2067
  8
0
  6
VERDECKT
 62
     1
 10
49.8005944416687498
 20
57.6503471930875691
 30
-0.0000000000000128
 11
49.8005944416687498
 21
74.6503471930875691
 31
-0.0000000000000166
210
0.0
220
1.0
230
-0.0000000000000002
  0
LINE
  5
2068
  8
0
  6
VERDECKT
 62
     1
 10
162.9376794315163011
 20
74.6503471930875691
 30
-0.0000000000000166
 11
162.9376794315163011
 21
57.6503471930875691
 31
-0.0000000000000128
210
0.0
220
1.0
230
-0.0000000000000002
  0
LINE
  5
2069
  8
0
  6
VERDECKT
 62
     1
 10
144.9376794315163011
 20
74.6503471930875691
 30
-0.0000000000000166
 11
144.9376794315163011
 21
57.6503471930875691
 31
-0.0000000000000128
210
0.0
220
1.0
230
-0.0000000000000002
  0
LINE
  5
206A
  8
0
  6
VERDECKT
 62
     1
 10
168.369136936592497
 20
56.650347193087633
 30
-0.0000000000000126
 11
168.369136936592497
 21
74.6503471930875691
 31
-0.0000000000000166
210
0.0
220
1.0
230
-0.0000000000000002
  0
LINE
  5
206B
  8
0
  6
VERDECKT
 62
     1
 10
186.369136936592497
 20
57.6503471930875691
 30
-0.0000000000000128
 11
186.369136936592497
 21
74.6503471930875691
 31
-0.0000000000000166
210
0.0
220
1.0
230
-0.0000000000000002
  0
LINE
  5
206C
  8
0
  6
VERDECKT
 62
     1
 10
88.3691369365925539
 20
57.6503471930875691
 30
-0.0000000000000128
 11
88.3691369365925539
 21
74.6503471930875691
 31
-0.0000000000000166
210
0.0
220
1.0
230
-0.0000000000000002
  0
LINE
  5
206D
  8
0
  6
VERDECKT
 62
     1
 10
106.369136936592497
 20
57.6503471930875691
 30
-0.0000000000000128
 11
106.369136936592497
 21
74.6503471930875691
 31
-0.0000000000000166
210
0.0
220
1.0
230
-0.0000000000000002
  0
LINE
  5
206E
  8
0
  6
VERDECKT
 62
     1
 10
26.369136936592561
 20
74.6503471930875691
 30
-0.0000000000000166
 11
26.369136936592561
 21
56.6503471930875406
 31
-0.0000000000000126
210
0.0
220
1.0
230
-0.0000000000000002
  0
LINE
  5
206F
  8
0
  6
VERDECKT
 62
     1
 10
8.3691369365925539
 20
74.6503471930875691
 30
-0.0000000000000166
 11
8.3691369365925539
 21
57.6503471930875691
 31
-0.0000000000000128
210
0.0
220
1.0
230
-0.0000000000000002
  0
LINE
  5
2070
  8
0
  6
VERDECKT
 62
     1
 10
138.6191369365926107
 20
104.650347193087498
 30
-0.0000000000000232
 11
138.6191369365926107
 21
54.6503471930876188
 31
-0.0000000000000121
210
0.0
220
1.0
230
-0.0000000000000002
  0
LINE
  5
2071
  8
0
  6
VERDECKT
 62
     1
 10
56.1191369365925183
 20
104.650347193087498
 30
-0.0000000000000232
 11
56.1191369365925325
 21
54.6503471930876117
 31
-0.0000000000000121
210
0.0
220
1.0
230
-0.0000000000000002
  0
ENDBLK
  5
2073
  8
0
  0
ENDSEC
  0
SECTION
  2
ENTITIES
  0
TEXT
  5
8F
  8
VOLL
 10
78.076754716981128
 20
31.025947764705851
 30
0.0
 40
1.8
  1

  7
GREEKS
  0
INSERT
  5
B3C
  8
ADSK_ASSOC_ENTITY_BACKUPS
  2
*S0
 10
0.0
 20
0.0
 30
0.0
  0
INSERT
  5
2026
  8
STEMPEL
  2
A$C5F009D9B
 10
246.0397362157391115
 20
-86.6986062839790463
 30
-18.3169422989628501
  0
INSERT
  5
2074
  8
STEMPEL
  2
A$C86061B72
 10
246.0397362157391967
 20
-92.7040462948831419
 30
-18.3169422989628501
  0
VIEWPORT
  5
928
 67
     1
  8
0
 10
104.9325357368027056
 20
148.4488398705011889
 30
0.0
 40
533.9969448798291296
 41
299.1239570917758783
 68
     1
 69
     1
1001
ACAD
1000
MVIEW
1002
{
1070
    16
1010
0.0
1020
0.0
1030
0.0
1010
0.0
1020
0.0
1030
1.0
1040
0.0
1040
299.1239570917758783
1040
104.9325357368027056
1040
148.4488398705011889
1040
50.0
1040
0.0
1040
0.0
1070
     0
1070
  1500
1070
     1
1070
     1
1070
     0
1070
     0
1070
     0
1070
     0
1040
0.0
1040
0.0
1040
0.0
1040
10.0
1040
10.0
1040
10.0
1040
10.0
1070
     0
1002
{
1002
}
1002
}
  0
ENDSEC
  0
EOF
