  0
SECTION
  2
HEADER
  9
$ACADVER
  1
AC1009
  9
$INSBASE
 10
0.0
 20
0.0
 30
0.0
  9
$EXTMIN
 10
262.9551870001341172
 20
-243.3122753059271872
 30
-37.4191524712326427
  9
$EXTMAX
 10
447.9551870001341172
 20
93.1389934578355252
 30
-37.4191524712325929
  9
$LIMMIN
 10
0.0
 20
0.0
  9
$LIMMAX
 10
210.0
 20
297.0
  9
$ORTHOMODE
 70
     1
  9
$REGENMODE
 70
     1
  9
$FILLMODE
 70
     1
  9
$QTEXTMODE
 70
     0
  9
$MIRRTEXT
 70
     1
  9
$DRAGMODE
 70
     2
  9
$LTSCALE
 40
10.0
  9
$OSMODE
 70
  2495
  9
$ATTMODE
 70
     1
  9
$TEXTSIZE
 40
3.5
  9
$TRACEWID
 40
0.5
  9
$TEXTSTYLE
  7
STANDARD
  9
$CLAYER
  8
STEMPEL
  9
$CELTYPE
  6
BYLAYER
  9
$CECOLOR
 62
   256
  9
$DIMSCALE
 40
1.0
  9
$DIMASZ
 40
3.5
  9
$DIMEXO
 40
1.0
  9
$DIMDLI
 40
7.0
  9
$DIMRND
 40
0.0
  9
$DIMDLE
 40
0.0
  9
$DIMEXE
 40
1.0
  9
$DIMTP
 40
0.0
  9
$DIMTM
 40
0.0
  9
$DIMTXT
 40
3.5
  9
$DIMCEN
 40
1.5
  9
$DIMTSZ
 40
0.0
  9
$DIMTOL
 70
     0
  9
$DIMLIM
 70
     0
  9
$DIMTIH
 70
     0
  9
$DIMTOH
 70
     0
  9
$DIMSE1
 70
     0
  9
$DIMSE2
 70
     0
  9
$DIMTAD
 70
     1
  9
$DIMZIN
 70
     8
  9
$DIMBLK
  1

  9
$DIMASO
 70
     1
  9
$DIMSHO
 70
     0
  9
$DIMPOST
  1

  9
$DIMAPOST
  1

  9
$DIMALT
 70
     0
  9
$DIMALTD
 70
     2
  9
$DIMALTF
 40
25.3999999999999986
  9
$DIMLFAC
 40
2.0
  9
$DIMTOFL
 70
     1
  9
$DIMTVP
 40
0.0
  9
$DIMTIX
 70
     0
  9
$DIMSOXD
 70
     0
  9
$DIMSAH
 70
     0
  9
$DIMBLK1
  1

  9
$DIMBLK2
  1

  9
$DIMSTYLE
  2
STANDARD
  9
$DIMCLRD
 70
     0
  9
$DIMCLRE
 70
     0
  9
$DIMCLRT
 70
     1
  9
$DIMTFAC
 40
0.5
  9
$DIMGAP
 40
1.5
  9
$LUNITS
 70
     2
  9
$LUPREC
 70
     2
  9
$SKETCHINC
 40
1.0
  9
$FILLETRAD
 40
5.5
  9
$AUNITS
 70
     0
  9
$AUPREC
 70
     0
  9
$MENU
  1
ACAD
  9
$ELEVATION
 40
0.0
  9
$PELEVATION
 40
0.0
  9
$THICKNESS
 40
0.0
  9
$LIMCHECK
 70
     0
  9
$BLIPMODE
 70
     0
  9
$CHAMFERA
 40
2.0
  9
$CHAMFERB
 40
2.0
  9
$SKPOLY
 70
     0
  9
$TDCREATE
 40
2455397.8646990740671754
  9
$TDUPDATE
 40
2459627.4599884259514511
  9
$TDINDWG
 40
0.3155364815
  9
$TDUSRTIMER
 40
0.3155364815
  9
$USRTIMER
 70
     1
  9
$ANGBASE
 50
0.0
  9
$ANGDIR
 70
     0
  9
$PDMODE
 70
     0
  9
$PDSIZE
 40
0.0
  9
$PLINEWID
 40
0.0
  9
$COORDS
 70
     1
  9
$SPLFRAME
 70
     0
  9
$SPLINETYPE
 70
     6
  9
$SPLINESEGS
 70
     8
  9
$ATTDIA
 70
     1
  9
$ATTREQ
 70
     1
  9
$HANDLING
 70
     1
  9
$HANDSEED
  5
2775
  9
$SURFTAB1
 70
     6
  9
$SURFTAB2
 70
     6
  9
$SURFTYPE
 70
     6
  9
$SURFU
 70
     6
  9
$SURFV
 70
     6
  9
$UCSNAME
  2

  9
$UCSORG
 10
0.0
 20
0.0
 30
0.0
  9
$UCSXDIR
 10
1.0
 20
0.0
 30
0.0
  9
$UCSYDIR
 10
0.0
 20
1.0
 30
0.0
  9
$PUCSNAME
  2

  9
$PUCSORG
 10
0.0
 20
0.0
 30
0.0
  9
$PUCSXDIR
 10
1.0
 20
0.0
 30
0.0
  9
$PUCSYDIR
 10
0.0
 20
1.0
 30
0.0
  9
$USERI1
 70
     0
  9
$USERI2
 70
     0
  9
$USERI3
 70
     0
  9
$USERI4
 70
     0
  9
$USERI5
 70
     0
  9
$USERR1
 40
0.0
  9
$USERR2
 40
0.0
  9
$USERR3
 40
0.0
  9
$USERR4
 40
0.0
  9
$USERR5
 40
0.0
  9
$WORLDVIEW
 70
     1
  9
$SHADEDGE
 70
     3
  9
$SHADEDIF
 70
    70
  9
$TILEMODE
 70
     1
  9
$MAXACTVP
 70
    16
  9
$PLIMCHECK
 70
     0
  9
$PEXTMIN
 10
1.0000000000000000E+20
 20
1.0000000000000000E+20
 30
1.0000000000000000E+20
  9
$PEXTMAX
 10
-1.0000000000000000E+20
 20
-1.0000000000000000E+20
 30
-1.0000000000000000E+20
  9
$PLIMMIN
 10
-0.0674642631973264
 20
-0.0511601294987543
  9
$PLIMMAX
 10
209.9325357368026914
 20
296.9488398705012742
  9
$UNITMODE
 70
     0
  9
$VISRETAIN
 70
     0
  9
$PLINEGEN
 70
     0
  9
$PSLTSCALE
 70
     0
  0
ENDSEC
  0
SECTION
  2
TABLES
  0
TABLE
  2
VPORT
 70
     1
  0
VPORT
  2
*ACTIVE
 70
     0
 10
0.0
 20
0.0
 11
1.0
 21
1.0
 12
0.6105755514542182
 22
-45.1129158448643679
 13
0.0
 23
0.0
 14
1.0
 24
1.0
 15
10.0
 25
10.0
 16
-0.0000000000001705
 26
0.0
 36
773.3146488786810551
 17
354.8446114486799274
 27
-29.9737250791814311
 37
-18.7095762356162894
 40
338.8573565022401795
 41
1.7852028639618129
 42
50.0
 43
0.0
 44
0.0
 50
0.0
 51
0.0
 71
     0
 72
  1500
 73
     1
 74
     0
 75
     0
 76
     0
 77
     0
 78
     0
  0
ENDTAB
  0
TABLE
  2
LTYPE
 70
     6
  0
LTYPE
  2
CONTINUOUS
 70
     0
  3
Solid line
 72
    65
 73
     0
 40
0.0
  0
LTYPE
  2
PHANTOM2
 70
     0
  3
Phantom (.5x) ___ _ _ ___ _ _ ___ _ _ ___ _ _
 72
    65
 73
     6
 40
1.25
 49
0.625
 49
-0.125
 49
0.125
 49
-0.125
 49
0.125
 49
-0.125
  0
LTYPE
  2
VERDECKT
 70
     0
  3
Verdeckt __ __ __ __ __ __ __ __ __ __ __ __ __
 72
    65
 73
     2
 40
0.375
 49
0.25
 49
-0.125
  0
ENDTAB
  0
TABLE
  2
LAYER
 70
    13
  0
LAYER
  2
0
 70
     0
 62
     7
  6
CONTINUOUS
  0
LAYER
  2
VOLL
 70
     0
 62
     1
  6
CONTINUOUS
  0
LAYER
  2
STEMPEL
 70
     0
 62
     3
  6
CONTINUOUS
  0
LAYER
  2
DEFPOINTS
 70
     0
 62
     7
  6
CONTINUOUS
  0
LAYER
  2
ADSK_ASSOC_ENTITY_BACKUPS
 70
     1
 62
    -7
  6
CONTINUOUS
  0
ENDTAB
  0
TABLE
  2
STYLE
 70
     4
  0
STYLE
  2
STANDARD
 70
     0
 40
0.0
 41
0.8
 50
0.0
 71
     0
 42
3.5
  3
simplex.shx
  4

  0
STYLE
  2
GREEKS
 70
     0
 40
0.0
 41
0.8
 50
0.0
 71
     0
 42
2.5
  3
SIMPLEX.shx
  4

  0
ENDTAB
  0
TABLE
  2
VIEW
 70
     1
  0
ENDTAB
  0
TABLE
  2
UCS
 70
     0
  0
ENDTAB
  0
TABLE
  2
APPID
 70
    24
  0
APPID
  2
ACAD
 70
     0
  0
APPID
  2
ACAD_NAV_VCDISPLAY
 70
     0
  0
APPID
  2
ACAD_MLEADERVER
 70
     0
  0
APPID
  2
ACAD_EXEMPT_FROM_CAD_STANDARDS
 70
     0
  0
APPID
  2
ACAD_PSEXT
 70
     0
  0
APPID
  2
ACAECLAYERSTANDARD
 70
     0
  0
APPID
  2
ACAUTHENVIRON
 70
     0
  0
APPID
  2
ACCMTRANSPARENCY
 70
     0
  0
APPID
  2
ACAD_STEPID
 70
     0
  0
APPID
  2
ACSYNERGY
 70
     0
  0
APPID
  2
SYNERGY_BODY_TBR_ID
 70
     0
  0
APPID
  2
ACAD_VIEW_EDGE_ID
 70
     0
  0
APPID
  2
ACSYNERGYSKETCH
 70
     0
  0
APPID
  2
ACAD_MODELDOC_XFORM
 70
     0
  0
APPID
  2
ACAD_DSTYLE_DIMJAG
 70
     0
  0
APPID
  2
ACAD_DSTYLE_DIMTALN
 70
     0
  0
APPID
  2
ACADANNOMONITORALERTICONDI
 70
     0
  0
APPID
  2
ACAD_DIMASSOC_CALC_DIMLFAC
 70
     0
  0
APPID
  2
ACAD_DIMASSOC_DIMLFAC
 70
     0
  0
APPID
  2
ACAD_DIMASSOC_OVERRIDDEN_D
 70
     0
  0
APPID
  2
ACAD_DSTYLE_DIMRADIAL_EXTENSION
 70
     0
  0
APPID
  2
GRADIENTCOLOR1ACI
 70
     0
  0
APPID
  2
GRADIENTCOLOR2ACI
 70
     0
  0
APPID
  2
AcDbAttr
 70
     0
  0
ENDTAB
  0
TABLE
  2
DIMSTYLE
 70
     2
  0
DIMSTYLE
  2
STANDARD
 70
     0
  3

  4

  5

  6

  7

 40
1.0
 41
0.18
 42
0.0625
 43
0.38
 44
0.18
 45
0.0
 46
0.0
 47
0.0
 48
0.0
140
0.18
141
0.09
142
0.0
143
25.3999999999999986
144
1.0
145
0.0
146
1.0
147
0.09
 71
     0
 72
     0
 73
     1
 74
     1
 75
     0
 76
     0
 77
     0
 78
     0
170
     0
171
     2
172
     0
173
     0
174
     0
175
     0
176
     0
177
     0
178
     0
  0
ENDTAB
  0
ENDSEC
  0
SECTION
  2
BLOCKS
  0
BLOCK
  8
0
  2
$MODEL_SPACE
 70
     0
 10
0.0
 20
0.0
 30
0.0
  3
$MODEL_SPACE
  1

  0
ENDBLK
  5
36
  8
0
  0
BLOCK
 67
     1
  8
0
  2
$PAPER_SPACE
 70
     0
 10
0.0
 20
0.0
 30
0.0
  3
$PAPER_SPACE
  1

  0
ENDBLK
  5
34
 67
     1
  8
0
  0
BLOCK
  8
0
  2
*S2
 70
     1
 10
0.0
 20
0.0
 30
0.0
  3
*S2
  1

  0
ENDBLK
  5
B3A
  8
0
  0
BLOCK
  8
0
  2
A$C8C0E7456
 70
     0
 10
0.0
 20
0.0
 30
0.0
  3
A$C8C0E7456
  1

  0
CIRCLE
  5
1F66
  8
0
 10
97.3691369365925681
 20
-92.4362661998708148
 30
0.0000000000000284
 40
39.7653973282764568
  0
CIRCLE
  5
1F67
  8
0
 10
97.3691369365925539
 20
-92.4362661998708148
 30
0.0000000000000284
 40
42.1000000000001506
  0
CIRCLE
  5
1F68
  8
0
 10
97.3691369365926107
 20
-92.4362661998708148
 30
0.0000000000000284
 40
34.9000000000000625
  0
CIRCLE
  5
1F69
  8
0
 10
97.3691369365925681
 20
-92.4362661998708148
 30
0.0000000000000284
 40
38.3148118992667506
  0
CIRCLE
  5
1F6A
  8
0
 10
97.3691369365925965
 20
-92.4362661998708148
 30
0.0000000000000284
 40
37.9981889448284775
  0
CIRCLE
  5
1F6B
  8
0
 10
97.3691369365925681
 20
-92.4362661998708148
 30
0.0000000000000284
 40
43.7457947537548577
  0
CIRCLE
  5
1F6C
  8
0
 10
148.6343785726172939
 20
-41.1710245638462098
 30
0.0000000000000284
 40
9.0
  0
CIRCLE
  5
1F6D
  8
0
 10
46.1038953005678493
 20
-41.1710245638462666
 30
0.0000000000000142
 40
9.0
  0
CIRCLE
  5
1F6E
  8
0
 10
46.1038953005680767
 20
-143.7015078358955122
 30
0.0000000000000142
 40
9.0
  0
CIRCLE
  5
1F6F
  8
0
 10
148.6343785726168107
 20
-143.7015078358957112
 30
0.0000000000000284
 40
9.0
  0
CIRCLE
  5
1F70
  8
0
 10
169.8691369365926107
 20
-92.4362661998708148
 30
0.0000000000000426
 40
8.9999999999998295
  0
CIRCLE
  5
1F71
  8
0
 10
24.8691369365926818
 20
-92.4362661998708148
 30
0.0
 40
8.9999999999998295
  0
CIRCLE
  5
1F72
  8
0
 10
97.3691369365925681
 20
-164.9362661998706869
 30
0.0000000000000284
 40
8.9999999999998295
  0
CIRCLE
  5
1F73
  8
0
 10
97.3691369365925681
 20
-19.9362661998709108
 30
0.0000000000000284
 40
8.9999999999998295
  0
CIRCLE
  5
1F74
  8
0
 10
97.3691369365925681
 20
-92.4362661998708148
 30
0.0000000000000284
 40
92.5000000000000284
  0
CIRCLE
  5
1F75
  8
0
  6
VERDECKT
 62
     1
 10
97.3691369365925965
 20
-92.4362661998708148
 30
0.0000000000000284
 40
39.5999999999999091
  0
CIRCLE
  5
1F76
  8
0
  6
VERDECKT
 62
     1
 10
97.3691369365926107
 20
-92.4362661998708148
 30
0.0000000000000284
 40
36.4999999999999716
  0
CIRCLE
  5
1F77
  8
0
  6
VERDECKT
 62
     1
 10
97.3691369365925965
 20
-92.4362661998708148
 30
0.0000000000000284
 40
37.9999999999999432
  0
CIRCLE
  5
1F78
  8
0
  6
VERDECKT
 62
     1
 10
97.3691369365925539
 20
-92.4362661998708148
 30
0.0000000000000284
 40
40.50091568391327
  0
CIRCLE
  5
1F79
  8
0
  6
VERDECKT
 62
     1
 10
97.3691369365925965
 20
-92.4362661998708148
 30
0.0000000000000284
 40
38.0500000000000114
  0
ARC
  5
1F7A
  8
0
  6
VERDECKT
 62
     1
 10
97.3691369365924544
 20
-92.4362661998710422
 30
0.0000000000000213
 40
64.0000000000002558
 50
47.4882946098747709
 51
87.5117053901254422
  0
ARC
  5
1F7B
  8
0
  6
VERDECKT
 62
     1
 10
97.3691369365923407
 20
-92.4362661998705448
 30
0.0000000000000213
 40
63.9999999999997016
 50
92.4882946098742735
 51
132.5117053901253996
  0
ARC
  5
1F7C
  8
0
  6
VERDECKT
 62
     1
 10
97.3691369365931365
 20
-92.4362661998710848
 30
0.0000000000000213
 40
64.0000000000006111
 50
137.4882946098749983
 51
177.5117053901252859
  0
ARC
  5
1F7D
  8
0
  6
VERDECKT
 62
     1
 10
97.3691369365914312
 20
-92.4362661998712127
 30
0.0000000000000213
 40
63.9999999999988916
 50
182.4882946098740888
 51
222.5117053901255133
  0
ARC
  5
1F7E
  8
0
  6
VERDECKT
 62
     1
 10
97.3691369365925681
 20
-92.4362661998708148
 30
0.0000000000000213
 40
64.0000000000000426
 50
227.488294609875112
 51
267.5117053901255986
  0
ARC
  5
1F7F
  8
0
  6
VERDECKT
 62
     1
 10
97.3691369365929091
 20
-92.4362661998716533
 30
0.0000000000000213
 40
63.9999999999991402
 50
272.4882946098741741
 51
312.5117053901246891
  0
ARC
  5
1F80
  8
0
  6
VERDECKT
 62
     1
 10
97.3691369365932502
 20
-92.4362661998710848
 30
0.0000000000000213
 40
63.9999999999993321
 50
317.4882946098744014
 51
357.5117053901259965
  0
ARC
  5
1F81
  8
0
  6
VERDECKT
 62
     1
 10
97.3691369365934776
 20
-92.436266199870488
 30
0.0000000000000213
 40
63.9999999999990905
 50
2.488294609873924
 51
42.511705390125563
  0
CIRCLE
  5
1F82
  8
0
  6
VERDECKT
 62
     1
 10
97.3691369365925681
 20
-92.4362661998708148
 30
0.0000000000000213
 40
61.0000000000000284
  0
CIRCLE
  5
1F83
  8
0
  6
VERDECKT
 62
     1
 10
97.3691369365925965
 20
-92.4362661998708148
 30
0.0000000000000284
 40
35.1500000000000412
  0
ENDBLK
  5
1F85
  8
0
  0
BLOCK
  8
0
  2
A$CE2E5E81E
 70
     0
 10
0.0
 20
0.0
 30
0.0
  3
A$CE2E5E81E
  1

  0
LINE
  5
1F89
  8
0
 10
57.6037396083160615
 20
169.6503471930855085
 30
-0.0000000000000377
 11
137.1345342648689893
 21
169.6503471930855085
 31
-0.0000000000000377
210
0.0
220
1.0
230
-0.0000000000000002
  0
ARC
  5
1F8A
  8
0
 10
-80.2691369365931564
 20
159.1014247859687032
 30
0.0
 40
25.0000000000007816
210
0.0
220
-0.0000000000000002
230
-1.0
 50
0.0000000000007888
 51
24.958196312309699
  0
ARC
  5
1F8B
  8
0
 10
-114.4691369365918945
 20
159.1014247859687032
 30
0.0
 40
25.0000000000007709
210
0.0
220
-0.0000000000000002
230
-1.0
 50
155.0418036876903045
 51
179.9999999999992042
  0
LINE
  5
1F8C
  8
0
 10
139.4691369365926903
 20
159.1014247859691011
 30
-0.0000000000000353
 11
139.4691369365926903
 21
149.9520671448968869
 31
-0.0000000000000333
210
0.0
220
1.0
230
-0.0000000000000002
  0
LINE
  5
1F8D
  8
0
 10
55.2691369365923535
 20
159.1014247859689874
 30
-0.0000000000000353
 11
55.2691369365923677
 21
149.9520671448968869
 31
-0.0000000000000333
210
0.0
220
1.0
230
-0.0000000000000002
  0
ARC
  5
1F8E
  8
0
 10
-80.2691369365927159
 20
150.0203471930877015
 30
0.0
 40
25.0000932431260594
210
0.0
220
-0.0000000000000002
230
-1.0
 50
338.8168456069635113
 51
359.843514045648476
  0
ARC
  5
1F8F
  8
0
 10
-114.4691369365925055
 20
150.0203471930877015
 30
0.0
 40
25.0000932431258605
210
0.0
220
-0.0000000000000002
230
-1.0
 50
180.1564859543514956
 51
201.1831543930366024
  0
ARC
  5
1F90
  8
0
 10
-45.7691369365953307
 20
136.650347193087498
 30
0.0
 40
11.9999999999972999
210
0.0
220
-0.0000000000000002
230
-1.0
 50
158.8168456069612944
 51
179.9999999999996874
  0
ARC
  5
1F91
  8
0
 10
-148.9691369365899902
 20
136.6503471930876117
 30
0.0
 40
11.9999999999975806
210
0.0
220
-0.0000000000000002
230
-1.0
 50
0.0
 51
21.1831543930377713
  0
LINE
  5
1F92
  8
0
 10
136.969136936592605
 20
136.650347193087697
 30
-0.0000000000000303
 11
136.969136936592605
 21
120.0390736105047012
 31
-0.0000000000000267
210
0.0
220
1.0
230
-0.0000000000000002
  0
LINE
  5
1F93
  8
0
 10
57.7691369365925311
 20
136.6503471930876117
 30
-0.0000000000000303
 11
57.7691369365925382
 21
120.0390736105046017
 31
-0.0000000000000267
210
0.0
220
1.0
230
-0.0000000000000002
  0
ARC
  5
1F94
  8
0
 10
-69.769136936589021
 20
120.0390736105038059
 30
0.0
 40
11.9999999999965592
210
0.0
220
-0.0000000000000002
230
-1.0
 50
327.6719358778336186
 51
0.0000000000038676
  0
ARC
  5
1F95
  8
0
 10
-124.9691369365958025
 20
120.0390736105040048
 30
0.0
 40
11.9999999999969003
210
0.0
220
-0.0000000000000002
230
-1.0
 50
179.9999999999963904
 51
212.3280641221658982
  0
ARC
  5
1F96
  8
0
 10
-52.8691369365918433
 20
109.3437475285187048
 30
0.0
 40
8.0000000000007656
210
0.0
220
-0.0000000000000002
230
-1.0
 50
147.6719358778358924
 51
179.9999999999980105
  0
ARC
  5
1F97
  8
0
 10
-141.8691369365934918
 20
109.3437475285187048
 30
0.0
 40
8.0000000000010232
210
0.0
220
-0.0000000000000002
230
-1.0
 50
0.0000000000026462
 51
32.3280641221637666
  0
LINE
  5
1F98
  8
0
 10
133.869136936592497
 20
109.3437475285191027
 30
-0.0000000000000243
 11
133.869136936592497
 21
99.6503471930875833
 31
-0.0000000000000221
210
0.0
220
1.0
230
-0.0000000000000002
  0
LINE
  5
1F99
  8
0
 10
60.8691369365925965
 20
109.3437475285190033
 30
-0.0000000000000243
 11
60.8691369365926178
 21
99.650347193087498
 31
-0.0000000000000221
210
0.0
220
1.0
230
-0.0000000000000002
  0
LINE
  5
1F9A
  8
0
 10
59.3191369365925993
 20
99.6503471930875548
 30
-0.0000000000000221
 11
135.4191369365925084
 21
99.6503471930875548
 31
-0.0000000000000221
210
0.0
220
1.0
230
-0.0000000000000002
  0
LINE
  5
1F9B
  8
0
 10
53.6233421828377388
 20
76.9814156693298486
 30
-0.0000000000000171
 11
141.114931690347305
 21
76.9814156693299054
 31
-0.0000000000000171
210
0.0
220
1.0
230
-0.0000000000000002
  0
POLYLINE
  8
0
  5
202B
  66
     1
 10
0.000000
 20
0.000000
 30
0.000000
  70
     8
  0
VERTEX
  8
0
  5
202C
 10
54.1217
 20
57.6503
 30
-1.28000e-14
  70
    32
  0
VERTEX
  8
0
  5
202D
 10
54.1161
 20
57.6460
 30
-1.28000e-14
  70
    32
  0
VERTEX
  8
0
  5
202E
 10
54.1104
 20
57.6417
 30
-1.28000e-14
  70
    32
  0
VERTEX
  8
0
  5
202F
 10
54.1047
 20
57.6374
 30
-1.28000e-14
  70
    32
  0
VERTEX
  8
0
  5
2030
 10
54.0990
 20
57.6331
 30
-1.28000e-14
  70
    32
  0
VERTEX
  8
0
  5
2031
 10
54.0932
 20
57.6288
 30
-1.28000e-14
  70
    32
  0
VERTEX
  8
0
  5
2032
 10
54.0875
 20
57.6245
 30
-1.28000e-14
  70
    32
  0
VERTEX
  8
0
  5
2033
 10
54.0817
 20
57.6203
 30
-1.28000e-14
  70
    32
  0
VERTEX
  8
0
  5
2034
 10
54.0759
 20
57.6161
 30
-1.28000e-14
  70
    32
  0
VERTEX
  8
0
  5
2035
 10
54.0701
 20
57.6118
 30
-1.28000e-14
  70
    32
  0
VERTEX
  8
0
  5
2036
 10
54.0643
 20
57.6077
 30
-1.28000e-14
  70
    32
  0
VERTEX
  8
0
  5
2037
 10
54.0585
 20
57.6035
 30
-1.28000e-14
  70
    32
  0
VERTEX
  8
0
  5
2038
 10
54.0526
 20
57.5993
 30
-1.28000e-14
  70
    32
  0
VERTEX
  8
0
  5
2039
 10
54.0467
 20
57.5952
 30
-1.28000e-14
  70
    32
  0
VERTEX
  8
0
  5
203A
 10
54.0409
 20
57.5910
 30
-1.28000e-14
  70
    32
  0
VERTEX
  8
0
  5
203B
 10
54.0349
 20
57.5869
 30
-1.28000e-14
  70
    32
  0
VERTEX
  8
0
  5
203C
 10
54.0290
 20
57.5828
 30
-1.28000e-14
  70
    32
  0
VERTEX
  8
0
  5
203D
 10
54.0231
 20
57.5788
 30
-1.28000e-14
  70
    32
  0
VERTEX
  8
0
  5
203E
 10
54.0171
 20
57.5747
 30
-1.28000e-14
  70
    32
  0
VERTEX
  8
0
  5
203F
 10
54.0111
 20
57.5707
 30
-1.28000e-14
  70
    32
  0
VERTEX
  8
0
  5
2040
 10
54.0051
 20
57.5666
 30
-1.28000e-14
  70
    32
  0
VERTEX
  8
0
  5
2041
 10
53.9991
 20
57.5626
 30
-1.28000e-14
  70
    32
  0
VERTEX
  8
0
  5
2042
 10
53.9931
 20
57.5587
 30
-1.28000e-14
  70
    32
  0
VERTEX
  8
0
  5
2043
 10
53.9870
 20
57.5547
 30
-1.27998e-14
  70
    32
  0
VERTEX
  8
0
  5
2044
 10
53.9810
 20
57.5507
 30
-1.27997e-14
  70
    32
  0
VERTEX
  8
0
  5
2045
 10
53.9749
 20
57.5468
 30
-1.27995e-14
  70
    32
  0
VERTEX
  8
0
  5
2046
 10
53.9688
 20
57.5429
 30
-1.27992e-14
  70
    32
  0
VERTEX
  8
0
  5
2047
 10
53.9627
 20
57.5390
 30
-1.27989e-14
  70
    32
  0
VERTEX
  8
0
  5
2048
 10
53.9565
 20
57.5351
 30
-1.27985e-14
  70
    32
  0
VERTEX
  8
0
  5
2049
 10
53.9504
 20
57.5312
 30
-1.27981e-14
  70
    32
  0
VERTEX
  8
0
  5
204A
 10
53.9442
 20
57.5274
 30
-1.27976e-14
  70
    32
  0
VERTEX
  8
0
  5
204B
 10
53.9380
 20
57.5236
 30
-1.27971e-14
  70
    32
  0
VERTEX
  8
0
  5
204C
 10
53.9318
 20
57.5197
 30
-1.27965e-14
  70
    32
  0
VERTEX
  8
0
  5
204D
 10
53.9256
 20
57.5160
 30
-1.27959e-14
  70
    32
  0
VERTEX
  8
0
  5
204E
 10
53.9193
 20
57.5122
 30
-1.27953e-14
  70
    32
  0
VERTEX
  8
0
  5
204F
 10
53.9131
 20
57.5084
 30
-1.27946e-14
  70
    32
  0
VERTEX
  8
0
  5
2050
 10
53.9068
 20
57.5047
 30
-1.27939e-14
  70
    32
  0
VERTEX
  8
0
  5
2051
 10
53.9005
 20
57.5010
 30
-1.27931e-14
  70
    32
  0
VERTEX
  8
0
  5
2052
 10
53.8942
 20
57.4973
 30
-1.27923e-14
  70
    32
  0
VERTEX
  8
0
  5
2053
 10
53.8879
 20
57.4936
 30
-1.27914e-14
  70
    32
  0
VERTEX
  8
0
  5
2054
 10
53.8815
 20
57.4899
 30
-1.27905e-14
  70
    32
  0
VERTEX
  8
0
  5
2055
 10
53.8751
 20
57.4863
 30
-1.27896e-14
  70
    32
  0
VERTEX
  8
0
  5
2056
 10
53.8688
 20
57.4826
 30
-1.27886e-14
  70
    32
  0
VERTEX
  8
0
  5
2057
 10
53.8624
 20
57.4790
 30
-1.27876e-14
  70
    32
  0
VERTEX
  8
0
  5
2058
 10
53.8559
 20
57.4754
 30
-1.27866e-14
  70
    32
  0
VERTEX
  8
0
  5
2059
 10
53.8495
 20
57.4718
 30
-1.27855e-14
  70
    32
  0
VERTEX
  8
0
  5
205A
 10
53.8431
 20
57.4683
 30
-1.27844e-14
  70
    32
  0
VERTEX
  8
0
  5
205B
 10
53.8366
 20
57.4648
 30
-1.27833e-14
  70
    32
  0
VERTEX
  8
0
  5
205C
 10
53.8301
 20
57.4612
 30
-1.27822e-14
  70
    32
  0
VERTEX
  8
0
  5
205D
 10
53.8236
 20
57.4577
 30
-1.27810e-14
  70
    32
  0
VERTEX
  8
0
  5
205E
 10
53.8171
 20
57.4542
 30
-1.27798e-14
  70
    32
  0
VERTEX
  8
0
  5
205F
 10
53.8105
 20
57.4508
 30
-1.27785e-14
  70
    32
  0
VERTEX
  8
0
  5
2060
 10
53.8040
 20
57.4473
 30
-1.27773e-14
  70
    32
  0
VERTEX
  8
0
  5
2061
 10
53.7974
 20
57.4439
 30
-1.27760e-14
  70
    32
  0
VERTEX
  8
0
  5
2062
 10
53.7908
 20
57.4405
 30
-1.27747e-14
  70
    32
  0
VERTEX
  8
0
  5
2063
 10
53.7842
 20
57.4371
 30
-1.27734e-14
  70
    32
  0
VERTEX
  8
0
  5
2064
 10
53.7776
 20
57.4337
 30
-1.27721e-14
  70
    32
  0
VERTEX
  8
0
  5
2065
 10
53.7710
 20
57.4304
 30
-1.27707e-14
  70
    32
  0
VERTEX
  8
0
  5
2066
 10
53.7643
 20
57.4270
 30
-1.27694e-14
  70
    32
  0
VERTEX
  8
0
  5
2067
 10
53.7577
 20
57.4237
 30
-1.27680e-14
  70
    32
  0
VERTEX
  8
0
  5
2068
 10
53.7510
 20
57.4204
 30
-1.27666e-14
  70
    32
  0
VERTEX
  8
0
  5
2069
 10
53.7443
 20
57.4172
 30
-1.27652e-14
  70
    32
  0
VERTEX
  8
0
  5
206A
 10
53.7376
 20
57.4139
 30
-1.27637e-14
  70
    32
  0
VERTEX
  8
0
  5
206B
 10
53.7308
 20
57.4107
 30
-1.27623e-14
  70
    32
  0
VERTEX
  8
0
  5
206C
 10
53.7241
 20
57.4074
 30
-1.27609e-14
  70
    32
  0
VERTEX
  8
0
  5
206D
 10
53.7173
 20
57.4042
 30
-1.27594e-14
  70
    32
  0
VERTEX
  8
0
  5
206E
 10
53.7105
 20
57.4010
 30
-1.27579e-14
  70
    32
  0
VERTEX
  8
0
  5
206F
 10
53.7037
 20
57.3979
 30
-1.27565e-14
  70
    32
  0
VERTEX
  8
0
  5
2070
 10
53.6969
 20
57.3947
 30
-1.27550e-14
  70
    32
  0
VERTEX
  8
0
  5
2071
 10
53.6901
 20
57.3916
 30
-1.27535e-14
  70
    32
  0
VERTEX
  8
0
  5
2072
 10
53.6832
 20
57.3885
 30
-1.27521e-14
  70
    32
  0
VERTEX
  8
0
  5
2073
 10
53.6764
 20
57.3854
 30
-1.27506e-14
  70
    32
  0
VERTEX
  8
0
  5
2074
 10
53.6695
 20
57.3823
 30
-1.27491e-14
  70
    32
  0
VERTEX
  8
0
  5
2075
 10
53.6626
 20
57.3793
 30
-1.27476e-14
  70
    32
  0
VERTEX
  8
0
  5
2076
 10
53.6557
 20
57.3763
 30
-1.27461e-14
  70
    32
  0
VERTEX
  8
0
  5
2077
 10
53.6487
 20
57.3733
 30
-1.27447e-14
  70
    32
  0
VERTEX
  8
0
  5
2078
 10
53.6418
 20
57.3703
 30
-1.27432e-14
  70
    32
  0
VERTEX
  8
0
  5
2079
 10
53.6348
 20
57.3673
 30
-1.27417e-14
  70
    32
  0
VERTEX
  8
0
  5
207A
 10
53.6279
 20
57.3643
 30
-1.27403e-14
  70
    32
  0
VERTEX
  8
0
  5
207B
 10
53.6209
 20
57.3614
 30
-1.27388e-14
  70
    32
  0
VERTEX
  8
0
  5
207C
 10
53.6139
 20
57.3585
 30
-1.27374e-14
  70
    32
  0
VERTEX
  8
0
  5
207D
 10
53.6068
 20
57.3556
 30
-1.27360e-14
  70
    32
  0
VERTEX
  8
0
  5
207E
 10
53.5998
 20
57.3527
 30
-1.27345e-14
  70
    32
  0
VERTEX
  8
0
  5
207F
 10
53.5927
 20
57.3499
 30
-1.27331e-14
  70
    32
  0
VERTEX
  8
0
  5
2080
 10
53.5857
 20
57.3470
 30
-1.27317e-14
  70
    32
  0
VERTEX
  8
0
  5
2081
 10
53.5786
 20
57.3442
 30
-1.27304e-14
  70
    32
  0
VERTEX
  8
0
  5
2082
 10
53.5715
 20
57.3414
 30
-1.27290e-14
  70
    32
  0
VERTEX
  8
0
  5
2083
 10
53.5644
 20
57.3386
 30
-1.27276e-14
  70
    32
  0
VERTEX
  8
0
  5
2084
 10
53.5572
 20
57.3359
 30
-1.27263e-14
  70
    32
  0
VERTEX
  8
0
  5
2085
 10
53.5501
 20
57.3331
 30
-1.27250e-14
  70
    32
  0
VERTEX
  8
0
  5
2086
 10
53.5429
 20
57.3304
 30
-1.27237e-14
  70
    32
  0
VERTEX
  8
0
  5
2087
 10
53.5357
 20
57.3277
 30
-1.27224e-14
  70
    32
  0
VERTEX
  8
0
  5
2088
 10
53.5285
 20
57.3250
 30
-1.27212e-14
  70
    32
  0
VERTEX
  8
0
  5
2089
 10
53.5213
 20
57.3224
 30
-1.27200e-14
  70
    32
  0
VERTEX
  8
0
  5
208A
 10
53.5141
 20
57.3197
 30
-1.27188e-14
  70
    32
  0
VERTEX
  8
0
  5
208B
 10
53.5069
 20
57.3171
 30
-1.27176e-14
  70
    32
  0
VERTEX
  8
0
  5
208C
 10
53.4996
 20
57.3145
 30
-1.27165e-14
  70
    32
  0
VERTEX
  8
0
  5
208D
 10
53.4923
 20
57.3119
 30
-1.27153e-14
  70
    32
  0
VERTEX
  8
0
  5
208E
 10
53.4850
 20
57.3094
 30
-1.27143e-14
  70
    32
  0
VERTEX
  8
0
  5
208F
 10
53.4777
 20
57.3068
 30
-1.27132e-14
  70
    32
  0
VERTEX
  8
0
  5
2090
 10
53.4704
 20
57.3043
 30
-1.27122e-14
  70
    32
  0
VERTEX
  8
0
  5
2091
 10
53.4631
 20
57.3018
 30
-1.27112e-14
  70
    32
  0
VERTEX
  8
0
  5
2092
 10
53.4557
 20
57.2993
 30
-1.27102e-14
  70
    32
  0
VERTEX
  8
0
  5
2093
 10
53.4484
 20
57.2969
 30
-1.27093e-14
  70
    32
  0
VERTEX
  8
0
  5
2094
 10
53.4410
 20
57.2944
 30
-1.27084e-14
  70
    32
  0
VERTEX
  8
0
  5
2095
 10
53.4336
 20
57.2920
 30
-1.27076e-14
  70
    32
  0
VERTEX
  8
0
  5
2096
 10
53.4262
 20
57.2896
 30
-1.27068e-14
  70
    32
  0
VERTEX
  8
0
  5
2097
 10
53.4188
 20
57.2872
 30
-1.27060e-14
  70
    32
  0
VERTEX
  8
0
  5
2098
 10
53.4113
 20
57.2849
 30
-1.27053e-14
  70
    32
  0
VERTEX
  8
0
  5
2099
 10
53.4039
 20
57.2825
 30
-1.27046e-14
  70
    32
  0
VERTEX
  8
0
  5
209A
 10
53.3964
 20
57.2802
 30
-1.27039e-14
  70
    32
  0
VERTEX
  8
0
  5
209B
 10
53.3889
 20
57.2779
 30
-1.27033e-14
  70
    32
  0
VERTEX
  8
0
  5
209C
 10
53.3814
 20
57.2757
 30
-1.27028e-14
  70
    32
  0
VERTEX
  8
0
  5
209D
 10
53.3739
 20
57.2734
 30
-1.27023e-14
  70
    32
  0
VERTEX
  8
0
  5
209E
 10
53.3664
 20
57.2712
 30
-1.27018e-14
  70
    32
  0
VERTEX
  8
0
  5
209F
 10
53.3589
 20
57.2689
 30
-1.27014e-14
  70
    32
  0
VERTEX
  8
0
  5
20A0
 10
53.3513
 20
57.2668
 30
-1.27010e-14
  70
    32
  0
VERTEX
  8
0
  5
20A1
 10
53.3437
 20
57.2646
 30
-1.27007e-14
  70
    32
  0
VERTEX
  8
0
  5
20A2
 10
53.3362
 20
57.2624
 30
-1.27005e-14
  70
    32
  0
VERTEX
  8
0
  5
20A3
 10
53.3286
 20
57.2603
 30
-1.27003e-14
  70
    32
  0
VERTEX
  8
0
  5
20A4
 10
53.3210
 20
57.2582
 30
-1.27001e-14
  70
    32
  0
VERTEX
  8
0
  5
20A5
 10
53.3133
 20
57.2561
 30
-1.27000e-14
  70
    32
  0
VERTEX
  8
0
  5
20A6
 10
53.3057
 20
57.2540
 30
-1.27000e-14
  70
    32
  0
VERTEX
  8
0
  5
20A7
 10
53.2980
 20
57.2520
 30
-1.27000e-14
  70
    32
  0
VERTEX
  8
0
  5
20A8
 10
53.2904
 20
57.2499
 30
-1.27000e-14
  70
    32
  0
VERTEX
  8
0
  5
20A9
 10
53.2827
 20
57.2479
 30
-1.27000e-14
  70
    32
  0
VERTEX
  8
0
  5
20AA
 10
53.2750
 20
57.2459
 30
-1.27000e-14
  70
    32
  0
VERTEX
  8
0
  5
20AB
 10
53.2673
 20
57.2440
 30
-1.27000e-14
  70
    32
  0
VERTEX
  8
0
  5
20AC
 10
53.2595
 20
57.2420
 30
-1.27000e-14
  70
    32
  0
VERTEX
  8
0
  5
20AD
 10
53.2518
 20
57.2401
 30
-1.27000e-14
  70
    32
  0
VERTEX
  8
0
  5
20AE
 10
53.2441
 20
57.2382
 30
-1.27000e-14
  70
    32
  0
VERTEX
  8
0
  5
20AF
 10
53.2363
 20
57.2363
 30
-1.27000e-14
  70
    32
  0
VERTEX
  8
0
  5
20B0
 10
53.2285
 20
57.2345
 30
-1.27000e-14
  70
    32
  0
VERTEX
  8
0
  5
20B1
 10
53.2207
 20
57.2326
 30
-1.27000e-14
  70
    32
  0
VERTEX
  8
0
  5
20B2
 10
53.2129
 20
57.2308
 30
-1.27000e-14
  70
    32
  0
VERTEX
  8
0
  5
20B3
 10
53.2051
 20
57.2290
 30
-1.27000e-14
  70
    32
  0
VERTEX
  8
0
  5
20B4
 10
53.1972
 20
57.2272
 30
-1.27000e-14
  70
    32
  0
VERTEX
  8
0
  5
20B5
 10
53.1894
 20
57.2254
 30
-1.27000e-14
  70
    32
  0
VERTEX
  8
0
  5
20B6
 10
53.1815
 20
57.2237
 30
-1.27000e-14
  70
    32
  0
VERTEX
  8
0
  5
20B7
 10
53.1737
 20
57.2220
 30
-1.27000e-14
  70
    32
  0
VERTEX
  8
0
  5
20B8
 10
53.1658
 20
57.2203
 30
-1.27000e-14
  70
    32
  0
VERTEX
  8
0
  5
20B9
 10
53.1579
 20
57.2186
 30
-1.27000e-14
  70
    32
  0
VERTEX
  8
0
  5
20BA
 10
53.1500
 20
57.2170
 30
-1.27000e-14
  70
    32
  0
VERTEX
  8
0
  5
20BB
 10
53.1420
 20
57.2153
 30
-1.27000e-14
  70
    32
  0
VERTEX
  8
0
  5
20BC
 10
53.1341
 20
57.2137
 30
-1.27000e-14
  70
    32
  0
VERTEX
  8
0
  5
20BD
 10
53.1261
 20
57.2121
 30
-1.27000e-14
  70
    32
  0
VERTEX
  8
0
  5
20BE
 10
53.1182
 20
57.2105
 30
-1.27000e-14
  70
    32
  0
VERTEX
  8
0
  5
20BF
 10
53.1102
 20
57.2090
 30
-1.27000e-14
  70
    32
  0
VERTEX
  8
0
  5
20C0
 10
53.1022
 20
57.2075
 30
-1.27000e-14
  70
    32
  0
VERTEX
  8
0
  5
20C1
 10
53.0942
 20
57.2059
 30
-1.27000e-14
  70
    32
  0
VERTEX
  8
0
  5
20C2
 10
53.0862
 20
57.2045
 30
-1.27000e-14
  70
    32
  0
VERTEX
  8
0
  5
20C3
 10
53.0782
 20
57.2030
 30
-1.27000e-14
  70
    32
  0
VERTEX
  8
0
  5
20C4
 10
53.0701
 20
57.2015
 30
-1.27000e-14
  70
    32
  0
VERTEX
  8
0
  5
20C5
 10
53.0621
 20
57.2001
 30
-1.27000e-14
  70
    32
  0
VERTEX
  8
0
  5
20C6
 10
53.0540
 20
57.1987
 30
-1.27000e-14
  70
    32
  0
VERTEX
  8
0
  5
20C7
 10
53.0459
 20
57.1973
 30
-1.27000e-14
  70
    32
  0
VERTEX
  8
0
  5
20C8
 10
53.0379
 20
57.1959
 30
-1.27000e-14
  70
    32
  0
VERTEX
  8
0
  5
20C9
 10
53.0298
 20
57.1946
 30
-1.27000e-14
  70
    32
  0
VERTEX
  8
0
  5
20CA
 10
53.0216
 20
57.1933
 30
-1.27000e-14
  70
    32
  0
VERTEX
  8
0
  5
20CB
 10
53.0135
 20
57.1919
 30
-1.27000e-14
  70
    32
  0
VERTEX
  8
0
  5
20CC
 10
53.0054
 20
57.1907
 30
-1.27000e-14
  70
    32
  0
VERTEX
  8
0
  5
20CD
 10
52.9972
 20
57.1894
 30
-1.27000e-14
  70
    32
  0
VERTEX
  8
0
  5
20CE
 10
52.9891
 20
57.1881
 30
-1.27000e-14
  70
    32
  0
VERTEX
  8
0
  5
20CF
 10
52.9809
 20
57.1869
 30
-1.27000e-14
  70
    32
  0
VERTEX
  8
0
  5
20D0
 10
52.9727
 20
57.1857
 30
-1.27000e-14
  70
    32
  0
VERTEX
  8
0
  5
20D1
 10
52.9645
 20
57.1845
 30
-1.27000e-14
  70
    32
  0
VERTEX
  8
0
  5
20D2
 10
52.9563
 20
57.1834
 30
-1.27000e-14
  70
    32
  0
VERTEX
  8
0
  5
20D3
 10
52.9481
 20
57.1822
 30
-1.27000e-14
  70
    32
  0
VERTEX
  8
0
  5
20D4
 10
52.9399
 20
57.1811
 30
-1.27000e-14
  70
    32
  0
VERTEX
  8
0
  5
20D5
 10
52.9316
 20
57.1800
 30
-1.27000e-14
  70
    32
  0
VERTEX
  8
0
  5
20D6
 10
52.9234
 20
57.1789
 30
-1.27000e-14
  70
    32
  0
VERTEX
  8
0
  5
20D7
 10
52.9151
 20
57.1779
 30
-1.27000e-14
  70
    32
  0
VERTEX
  8
0
  5
20D8
 10
52.9069
 20
57.1768
 30
-1.27000e-14
  70
    32
  0
VERTEX
  8
0
  5
20D9
 10
52.8986
 20
57.1758
 30
-1.27000e-14
  70
    32
  0
VERTEX
  8
0
  5
20DA
 10
52.8903
 20
57.1748
 30
-1.27000e-14
  70
    32
  0
VERTEX
  8
0
  5
20DB
 10
52.8820
 20
57.1738
 30
-1.27000e-14
  70
    32
  0
VERTEX
  8
0
  5
20DC
 10
52.8737
 20
57.1728
 30
-1.27000e-14
  70
    32
  0
VERTEX
  8
0
  5
20DD
 10
52.8654
 20
57.1719
 30
-1.27000e-14
  70
    32
  0
VERTEX
  8
0
  5
20DE
 10
52.8570
 20
57.1710
 30
-1.27000e-14
  70
    32
  0
VERTEX
  8
0
  5
20DF
 10
52.8487
 20
57.1701
 30
-1.27000e-14
  70
    32
  0
VERTEX
  8
0
  5
20E0
 10
52.8403
 20
57.1692
 30
-1.27000e-14
  70
    32
  0
VERTEX
  8
0
  5
20E1
 10
52.8320
 20
57.1683
 30
-1.27000e-14
  70
    32
  0
VERTEX
  8
0
  5
20E2
 10
52.8236
 20
57.1675
 30
-1.27000e-14
  70
    32
  0
VERTEX
  8
0
  5
20E3
 10
52.8152
 20
57.1667
 30
-1.27000e-14
  70
    32
  0
VERTEX
  8
0
  5
20E4
 10
52.8068
 20
57.1659
 30
-1.27000e-14
  70
    32
  0
VERTEX
  8
0
  5
20E5
 10
52.7984
 20
57.1651
 30
-1.27000e-14
  70
    32
  0
VERTEX
  8
0
  5
20E6
 10
52.7900
 20
57.1643
 30
-1.27000e-14
  70
    32
  0
VERTEX
  8
0
  5
20E7
 10
52.7815
 20
57.1636
 30
-1.27000e-14
  70
    32
  0
VERTEX
  8
0
  5
20E8
 10
52.7731
 20
57.1629
 30
-1.27000e-14
  70
    32
  0
VERTEX
  8
0
  5
20E9
 10
52.7647
 20
57.1622
 30
-1.27000e-14
  70
    32
  0
VERTEX
  8
0
  5
20EA
 10
52.7562
 20
57.1615
 30
-1.27000e-14
  70
    32
  0
VERTEX
  8
0
  5
20EB
 10
52.7477
 20
57.1609
 30
-1.27000e-14
  70
    32
  0
VERTEX
  8
0
  5
20EC
 10
52.7393
 20
57.1602
 30
-1.27000e-14
  70
    32
  0
VERTEX
  8
0
  5
20ED
 10
52.7308
 20
57.1596
 30
-1.27000e-14
  70
    32
  0
VERTEX
  8
0
  5
20EE
 10
52.7223
 20
57.1590
 30
-1.27000e-14
  70
    32
  0
VERTEX
  8
0
  5
20EF
 10
52.7138
 20
57.1584
 30
-1.27000e-14
  70
    32
  0
VERTEX
  8
0
  5
20F0
 10
52.7053
 20
57.1579
 30
-1.27000e-14
  70
    32
  0
VERTEX
  8
0
  5
20F1
 10
52.6968
 20
57.1573
 30
-1.27000e-14
  70
    32
  0
VERTEX
  8
0
  5
20F2
 10
52.6882
 20
57.1568
 30
-1.27000e-14
  70
    32
  0
VERTEX
  8
0
  5
20F3
 10
52.6797
 20
57.1563
 30
-1.27000e-14
  70
    32
  0
VERTEX
  8
0
  5
20F4
 10
52.6711
 20
57.1558
 30
-1.27000e-14
  70
    32
  0
VERTEX
  8
0
  5
20F5
 10
52.6626
 20
57.1554
 30
-1.27000e-14
  70
    32
  0
VERTEX
  8
0
  5
20F6
 10
52.6540
 20
57.1549
 30
-1.27000e-14
  70
    32
  0
VERTEX
  8
0
  5
20F7
 10
52.6454
 20
57.1545
 30
-1.27000e-14
  70
    32
  0
VERTEX
  8
0
  5
20F8
 10
52.6369
 20
57.1541
 30
-1.27000e-14
  70
    32
  0
VERTEX
  8
0
  5
20F9
 10
52.6283
 20
57.1537
 30
-1.27000e-14
  70
    32
  0
VERTEX
  8
0
  5
20FA
 10
52.6197
 20
57.1534
 30
-1.27000e-14
  70
    32
  0
VERTEX
  8
0
  5
20FB
 10
52.6111
 20
57.1530
 30
-1.27000e-14
  70
    32
  0
VERTEX
  8
0
  5
20FC
 10
52.6024
 20
57.1527
 30
-1.27000e-14
  70
    32
  0
VERTEX
  8
0
  5
20FD
 10
52.5938
 20
57.1524
 30
-1.27000e-14
  70
    32
  0
VERTEX
  8
0
  5
20FE
 10
52.5852
 20
57.1522
 30
-1.27000e-14
  70
    32
  0
VERTEX
  8
0
  5
20FF
 10
52.5765
 20
57.1519
 30
-1.27000e-14
  70
    32
  0
VERTEX
  8
0
  5
2100
 10
52.5679
 20
57.1517
 30
-1.27000e-14
  70
    32
  0
VERTEX
  8
0
  5
2101
 10
52.5592
 20
57.1514
 30
-1.27000e-14
  70
    32
  0
VERTEX
  8
0
  5
2102
 10
52.5506
 20
57.1512
 30
-1.27000e-14
  70
    32
  0
VERTEX
  8
0
  5
2103
 10
52.5419
 20
57.1511
 30
-1.27000e-14
  70
    32
  0
VERTEX
  8
0
  5
2104
 10
52.5332
 20
57.1509
 30
-1.27000e-14
  70
    32
  0
VERTEX
  8
0
  5
2105
 10
52.5245
 20
57.1508
 30
-1.27000e-14
  70
    32
  0
VERTEX
  8
0
  5
2106
 10
52.5158
 20
57.1506
 30
-1.27000e-14
  70
    32
  0
VERTEX
  8
0
  5
2107
 10
52.5071
 20
57.1505
 30
-1.27000e-14
  70
    32
  0
VERTEX
  8
0
  5
2108
 10
52.4984
 20
57.1505
 30
-1.27000e-14
  70
    32
  0
VERTEX
  8
0
  5
2109
 10
52.4897
 20
57.1504
 30
-1.27000e-14
  70
    32
  0
VERTEX
  8
0
  5
210A
 10
52.4810
 20
57.1504
 30
-1.27000e-14
  70
    32
  0
VERTEX
  8
0
  5
210B
 10
52.4722
 20
57.1503
 30
-1.27000e-14
  70
    32
  0
VERTEX
  8
0
  5
210C
 10
52.4635
 20
57.1503
 30
-1.27000e-14
  70
    32
  0
VERTEX
  8
0
  5
210D
 10
52.4547
 20
57.1504
 30
-1.27000e-14
  70
    32
  0
VERTEX
  8
0
  5
210E
 10
52.4459
 20
57.1504
 30
-1.27000e-14
  70
    32
  0
VERTEX
  8
0
  5
210F
 10
52.4372
 20
57.1505
 30
-1.27000e-14
  70
    32
  0
VERTEX
  8
0
  5
2110
 10
52.4283
 20
57.1505
 30
-1.27000e-14
  70
    32
  0
VERTEX
  8
0
  5
2111
 10
52.4195
 20
57.1506
 30
-1.27000e-14
  70
    32
  0
VERTEX
  8
0
  5
2112
 10
52.4107
 20
57.1508
 30
-1.27000e-14
  70
    32
  0
VERTEX
  8
0
  5
2113
 10
52.4018
 20
57.1509
 30
-1.27000e-14
  70
    32
  0
VERTEX
  8
0
  5
2114
 10
52.3929
 20
57.1511
 30
-1.27000e-14
  70
    32
  0
VERTEX
  8
0
  5
2115
 10
52.3840
 20
57.1512
 30
-1.27000e-14
  70
    32
  0
VERTEX
  8
0
  5
2116
 10
52.3751
 20
57.1514
 30
-1.27000e-14
  70
    32
  0
VERTEX
  8
0
  5
2117
 10
52.3662
 20
57.1517
 30
-1.27000e-14
  70
    32
  0
VERTEX
  8
0
  5
2118
 10
52.3573
 20
57.1519
 30
-1.27000e-14
  70
    32
  0
VERTEX
  8
0
  5
2119
 10
52.3483
 20
57.1522
 30
-1.27000e-14
  70
    32
  0
VERTEX
  8
0
  5
211A
 10
52.3393
 20
57.1524
 30
-1.27000e-14
  70
    32
  0
VERTEX
  8
0
  5
211B
 10
52.3303
 20
57.1527
 30
-1.27000e-14
  70
    32
  0
VERTEX
  8
0
  5
211C
 10
52.3213
 20
57.1530
 30
-1.27000e-14
  70
    32
  0
VERTEX
  8
0
  5
211D
 10
52.3123
 20
57.1534
 30
-1.27000e-14
  70
    32
  0
VERTEX
  8
0
  5
211E
 10
52.3032
 20
57.1537
 30
-1.27000e-14
  70
    32
  0
VERTEX
  8
0
  5
211F
 10
52.2942
 20
57.1541
 30
-1.27000e-14
  70
    32
  0
VERTEX
  8
0
  5
2120
 10
52.2851
 20
57.1545
 30
-1.27000e-14
  70
    32
  0
VERTEX
  8
0
  5
2121
 10
52.2760
 20
57.1549
 30
-1.27000e-14
  70
    32
  0
VERTEX
  8
0
  5
2122
 10
52.2669
 20
57.1554
 30
-1.27000e-14
  70
    32
  0
VERTEX
  8
0
  5
2123
 10
52.2578
 20
57.1558
 30
-1.27000e-14
  70
    32
  0
VERTEX
  8
0
  5
2124
 10
52.2486
 20
57.1563
 30
-1.27000e-14
  70
    32
  0
VERTEX
  8
0
  5
2125
 10
52.2395
 20
57.1568
 30
-1.27000e-14
  70
    32
  0
VERTEX
  8
0
  5
2126
 10
52.2303
 20
57.1573
 30
-1.27000e-14
  70
    32
  0
VERTEX
  8
0
  5
2127
 10
52.2211
 20
57.1579
 30
-1.27000e-14
  70
    32
  0
VERTEX
  8
0
  5
2128
 10
52.2119
 20
57.1584
 30
-1.27000e-14
  70
    32
  0
VERTEX
  8
0
  5
2129
 10
52.2027
 20
57.1590
 30
-1.27000e-14
  70
    32
  0
VERTEX
  8
0
  5
212A
 10
52.1935
 20
57.1596
 30
-1.27000e-14
  70
    32
  0
VERTEX
  8
0
  5
212B
 10
52.1842
 20
57.1602
 30
-1.27000e-14
  70
    32
  0
VERTEX
  8
0
  5
212C
 10
52.1750
 20
57.1609
 30
-1.27000e-14
  70
    32
  0
VERTEX
  8
0
  5
212D
 10
52.1657
 20
57.1615
 30
-1.27000e-14
  70
    32
  0
VERTEX
  8
0
  5
212E
 10
52.1564
 20
57.1622
 30
-1.27000e-14
  70
    32
  0
VERTEX
  8
0
  5
212F
 10
52.1471
 20
57.1629
 30
-1.27000e-14
  70
    32
  0
VERTEX
  8
0
  5
2130
 10
52.1377
 20
57.1636
 30
-1.27000e-14
  70
    32
  0
VERTEX
  8
0
  5
2131
 10
52.1284
 20
57.1643
 30
-1.27000e-14
  70
    32
  0
VERTEX
  8
0
  5
2132
 10
52.1191
 20
57.1651
 30
-1.27000e-14
  70
    32
  0
VERTEX
  8
0
  5
2133
 10
52.1097
 20
57.1659
 30
-1.27000e-14
  70
    32
  0
VERTEX
  8
0
  5
2134
 10
52.1003
 20
57.1667
 30
-1.27000e-14
  70
    32
  0
VERTEX
  8
0
  5
2135
 10
52.0909
 20
57.1675
 30
-1.27000e-14
  70
    32
  0
VERTEX
  8
0
  5
2136
 10
52.0815
 20
57.1683
 30
-1.27000e-14
  70
    32
  0
VERTEX
  8
0
  5
2137
 10
52.0720
 20
57.1692
 30
-1.27000e-14
  70
    32
  0
VERTEX
  8
0
  5
2138
 10
52.0626
 20
57.1701
 30
-1.27000e-14
  70
    32
  0
VERTEX
  8
0
  5
2139
 10
52.0531
 20
57.1710
 30
-1.27000e-14
  70
    32
  0
VERTEX
  8
0
  5
213A
 10
52.0437
 20
57.1719
 30
-1.27000e-14
  70
    32
  0
VERTEX
  8
0
  5
213B
 10
52.0342
 20
57.1728
 30
-1.27000e-14
  70
    32
  0
VERTEX
  8
0
  5
213C
 10
52.0247
 20
57.1738
 30
-1.27000e-14
  70
    32
  0
VERTEX
  8
0
  5
213D
 10
52.0151
 20
57.1748
 30
-1.27000e-14
  70
    32
  0
VERTEX
  8
0
  5
213E
 10
52.0056
 20
57.1758
 30
-1.27000e-14
  70
    32
  0
VERTEX
  8
0
  5
213F
 10
51.9961
 20
57.1768
 30
-1.27000e-14
  70
    32
  0
VERTEX
  8
0
  5
2140
 10
51.9865
 20
57.1779
 30
-1.27000e-14
  70
    32
  0
VERTEX
  8
0
  5
2141
 10
51.9769
 20
57.1789
 30
-1.27000e-14
  70
    32
  0
VERTEX
  8
0
  5
2142
 10
51.9673
 20
57.1800
 30
-1.27000e-14
  70
    32
  0
VERTEX
  8
0
  5
2143
 10
51.9577
 20
57.1811
 30
-1.27000e-14
  70
    32
  0
VERTEX
  8
0
  5
2144
 10
51.9481
 20
57.1822
 30
-1.27000e-14
  70
    32
  0
VERTEX
  8
0
  5
2145
 10
51.9385
 20
57.1834
 30
-1.27000e-14
  70
    32
  0
VERTEX
  8
0
  5
2146
 10
51.9288
 20
57.1845
 30
-1.27000e-14
  70
    32
  0
VERTEX
  8
0
  5
2147
 10
51.9192
 20
57.1857
 30
-1.27000e-14
  70
    32
  0
VERTEX
  8
0
  5
2148
 10
51.9095
 20
57.1869
 30
-1.27000e-14
  70
    32
  0
VERTEX
  8
0
  5
2149
 10
51.8998
 20
57.1881
 30
-1.27000e-14
  70
    32
  0
VERTEX
  8
0
  5
214A
 10
51.8901
 20
57.1894
 30
-1.27000e-14
  70
    32
  0
VERTEX
  8
0
  5
214B
 10
51.8804
 20
57.1907
 30
-1.27000e-14
  70
    32
  0
VERTEX
  8
0
  5
214C
 10
51.8707
 20
57.1919
 30
-1.27000e-14
  70
    32
  0
VERTEX
  8
0
  5
214D
 10
51.8609
 20
57.1933
 30
-1.27000e-14
  70
    32
  0
VERTEX
  8
0
  5
214E
 10
51.8512
 20
57.1946
 30
-1.27000e-14
  70
    32
  0
VERTEX
  8
0
  5
214F
 10
51.8414
 20
57.1959
 30
-1.27000e-14
  70
    32
  0
VERTEX
  8
0
  5
2150
 10
51.8316
 20
57.1973
 30
-1.27000e-14
  70
    32
  0
VERTEX
  8
0
  5
2151
 10
51.8218
 20
57.1987
 30
-1.27000e-14
  70
    32
  0
VERTEX
  8
0
  5
2152
 10
51.8120
 20
57.2001
 30
-1.27000e-14
  70
    32
  0
VERTEX
  8
0
  5
2153
 10
51.8022
 20
57.2015
 30
-1.27000e-14
  70
    32
  0
VERTEX
  8
0
  5
2154
 10
51.7923
 20
57.2030
 30
-1.27000e-14
  70
    32
  0
VERTEX
  8
0
  5
2155
 10
51.7825
 20
57.2045
 30
-1.27000e-14
  70
    32
  0
VERTEX
  8
0
  5
2156
 10
51.7726
 20
57.2059
 30
-1.27000e-14
  70
    32
  0
VERTEX
  8
0
  5
2157
 10
51.7627
 20
57.2075
 30
-1.27000e-14
  70
    32
  0
VERTEX
  8
0
  5
2158
 10
51.7528
 20
57.2090
 30
-1.27000e-14
  70
    32
  0
VERTEX
  8
0
  5
2159
 10
51.7429
 20
57.2105
 30
-1.27000e-14
  70
    32
  0
VERTEX
  8
0
  5
215A
 10
51.7330
 20
57.2121
 30
-1.27000e-14
  70
    32
  0
VERTEX
  8
0
  5
215B
 10
51.7231
 20
57.2137
 30
-1.27000e-14
  70
    32
  0
VERTEX
  8
0
  5
215C
 10
51.7132
 20
57.2153
 30
-1.27000e-14
  70
    32
  0
VERTEX
  8
0
  5
215D
 10
51.7032
 20
57.2170
 30
-1.27000e-14
  70
    32
  0
VERTEX
  8
0
  5
215E
 10
51.6932
 20
57.2186
 30
-1.27000e-14
  70
    32
  0
VERTEX
  8
0
  5
215F
 10
51.6833
 20
57.2203
 30
-1.27000e-14
  70
    32
  0
VERTEX
  8
0
  5
2160
 10
51.6733
 20
57.2220
 30
-1.27000e-14
  70
    32
  0
VERTEX
  8
0
  5
2161
 10
51.6633
 20
57.2237
 30
-1.27000e-14
  70
    32
  0
VERTEX
  8
0
  5
2162
 10
51.6532
 20
57.2254
 30
-1.27000e-14
  70
    32
  0
VERTEX
  8
0
  5
2163
 10
51.6432
 20
57.2272
 30
-1.27000e-14
  70
    32
  0
VERTEX
  8
0
  5
2164
 10
51.6332
 20
57.2290
 30
-1.27000e-14
  70
    32
  0
VERTEX
  8
0
  5
2165
 10
51.6231
 20
57.2308
 30
-1.27000e-14
  70
    32
  0
VERTEX
  8
0
  5
2166
 10
51.6130
 20
57.2326
 30
-1.27000e-14
  70
    32
  0
VERTEX
  8
0
  5
2167
 10
51.6030
 20
57.2345
 30
-1.27000e-14
  70
    32
  0
VERTEX
  8
0
  5
2168
 10
51.5929
 20
57.2363
 30
-1.27000e-14
  70
    32
  0
VERTEX
  8
0
  5
2169
 10
51.5828
 20
57.2382
 30
-1.27000e-14
  70
    32
  0
VERTEX
  8
0
  5
216A
 10
51.5727
 20
57.2401
 30
-1.27000e-14
  70
    32
  0
VERTEX
  8
0
  5
216B
 10
51.5625
 20
57.2420
 30
-1.27000e-14
  70
    32
  0
VERTEX
  8
0
  5
216C
 10
51.5524
 20
57.2440
 30
-1.27000e-14
  70
    32
  0
VERTEX
  8
0
  5
216D
 10
51.5422
 20
57.2459
 30
-1.27000e-14
  70
    32
  0
VERTEX
  8
0
  5
216E
 10
51.5321
 20
57.2479
 30
-1.27000e-14
  70
    32
  0
VERTEX
  8
0
  5
216F
 10
51.5219
 20
57.2499
 30
-1.27000e-14
  70
    32
  0
VERTEX
  8
0
  5
2170
 10
51.5117
 20
57.2520
 30
-1.27000e-14
  70
    32
  0
VERTEX
  8
0
  5
2171
 10
51.5015
 20
57.2540
 30
-1.27000e-14
  70
    32
  0
VERTEX
  8
0
  5
2172
 10
51.4913
 20
57.2561
 30
-1.27000e-14
  70
    32
  0
VERTEX
  8
0
  5
2173
 10
51.4811
 20
57.2582
 30
-1.27001e-14
  70
    32
  0
VERTEX
  8
0
  5
2174
 10
51.4708
 20
57.2603
 30
-1.27003e-14
  70
    32
  0
VERTEX
  8
0
  5
2175
 10
51.4606
 20
57.2624
 30
-1.27005e-14
  70
    32
  0
VERTEX
  8
0
  5
2176
 10
51.4503
 20
57.2646
 30
-1.27007e-14
  70
    32
  0
VERTEX
  8
0
  5
2177
 10
51.4401
 20
57.2668
 30
-1.27010e-14
  70
    32
  0
VERTEX
  8
0
  5
2178
 10
51.4298
 20
57.2689
 30
-1.27014e-14
  70
    32
  0
VERTEX
  8
0
  5
2179
 10
51.4195
 20
57.2712
 30
-1.27018e-14
  70
    32
  0
VERTEX
  8
0
  5
217A
 10
51.4092
 20
57.2734
 30
-1.27023e-14
  70
    32
  0
VERTEX
  8
0
  5
217B
 10
51.3989
 20
57.2757
 30
-1.27028e-14
  70
    32
  0
VERTEX
  8
0
  5
217C
 10
51.3886
 20
57.2779
 30
-1.27033e-14
  70
    32
  0
VERTEX
  8
0
  5
217D
 10
51.3782
 20
57.2802
 30
-1.27039e-14
  70
    32
  0
VERTEX
  8
0
  5
217E
 10
51.3679
 20
57.2825
 30
-1.27046e-14
  70
    32
  0
VERTEX
  8
0
  5
217F
 10
51.3576
 20
57.2849
 30
-1.27053e-14
  70
    32
  0
VERTEX
  8
0
  5
2180
 10
51.3472
 20
57.2872
 30
-1.27060e-14
  70
    32
  0
VERTEX
  8
0
  5
2181
 10
51.3368
 20
57.2896
 30
-1.27068e-14
  70
    32
  0
VERTEX
  8
0
  5
2182
 10
51.3264
 20
57.2920
 30
-1.27076e-14
  70
    32
  0
VERTEX
  8
0
  5
2183
 10
51.3160
 20
57.2944
 30
-1.27084e-14
  70
    32
  0
VERTEX
  8
0
  5
2184
 10
51.3056
 20
57.2969
 30
-1.27093e-14
  70
    32
  0
VERTEX
  8
0
  5
2185
 10
51.2952
 20
57.2993
 30
-1.27102e-14
  70
    32
  0
VERTEX
  8
0
  5
2186
 10
51.2848
 20
57.3018
 30
-1.27112e-14
  70
    32
  0
VERTEX
  8
0
  5
2187
 10
51.2743
 20
57.3043
 30
-1.27122e-14
  70
    32
  0
VERTEX
  8
0
  5
2188
 10
51.2639
 20
57.3068
 30
-1.27132e-14
  70
    32
  0
VERTEX
  8
0
  5
2189
 10
51.2534
 20
57.3094
 30
-1.27143e-14
  70
    32
  0
VERTEX
  8
0
  5
218A
 10
51.2430
 20
57.3119
 30
-1.27153e-14
  70
    32
  0
VERTEX
  8
0
  5
218B
 10
51.2325
 20
57.3145
 30
-1.27165e-14
  70
    32
  0
VERTEX
  8
0
  5
218C
 10
51.2220
 20
57.3171
 30
-1.27176e-14
  70
    32
  0
VERTEX
  8
0
  5
218D
 10
51.2115
 20
57.3197
 30
-1.27188e-14
  70
    32
  0
VERTEX
  8
0
  5
218E
 10
51.2010
 20
57.3224
 30
-1.27200e-14
  70
    32
  0
VERTEX
  8
0
  5
218F
 10
51.1905
 20
57.3250
 30
-1.27212e-14
  70
    32
  0
VERTEX
  8
0
  5
2190
 10
51.1800
 20
57.3277
 30
-1.27224e-14
  70
    32
  0
VERTEX
  8
0
  5
2191
 10
51.1695
 20
57.3304
 30
-1.27237e-14
  70
    32
  0
VERTEX
  8
0
  5
2192
 10
51.1589
 20
57.3331
 30
-1.27250e-14
  70
    32
  0
VERTEX
  8
0
  5
2193
 10
51.1484
 20
57.3359
 30
-1.27263e-14
  70
    32
  0
VERTEX
  8
0
  5
2194
 10
51.1378
 20
57.3386
 30
-1.27276e-14
  70
    32
  0
VERTEX
  8
0
  5
2195
 10
51.1272
 20
57.3414
 30
-1.27290e-14
  70
    32
  0
VERTEX
  8
0
  5
2196
 10
51.1166
 20
57.3442
 30
-1.27304e-14
  70
    32
  0
VERTEX
  8
0
  5
2197
 10
51.1061
 20
57.3470
 30
-1.27317e-14
  70
    32
  0
VERTEX
  8
0
  5
2198
 10
51.0955
 20
57.3499
 30
-1.27331e-14
  70
    32
  0
VERTEX
  8
0
  5
2199
 10
51.0849
 20
57.3527
 30
-1.27345e-14
  70
    32
  0
VERTEX
  8
0
  5
219A
 10
51.0742
 20
57.3556
 30
-1.27360e-14
  70
    32
  0
VERTEX
  8
0
  5
219B
 10
51.0636
 20
57.3585
 30
-1.27374e-14
  70
    32
  0
VERTEX
  8
0
  5
219C
 10
51.0530
 20
57.3614
 30
-1.27388e-14
  70
    32
  0
VERTEX
  8
0
  5
219D
 10
51.0424
 20
57.3643
 30
-1.27403e-14
  70
    32
  0
VERTEX
  8
0
  5
219E
 10
51.0317
 20
57.3673
 30
-1.27417e-14
  70
    32
  0
VERTEX
  8
0
  5
219F
 10
51.0211
 20
57.3703
 30
-1.27432e-14
  70
    32
  0
VERTEX
  8
0
  5
21A0
 10
51.0104
 20
57.3733
 30
-1.27447e-14
  70
    32
  0
VERTEX
  8
0
  5
21A1
 10
50.9997
 20
57.3763
 30
-1.27461e-14
  70
    32
  0
VERTEX
  8
0
  5
21A2
 10
50.9890
 20
57.3793
 30
-1.27476e-14
  70
    32
  0
VERTEX
  8
0
  5
21A3
 10
50.9783
 20
57.3823
 30
-1.27491e-14
  70
    32
  0
VERTEX
  8
0
  5
21A4
 10
50.9676
 20
57.3854
 30
-1.27506e-14
  70
    32
  0
VERTEX
  8
0
  5
21A5
 10
50.9569
 20
57.3885
 30
-1.27521e-14
  70
    32
  0
VERTEX
  8
0
  5
21A6
 10
50.9462
 20
57.3916
 30
-1.27535e-14
  70
    32
  0
VERTEX
  8
0
  5
21A7
 10
50.9355
 20
57.3947
 30
-1.27550e-14
  70
    32
  0
VERTEX
  8
0
  5
21A8
 10
50.9248
 20
57.3979
 30
-1.27565e-14
  70
    32
  0
VERTEX
  8
0
  5
21A9
 10
50.9140
 20
57.4010
 30
-1.27579e-14
  70
    32
  0
VERTEX
  8
0
  5
21AA
 10
50.9033
 20
57.4042
 30
-1.27594e-14
  70
    32
  0
VERTEX
  8
0
  5
21AB
 10
50.8926
 20
57.4074
 30
-1.27609e-14
  70
    32
  0
VERTEX
  8
0
  5
21AC
 10
50.8818
 20
57.4107
 30
-1.27623e-14
  70
    32
  0
VERTEX
  8
0
  5
21AD
 10
50.8710
 20
57.4139
 30
-1.27637e-14
  70
    32
  0
VERTEX
  8
0
  5
21AE
 10
50.8603
 20
57.4172
 30
-1.27652e-14
  70
    32
  0
VERTEX
  8
0
  5
21AF
 10
50.8495
 20
57.4204
 30
-1.27666e-14
  70
    32
  0
VERTEX
  8
0
  5
21B0
 10
50.8387
 20
57.4237
 30
-1.27680e-14
  70
    32
  0
VERTEX
  8
0
  5
21B1
 10
50.8279
 20
57.4270
 30
-1.27694e-14
  70
    32
  0
VERTEX
  8
0
  5
21B2
 10
50.8171
 20
57.4304
 30
-1.27707e-14
  70
    32
  0
VERTEX
  8
0
  5
21B3
 10
50.8063
 20
57.4337
 30
-1.27721e-14
  70
    32
  0
VERTEX
  8
0
  5
21B4
 10
50.7955
 20
57.4371
 30
-1.27734e-14
  70
    32
  0
VERTEX
  8
0
  5
21B5
 10
50.7847
 20
57.4405
 30
-1.27747e-14
  70
    32
  0
VERTEX
  8
0
  5
21B6
 10
50.7738
 20
57.4439
 30
-1.27760e-14
  70
    32
  0
VERTEX
  8
0
  5
21B7
 10
50.7630
 20
57.4473
 30
-1.27773e-14
  70
    32
  0
VERTEX
  8
0
  5
21B8
 10
50.7522
 20
57.4508
 30
-1.27785e-14
  70
    32
  0
VERTEX
  8
0
  5
21B9
 10
50.7413
 20
57.4542
 30
-1.27798e-14
  70
    32
  0
VERTEX
  8
0
  5
21BA
 10
50.7305
 20
57.4577
 30
-1.27810e-14
  70
    32
  0
VERTEX
  8
0
  5
21BB
 10
50.7196
 20
57.4612
 30
-1.27822e-14
  70
    32
  0
VERTEX
  8
0
  5
21BC
 10
50.7087
 20
57.4648
 30
-1.27833e-14
  70
    32
  0
VERTEX
  8
0
  5
21BD
 10
50.6979
 20
57.4683
 30
-1.27844e-14
  70
    32
  0
VERTEX
  8
0
  5
21BE
 10
50.6870
 20
57.4718
 30
-1.27855e-14
  70
    32
  0
VERTEX
  8
0
  5
21BF
 10
50.6761
 20
57.4754
 30
-1.27866e-14
  70
    32
  0
VERTEX
  8
0
  5
21C0
 10
50.6652
 20
57.4790
 30
-1.27876e-14
  70
    32
  0
VERTEX
  8
0
  5
21C1
 10
50.6543
 20
57.4826
 30
-1.27886e-14
  70
    32
  0
VERTEX
  8
0
  5
21C2
 10
50.6434
 20
57.4863
 30
-1.27896e-14
  70
    32
  0
VERTEX
  8
0
  5
21C3
 10
50.6325
 20
57.4899
 30
-1.27905e-14
  70
    32
  0
VERTEX
  8
0
  5
21C4
 10
50.6216
 20
57.4936
 30
-1.27914e-14
  70
    32
  0
VERTEX
  8
0
  5
21C5
 10
50.6107
 20
57.4973
 30
-1.27923e-14
  70
    32
  0
VERTEX
  8
0
  5
21C6
 10
50.5997
 20
57.5010
 30
-1.27931e-14
  70
    32
  0
VERTEX
  8
0
  5
21C7
 10
50.5888
 20
57.5047
 30
-1.27939e-14
  70
    32
  0
VERTEX
  8
0
  5
21C8
 10
50.5779
 20
57.5084
 30
-1.27946e-14
  70
    32
  0
VERTEX
  8
0
  5
21C9
 10
50.5669
 20
57.5122
 30
-1.27953e-14
  70
    32
  0
VERTEX
  8
0
  5
21CA
 10
50.5560
 20
57.5160
 30
-1.27959e-14
  70
    32
  0
VERTEX
  8
0
  5
21CB
 10
50.5450
 20
57.5197
 30
-1.27965e-14
  70
    32
  0
VERTEX
  8
0
  5
21CC
 10
50.5341
 20
57.5236
 30
-1.27971e-14
  70
    32
  0
VERTEX
  8
0
  5
21CD
 10
50.5231
 20
57.5274
 30
-1.27976e-14
  70
    32
  0
VERTEX
  8
0
  5
21CE
 10
50.5121
 20
57.5312
 30
-1.27981e-14
  70
    32
  0
VERTEX
  8
0
  5
21CF
 10
50.5012
 20
57.5351
 30
-1.27985e-14
  70
    32
  0
VERTEX
  8
0
  5
21D0
 10
50.4902
 20
57.5390
 30
-1.27989e-14
  70
    32
  0
VERTEX
  8
0
  5
21D1
 10
50.4792
 20
57.5429
 30
-1.27992e-14
  70
    32
  0
VERTEX
  8
0
  5
21D2
 10
50.4682
 20
57.5468
 30
-1.27995e-14
  70
    32
  0
VERTEX
  8
0
  5
21D3
 10
50.4572
 20
57.5507
 30
-1.27997e-14
  70
    32
  0
VERTEX
  8
0
  5
21D4
 10
50.4462
 20
57.5547
 30
-1.27998e-14
  70
    32
  0
VERTEX
  8
0
  5
21D5
 10
50.4352
 20
57.5587
 30
-1.28000e-14
  70
    32
  0
VERTEX
  8
0
  5
21D6
 10
50.4242
 20
57.5626
 30
-1.28000e-14
  70
    32
  0
VERTEX
  8
0
  5
21D7
 10
50.4132
 20
57.5666
 30
-1.28000e-14
  70
    32
  0
VERTEX
  8
0
  5
21D8
 10
50.4022
 20
57.5707
 30
-1.28000e-14
  70
    32
  0
VERTEX
  8
0
  5
21D9
 10
50.3912
 20
57.5747
 30
-1.28000e-14
  70
    32
  0
VERTEX
  8
0
  5
21DA
 10
50.3802
 20
57.5788
 30
-1.28000e-14
  70
    32
  0
VERTEX
  8
0
  5
21DB
 10
50.3692
 20
57.5828
 30
-1.28000e-14
  70
    32
  0
VERTEX
  8
0
  5
21DC
 10
50.3581
 20
57.5869
 30
-1.28000e-14
  70
    32
  0
VERTEX
  8
0
  5
21DD
 10
50.3471
 20
57.5910
 30
-1.28000e-14
  70
    32
  0
VERTEX
  8
0
  5
21DE
 10
50.3361
 20
57.5952
 30
-1.28000e-14
  70
    32
  0
VERTEX
  8
0
  5
21DF
 10
50.3250
 20
57.5993
 30
-1.28000e-14
  70
    32
  0
VERTEX
  8
0
  5
21E0
 10
50.3140
 20
57.6035
 30
-1.28000e-14
  70
    32
  0
VERTEX
  8
0
  5
21E1
 10
50.3029
 20
57.6077
 30
-1.28000e-14
  70
    32
  0
VERTEX
  8
0
  5
21E2
 10
50.2919
 20
57.6118
 30
-1.28000e-14
  70
    32
  0
VERTEX
  8
0
  5
21E3
 10
50.2808
 20
57.6161
 30
-1.28000e-14
  70
    32
  0
VERTEX
  8
0
  5
21E4
 10
50.2697
 20
57.6203
 30
-1.28000e-14
  70
    32
  0
VERTEX
  8
0
  5
21E5
 10
50.2587
 20
57.6245
 30
-1.28000e-14
  70
    32
  0
VERTEX
  8
0
  5
21E6
 10
50.2476
 20
57.6288
 30
-1.28000e-14
  70
    32
  0
VERTEX
  8
0
  5
21E7
 10
50.2365
 20
57.6331
 30
-1.28000e-14
  70
    32
  0
VERTEX
  8
0
  5
21E8
 10
50.2255
 20
57.6374
 30
-1.28000e-14
  70
    32
  0
VERTEX
  8
0
  5
21E9
 10
50.2144
 20
57.6417
 30
-1.28000e-14
  70
    32
  0
VERTEX
  8
0
  5
21EA
 10
50.2033
 20
57.6460
 30
-1.28000e-14
  70
    32
  0
VERTEX
  8
0
  5
21EB
 10
50.1922
 20
57.6503
 30
-1.28000e-14
  70
    32
  0
SEQEND
  8
0
  5
21EC
  0
POLYLINE
  8
0
  5
21ED
  66
     1
 10
0.000000
 20
0.000000
 30
0.000000
  70
     8
  0
VERTEX
  8
0
  5
21EE
 10
144.546
 20
57.6503
 30
-1.28000e-14
  70
    32
  0
VERTEX
  8
0
  5
21EF
 10
144.535
 20
57.6460
 30
-1.28000e-14
  70
    32
  0
VERTEX
  8
0
  5
21F0
 10
144.524
 20
57.6417
 30
-1.28000e-14
  70
    32
  0
VERTEX
  8
0
  5
21F1
 10
144.513
 20
57.6374
 30
-1.28000e-14
  70
    32
  0
VERTEX
  8
0
  5
21F2
 10
144.502
 20
57.6331
 30
-1.28000e-14
  70
    32
  0
VERTEX
  8
0
  5
21F3
 10
144.491
 20
57.6288
 30
-1.28000e-14
  70
    32
  0
VERTEX
  8
0
  5
21F4
 10
144.480
 20
57.6245
 30
-1.28000e-14
  70
    32
  0
VERTEX
  8
0
  5
21F5
 10
144.469
 20
57.6203
 30
-1.28000e-14
  70
    32
  0
VERTEX
  8
0
  5
21F6
 10
144.457
 20
57.6161
 30
-1.28000e-14
  70
    32
  0
VERTEX
  8
0
  5
21F7
 10
144.446
 20
57.6118
 30
-1.28000e-14
  70
    32
  0
VERTEX
  8
0
  5
21F8
 10
144.435
 20
57.6077
 30
-1.28000e-14
  70
    32
  0
VERTEX
  8
0
  5
21F9
 10
144.424
 20
57.6035
 30
-1.28000e-14
  70
    32
  0
VERTEX
  8
0
  5
21FA
 10
144.413
 20
57.5993
 30
-1.28000e-14
  70
    32
  0
VERTEX
  8
0
  5
21FB
 10
144.402
 20
57.5952
 30
-1.28000e-14
  70
    32
  0
VERTEX
  8
0
  5
21FC
 10
144.391
 20
57.5910
 30
-1.28000e-14
  70
    32
  0
VERTEX
  8
0
  5
21FD
 10
144.380
 20
57.5869
 30
-1.28000e-14
  70
    32
  0
VERTEX
  8
0
  5
21FE
 10
144.369
 20
57.5828
 30
-1.28000e-14
  70
    32
  0
VERTEX
  8
0
  5
21FF
 10
144.358
 20
57.5788
 30
-1.28000e-14
  70
    32
  0
VERTEX
  8
0
  5
2200
 10
144.347
 20
57.5747
 30
-1.28000e-14
  70
    32
  0
VERTEX
  8
0
  5
2201
 10
144.336
 20
57.5707
 30
-1.28000e-14
  70
    32
  0
VERTEX
  8
0
  5
2202
 10
144.325
 20
57.5666
 30
-1.28000e-14
  70
    32
  0
VERTEX
  8
0
  5
2203
 10
144.314
 20
57.5626
 30
-1.28000e-14
  70
    32
  0
VERTEX
  8
0
  5
2204
 10
144.303
 20
57.5587
 30
-1.28000e-14
  70
    32
  0
VERTEX
  8
0
  5
2205
 10
144.292
 20
57.5547
 30
-1.27998e-14
  70
    32
  0
VERTEX
  8
0
  5
2206
 10
144.281
 20
57.5507
 30
-1.27997e-14
  70
    32
  0
VERTEX
  8
0
  5
2207
 10
144.270
 20
57.5468
 30
-1.27995e-14
  70
    32
  0
VERTEX
  8
0
  5
2208
 10
144.259
 20
57.5429
 30
-1.27992e-14
  70
    32
  0
VERTEX
  8
0
  5
2209
 10
144.248
 20
57.5390
 30
-1.27989e-14
  70
    32
  0
VERTEX
  8
0
  5
220A
 10
144.237
 20
57.5351
 30
-1.27985e-14
  70
    32
  0
VERTEX
  8
0
  5
220B
 10
144.226
 20
57.5312
 30
-1.27981e-14
  70
    32
  0
VERTEX
  8
0
  5
220C
 10
144.215
 20
57.5274
 30
-1.27976e-14
  70
    32
  0
VERTEX
  8
0
  5
220D
 10
144.204
 20
57.5236
 30
-1.27971e-14
  70
    32
  0
VERTEX
  8
0
  5
220E
 10
144.193
 20
57.5197
 30
-1.27965e-14
  70
    32
  0
VERTEX
  8
0
  5
220F
 10
144.182
 20
57.5160
 30
-1.27959e-14
  70
    32
  0
VERTEX
  8
0
  5
2210
 10
144.171
 20
57.5122
 30
-1.27953e-14
  70
    32
  0
VERTEX
  8
0
  5
2211
 10
144.160
 20
57.5084
 30
-1.27946e-14
  70
    32
  0
VERTEX
  8
0
  5
2212
 10
144.149
 20
57.5047
 30
-1.27939e-14
  70
    32
  0
VERTEX
  8
0
  5
2213
 10
144.139
 20
57.5010
 30
-1.27931e-14
  70
    32
  0
VERTEX
  8
0
  5
2214
 10
144.128
 20
57.4973
 30
-1.27923e-14
  70
    32
  0
VERTEX
  8
0
  5
2215
 10
144.117
 20
57.4936
 30
-1.27914e-14
  70
    32
  0
VERTEX
  8
0
  5
2216
 10
144.106
 20
57.4899
 30
-1.27905e-14
  70
    32
  0
VERTEX
  8
0
  5
2217
 10
144.095
 20
57.4863
 30
-1.27896e-14
  70
    32
  0
VERTEX
  8
0
  5
2218
 10
144.084
 20
57.4826
 30
-1.27886e-14
  70
    32
  0
VERTEX
  8
0
  5
2219
 10
144.073
 20
57.4790
 30
-1.27876e-14
  70
    32
  0
VERTEX
  8
0
  5
221A
 10
144.062
 20
57.4754
 30
-1.27866e-14
  70
    32
  0
VERTEX
  8
0
  5
221B
 10
144.051
 20
57.4718
 30
-1.27855e-14
  70
    32
  0
VERTEX
  8
0
  5
221C
 10
144.040
 20
57.4683
 30
-1.27844e-14
  70
    32
  0
VERTEX
  8
0
  5
221D
 10
144.030
 20
57.4648
 30
-1.27833e-14
  70
    32
  0
VERTEX
  8
0
  5
221E
 10
144.019
 20
57.4612
 30
-1.27822e-14
  70
    32
  0
VERTEX
  8
0
  5
221F
 10
144.008
 20
57.4577
 30
-1.27810e-14
  70
    32
  0
VERTEX
  8
0
  5
2220
 10
143.997
 20
57.4542
 30
-1.27798e-14
  70
    32
  0
VERTEX
  8
0
  5
2221
 10
143.986
 20
57.4508
 30
-1.27785e-14
  70
    32
  0
VERTEX
  8
0
  5
2222
 10
143.975
 20
57.4473
 30
-1.27773e-14
  70
    32
  0
VERTEX
  8
0
  5
2223
 10
143.964
 20
57.4439
 30
-1.27760e-14
  70
    32
  0
VERTEX
  8
0
  5
2224
 10
143.954
 20
57.4405
 30
-1.27747e-14
  70
    32
  0
VERTEX
  8
0
  5
2225
 10
143.943
 20
57.4371
 30
-1.27734e-14
  70
    32
  0
VERTEX
  8
0
  5
2226
 10
143.932
 20
57.4337
 30
-1.27721e-14
  70
    32
  0
VERTEX
  8
0
  5
2227
 10
143.921
 20
57.4304
 30
-1.27707e-14
  70
    32
  0
VERTEX
  8
0
  5
2228
 10
143.910
 20
57.4270
 30
-1.27694e-14
  70
    32
  0
VERTEX
  8
0
  5
2229
 10
143.900
 20
57.4237
 30
-1.27680e-14
  70
    32
  0
VERTEX
  8
0
  5
222A
 10
143.889
 20
57.4204
 30
-1.27666e-14
  70
    32
  0
VERTEX
  8
0
  5
222B
 10
143.878
 20
57.4172
 30
-1.27652e-14
  70
    32
  0
VERTEX
  8
0
  5
222C
 10
143.867
 20
57.4139
 30
-1.27637e-14
  70
    32
  0
VERTEX
  8
0
  5
222D
 10
143.856
 20
57.4107
 30
-1.27623e-14
  70
    32
  0
VERTEX
  8
0
  5
222E
 10
143.846
 20
57.4074
 30
-1.27609e-14
  70
    32
  0
VERTEX
  8
0
  5
222F
 10
143.835
 20
57.4042
 30
-1.27594e-14
  70
    32
  0
VERTEX
  8
0
  5
2230
 10
143.824
 20
57.4010
 30
-1.27579e-14
  70
    32
  0
VERTEX
  8
0
  5
2231
 10
143.813
 20
57.3979
 30
-1.27565e-14
  70
    32
  0
VERTEX
  8
0
  5
2232
 10
143.803
 20
57.3947
 30
-1.27550e-14
  70
    32
  0
VERTEX
  8
0
  5
2233
 10
143.792
 20
57.3916
 30
-1.27535e-14
  70
    32
  0
VERTEX
  8
0
  5
2234
 10
143.781
 20
57.3885
 30
-1.27521e-14
  70
    32
  0
VERTEX
  8
0
  5
2235
 10
143.771
 20
57.3854
 30
-1.27506e-14
  70
    32
  0
VERTEX
  8
0
  5
2236
 10
143.760
 20
57.3823
 30
-1.27491e-14
  70
    32
  0
VERTEX
  8
0
  5
2237
 10
143.749
 20
57.3793
 30
-1.27476e-14
  70
    32
  0
VERTEX
  8
0
  5
2238
 10
143.739
 20
57.3763
 30
-1.27461e-14
  70
    32
  0
VERTEX
  8
0
  5
2239
 10
143.728
 20
57.3733
 30
-1.27447e-14
  70
    32
  0
VERTEX
  8
0
  5
223A
 10
143.717
 20
57.3703
 30
-1.27432e-14
  70
    32
  0
VERTEX
  8
0
  5
223B
 10
143.707
 20
57.3673
 30
-1.27417e-14
  70
    32
  0
VERTEX
  8
0
  5
223C
 10
143.696
 20
57.3643
 30
-1.27403e-14
  70
    32
  0
VERTEX
  8
0
  5
223D
 10
143.685
 20
57.3614
 30
-1.27388e-14
  70
    32
  0
VERTEX
  8
0
  5
223E
 10
143.675
 20
57.3585
 30
-1.27374e-14
  70
    32
  0
VERTEX
  8
0
  5
223F
 10
143.664
 20
57.3556
 30
-1.27360e-14
  70
    32
  0
VERTEX
  8
0
  5
2240
 10
143.653
 20
57.3527
 30
-1.27345e-14
  70
    32
  0
VERTEX
  8
0
  5
2241
 10
143.643
 20
57.3499
 30
-1.27331e-14
  70
    32
  0
VERTEX
  8
0
  5
2242
 10
143.632
 20
57.3470
 30
-1.27317e-14
  70
    32
  0
VERTEX
  8
0
  5
2243
 10
143.622
 20
57.3442
 30
-1.27304e-14
  70
    32
  0
VERTEX
  8
0
  5
2244
 10
143.611
 20
57.3414
 30
-1.27290e-14
  70
    32
  0
VERTEX
  8
0
  5
2245
 10
143.600
 20
57.3386
 30
-1.27276e-14
  70
    32
  0
VERTEX
  8
0
  5
2246
 10
143.590
 20
57.3359
 30
-1.27263e-14
  70
    32
  0
VERTEX
  8
0
  5
2247
 10
143.579
 20
57.3331
 30
-1.27250e-14
  70
    32
  0
VERTEX
  8
0
  5
2248
 10
143.569
 20
57.3304
 30
-1.27237e-14
  70
    32
  0
VERTEX
  8
0
  5
2249
 10
143.558
 20
57.3277
 30
-1.27224e-14
  70
    32
  0
VERTEX
  8
0
  5
224A
 10
143.548
 20
57.3250
 30
-1.27212e-14
  70
    32
  0
VERTEX
  8
0
  5
224B
 10
143.537
 20
57.3224
 30
-1.27200e-14
  70
    32
  0
VERTEX
  8
0
  5
224C
 10
143.527
 20
57.3197
 30
-1.27188e-14
  70
    32
  0
VERTEX
  8
0
  5
224D
 10
143.516
 20
57.3171
 30
-1.27176e-14
  70
    32
  0
VERTEX
  8
0
  5
224E
 10
143.506
 20
57.3145
 30
-1.27165e-14
  70
    32
  0
VERTEX
  8
0
  5
224F
 10
143.495
 20
57.3119
 30
-1.27153e-14
  70
    32
  0
VERTEX
  8
0
  5
2250
 10
143.485
 20
57.3094
 30
-1.27143e-14
  70
    32
  0
VERTEX
  8
0
  5
2251
 10
143.474
 20
57.3068
 30
-1.27132e-14
  70
    32
  0
VERTEX
  8
0
  5
2252
 10
143.464
 20
57.3043
 30
-1.27122e-14
  70
    32
  0
VERTEX
  8
0
  5
2253
 10
143.453
 20
57.3018
 30
-1.27112e-14
  70
    32
  0
VERTEX
  8
0
  5
2254
 10
143.443
 20
57.2993
 30
-1.27102e-14
  70
    32
  0
VERTEX
  8
0
  5
2255
 10
143.433
 20
57.2969
 30
-1.27093e-14
  70
    32
  0
VERTEX
  8
0
  5
2256
 10
143.422
 20
57.2944
 30
-1.27084e-14
  70
    32
  0
VERTEX
  8
0
  5
2257
 10
143.412
 20
57.2920
 30
-1.27076e-14
  70
    32
  0
VERTEX
  8
0
  5
2258
 10
143.401
 20
57.2896
 30
-1.27068e-14
  70
    32
  0
VERTEX
  8
0
  5
2259
 10
143.391
 20
57.2872
 30
-1.27060e-14
  70
    32
  0
VERTEX
  8
0
  5
225A
 10
143.381
 20
57.2849
 30
-1.27053e-14
  70
    32
  0
VERTEX
  8
0
  5
225B
 10
143.370
 20
57.2825
 30
-1.27046e-14
  70
    32
  0
VERTEX
  8
0
  5
225C
 10
143.360
 20
57.2802
 30
-1.27039e-14
  70
    32
  0
VERTEX
  8
0
  5
225D
 10
143.350
 20
57.2779
 30
-1.27033e-14
  70
    32
  0
VERTEX
  8
0
  5
225E
 10
143.339
 20
57.2757
 30
-1.27028e-14
  70
    32
  0
VERTEX
  8
0
  5
225F
 10
143.329
 20
57.2734
 30
-1.27023e-14
  70
    32
  0
VERTEX
  8
0
  5
2260
 10
143.319
 20
57.2712
 30
-1.27018e-14
  70
    32
  0
VERTEX
  8
0
  5
2261
 10
143.308
 20
57.2689
 30
-1.27014e-14
  70
    32
  0
VERTEX
  8
0
  5
2262
 10
143.298
 20
57.2668
 30
-1.27010e-14
  70
    32
  0
VERTEX
  8
0
  5
2263
 10
143.288
 20
57.2646
 30
-1.27007e-14
  70
    32
  0
VERTEX
  8
0
  5
2264
 10
143.278
 20
57.2624
 30
-1.27005e-14
  70
    32
  0
VERTEX
  8
0
  5
2265
 10
143.267
 20
57.2603
 30
-1.27003e-14
  70
    32
  0
VERTEX
  8
0
  5
2266
 10
143.257
 20
57.2582
 30
-1.27001e-14
  70
    32
  0
VERTEX
  8
0
  5
2267
 10
143.247
 20
57.2561
 30
-1.27000e-14
  70
    32
  0
VERTEX
  8
0
  5
2268
 10
143.237
 20
57.2540
 30
-1.27000e-14
  70
    32
  0
VERTEX
  8
0
  5
2269
 10
143.227
 20
57.2520
 30
-1.27000e-14
  70
    32
  0
VERTEX
  8
0
  5
226A
 10
143.216
 20
57.2499
 30
-1.27000e-14
  70
    32
  0
VERTEX
  8
0
  5
226B
 10
143.206
 20
57.2479
 30
-1.27000e-14
  70
    32
  0
VERTEX
  8
0
  5
226C
 10
143.196
 20
57.2459
 30
-1.27000e-14
  70
    32
  0
VERTEX
  8
0
  5
226D
 10
143.186
 20
57.2440
 30
-1.27000e-14
  70
    32
  0
VERTEX
  8
0
  5
226E
 10
143.176
 20
57.2420
 30
-1.27000e-14
  70
    32
  0
VERTEX
  8
0
  5
226F
 10
143.166
 20
57.2401
 30
-1.27000e-14
  70
    32
  0
VERTEX
  8
0
  5
2270
 10
143.156
 20
57.2382
 30
-1.27000e-14
  70
    32
  0
VERTEX
  8
0
  5
2271
 10
143.145
 20
57.2363
 30
-1.27000e-14
  70
    32
  0
VERTEX
  8
0
  5
2272
 10
143.135
 20
57.2345
 30
-1.27000e-14
  70
    32
  0
VERTEX
  8
0
  5
2273
 10
143.125
 20
57.2326
 30
-1.27000e-14
  70
    32
  0
VERTEX
  8
0
  5
2274
 10
143.115
 20
57.2308
 30
-1.27000e-14
  70
    32
  0
VERTEX
  8
0
  5
2275
 10
143.105
 20
57.2290
 30
-1.27000e-14
  70
    32
  0
VERTEX
  8
0
  5
2276
 10
143.095
 20
57.2272
 30
-1.27000e-14
  70
    32
  0
VERTEX
  8
0
  5
2277
 10
143.085
 20
57.2254
 30
-1.27000e-14
  70
    32
  0
VERTEX
  8
0
  5
2278
 10
143.075
 20
57.2237
 30
-1.27000e-14
  70
    32
  0
VERTEX
  8
0
  5
2279
 10
143.065
 20
57.2220
 30
-1.27000e-14
  70
    32
  0
VERTEX
  8
0
  5
227A
 10
143.055
 20
57.2203
 30
-1.27000e-14
  70
    32
  0
VERTEX
  8
0
  5
227B
 10
143.045
 20
57.2186
 30
-1.27000e-14
  70
    32
  0
VERTEX
  8
0
  5
227C
 10
143.035
 20
57.2170
 30
-1.27000e-14
  70
    32
  0
VERTEX
  8
0
  5
227D
 10
143.025
 20
57.2153
 30
-1.27000e-14
  70
    32
  0
VERTEX
  8
0
  5
227E
 10
143.015
 20
57.2137
 30
-1.27000e-14
  70
    32
  0
VERTEX
  8
0
  5
227F
 10
143.005
 20
57.2121
 30
-1.27000e-14
  70
    32
  0
VERTEX
  8
0
  5
2280
 10
142.995
 20
57.2105
 30
-1.27000e-14
  70
    32
  0
VERTEX
  8
0
  5
2281
 10
142.985
 20
57.2090
 30
-1.27000e-14
  70
    32
  0
VERTEX
  8
0
  5
2282
 10
142.976
 20
57.2075
 30
-1.27000e-14
  70
    32
  0
VERTEX
  8
0
  5
2283
 10
142.966
 20
57.2059
 30
-1.27000e-14
  70
    32
  0
VERTEX
  8
0
  5
2284
 10
142.956
 20
57.2045
 30
-1.27000e-14
  70
    32
  0
VERTEX
  8
0
  5
2285
 10
142.946
 20
57.2030
 30
-1.27000e-14
  70
    32
  0
VERTEX
  8
0
  5
2286
 10
142.936
 20
57.2015
 30
-1.27000e-14
  70
    32
  0
VERTEX
  8
0
  5
2287
 10
142.926
 20
57.2001
 30
-1.27000e-14
  70
    32
  0
VERTEX
  8
0
  5
2288
 10
142.916
 20
57.1987
 30
-1.27000e-14
  70
    32
  0
VERTEX
  8
0
  5
2289
 10
142.907
 20
57.1973
 30
-1.27000e-14
  70
    32
  0
VERTEX
  8
0
  5
228A
 10
142.897
 20
57.1959
 30
-1.27000e-14
  70
    32
  0
VERTEX
  8
0
  5
228B
 10
142.887
 20
57.1946
 30
-1.27000e-14
  70
    32
  0
VERTEX
  8
0
  5
228C
 10
142.877
 20
57.1933
 30
-1.27000e-14
  70
    32
  0
VERTEX
  8
0
  5
228D
 10
142.868
 20
57.1919
 30
-1.27000e-14
  70
    32
  0
VERTEX
  8
0
  5
228E
 10
142.858
 20
57.1907
 30
-1.27000e-14
  70
    32
  0
VERTEX
  8
0
  5
228F
 10
142.848
 20
57.1894
 30
-1.27000e-14
  70
    32
  0
VERTEX
  8
0
  5
2290
 10
142.838
 20
57.1881
 30
-1.27000e-14
  70
    32
  0
VERTEX
  8
0
  5
2291
 10
142.829
 20
57.1869
 30
-1.27000e-14
  70
    32
  0
VERTEX
  8
0
  5
2292
 10
142.819
 20
57.1857
 30
-1.27000e-14
  70
    32
  0
VERTEX
  8
0
  5
2293
 10
142.809
 20
57.1845
 30
-1.27000e-14
  70
    32
  0
VERTEX
  8
0
  5
2294
 10
142.800
 20
57.1834
 30
-1.27000e-14
  70
    32
  0
VERTEX
  8
0
  5
2295
 10
142.790
 20
57.1822
 30
-1.27000e-14
  70
    32
  0
VERTEX
  8
0
  5
2296
 10
142.781
 20
57.1811
 30
-1.27000e-14
  70
    32
  0
VERTEX
  8
0
  5
2297
 10
142.771
 20
57.1800
 30
-1.27000e-14
  70
    32
  0
VERTEX
  8
0
  5
2298
 10
142.761
 20
57.1789
 30
-1.27000e-14
  70
    32
  0
VERTEX
  8
0
  5
2299
 10
142.752
 20
57.1779
 30
-1.27000e-14
  70
    32
  0
VERTEX
  8
0
  5
229A
 10
142.742
 20
57.1768
 30
-1.27000e-14
  70
    32
  0
VERTEX
  8
0
  5
229B
 10
142.733
 20
57.1758
 30
-1.27000e-14
  70
    32
  0
VERTEX
  8
0
  5
229C
 10
142.723
 20
57.1748
 30
-1.27000e-14
  70
    32
  0
VERTEX
  8
0
  5
229D
 10
142.714
 20
57.1738
 30
-1.27000e-14
  70
    32
  0
VERTEX
  8
0
  5
229E
 10
142.704
 20
57.1728
 30
-1.27000e-14
  70
    32
  0
VERTEX
  8
0
  5
229F
 10
142.695
 20
57.1719
 30
-1.27000e-14
  70
    32
  0
VERTEX
  8
0
  5
22A0
 10
142.685
 20
57.1710
 30
-1.27000e-14
  70
    32
  0
VERTEX
  8
0
  5
22A1
 10
142.676
 20
57.1701
 30
-1.27000e-14
  70
    32
  0
VERTEX
  8
0
  5
22A2
 10
142.666
 20
57.1692
 30
-1.27000e-14
  70
    32
  0
VERTEX
  8
0
  5
22A3
 10
142.657
 20
57.1683
 30
-1.27000e-14
  70
    32
  0
VERTEX
  8
0
  5
22A4
 10
142.647
 20
57.1675
 30
-1.27000e-14
  70
    32
  0
VERTEX
  8
0
  5
22A5
 10
142.638
 20
57.1667
 30
-1.27000e-14
  70
    32
  0
VERTEX
  8
0
  5
22A6
 10
142.629
 20
57.1659
 30
-1.27000e-14
  70
    32
  0
VERTEX
  8
0
  5
22A7
 10
142.619
 20
57.1651
 30
-1.27000e-14
  70
    32
  0
VERTEX
  8
0
  5
22A8
 10
142.610
 20
57.1643
 30
-1.27000e-14
  70
    32
  0
VERTEX
  8
0
  5
22A9
 10
142.601
 20
57.1636
 30
-1.27000e-14
  70
    32
  0
VERTEX
  8
0
  5
22AA
 10
142.591
 20
57.1629
 30
-1.27000e-14
  70
    32
  0
VERTEX
  8
0
  5
22AB
 10
142.582
 20
57.1622
 30
-1.27000e-14
  70
    32
  0
VERTEX
  8
0
  5
22AC
 10
142.573
 20
57.1615
 30
-1.27000e-14
  70
    32
  0
VERTEX
  8
0
  5
22AD
 10
142.563
 20
57.1609
 30
-1.27000e-14
  70
    32
  0
VERTEX
  8
0
  5
22AE
 10
142.554
 20
57.1602
 30
-1.27000e-14
  70
    32
  0
VERTEX
  8
0
  5
22AF
 10
142.545
 20
57.1596
 30
-1.27000e-14
  70
    32
  0
VERTEX
  8
0
  5
22B0
 10
142.536
 20
57.1590
 30
-1.27000e-14
  70
    32
  0
VERTEX
  8
0
  5
22B1
 10
142.526
 20
57.1584
 30
-1.27000e-14
  70
    32
  0
VERTEX
  8
0
  5
22B2
 10
142.517
 20
57.1579
 30
-1.27000e-14
  70
    32
  0
VERTEX
  8
0
  5
22B3
 10
142.508
 20
57.1573
 30
-1.27000e-14
  70
    32
  0
VERTEX
  8
0
  5
22B4
 10
142.499
 20
57.1568
 30
-1.27000e-14
  70
    32
  0
VERTEX
  8
0
  5
22B5
 10
142.490
 20
57.1563
 30
-1.27000e-14
  70
    32
  0
VERTEX
  8
0
  5
22B6
 10
142.480
 20
57.1558
 30
-1.27000e-14
  70
    32
  0
VERTEX
  8
0
  5
22B7
 10
142.471
 20
57.1554
 30
-1.27000e-14
  70
    32
  0
VERTEX
  8
0
  5
22B8
 10
142.462
 20
57.1549
 30
-1.27000e-14
  70
    32
  0
VERTEX
  8
0
  5
22B9
 10
142.453
 20
57.1545
 30
-1.27000e-14
  70
    32
  0
VERTEX
  8
0
  5
22BA
 10
142.444
 20
57.1541
 30
-1.27000e-14
  70
    32
  0
VERTEX
  8
0
  5
22BB
 10
142.435
 20
57.1537
 30
-1.27000e-14
  70
    32
  0
VERTEX
  8
0
  5
22BC
 10
142.426
 20
57.1534
 30
-1.27000e-14
  70
    32
  0
VERTEX
  8
0
  5
22BD
 10
142.417
 20
57.1530
 30
-1.27000e-14
  70
    32
  0
VERTEX
  8
0
  5
22BE
 10
142.408
 20
57.1527
 30
-1.27000e-14
  70
    32
  0
VERTEX
  8
0
  5
22BF
 10
142.399
 20
57.1524
 30
-1.27000e-14
  70
    32
  0
VERTEX
  8
0
  5
22C0
 10
142.390
 20
57.1522
 30
-1.27000e-14
  70
    32
  0
VERTEX
  8
0
  5
22C1
 10
142.381
 20
57.1519
 30
-1.27000e-14
  70
    32
  0
VERTEX
  8
0
  5
22C2
 10
142.372
 20
57.1517
 30
-1.27000e-14
  70
    32
  0
VERTEX
  8
0
  5
22C3
 10
142.363
 20
57.1514
 30
-1.27000e-14
  70
    32
  0
VERTEX
  8
0
  5
22C4
 10
142.354
 20
57.1512
 30
-1.27000e-14
  70
    32
  0
VERTEX
  8
0
  5
22C5
 10
142.345
 20
57.1511
 30
-1.27000e-14
  70
    32
  0
VERTEX
  8
0
  5
22C6
 10
142.336
 20
57.1509
 30
-1.27000e-14
  70
    32
  0
VERTEX
  8
0
  5
22C7
 10
142.328
 20
57.1508
 30
-1.27000e-14
  70
    32
  0
VERTEX
  8
0
  5
22C8
 10
142.319
 20
57.1506
 30
-1.27000e-14
  70
    32
  0
VERTEX
  8
0
  5
22C9
 10
142.310
 20
57.1505
 30
-1.27000e-14
  70
    32
  0
VERTEX
  8
0
  5
22CA
 10
142.301
 20
57.1505
 30
-1.27000e-14
  70
    32
  0
VERTEX
  8
0
  5
22CB
 10
142.292
 20
57.1504
 30
-1.27000e-14
  70
    32
  0
VERTEX
  8
0
  5
22CC
 10
142.284
 20
57.1504
 30
-1.27000e-14
  70
    32
  0
VERTEX
  8
0
  5
22CD
 10
142.275
 20
57.1503
 30
-1.27000e-14
  70
    32
  0
VERTEX
  8
0
  5
22CE
 10
142.266
 20
57.1503
 30
-1.27000e-14
  70
    32
  0
VERTEX
  8
0
  5
22CF
 10
142.257
 20
57.1504
 30
-1.27000e-14
  70
    32
  0
VERTEX
  8
0
  5
22D0
 10
142.249
 20
57.1504
 30
-1.27000e-14
  70
    32
  0
VERTEX
  8
0
  5
22D1
 10
142.240
 20
57.1505
 30
-1.27000e-14
  70
    32
  0
VERTEX
  8
0
  5
22D2
 10
142.231
 20
57.1505
 30
-1.27000e-14
  70
    32
  0
VERTEX
  8
0
  5
22D3
 10
142.222
 20
57.1506
 30
-1.27000e-14
  70
    32
  0
VERTEX
  8
0
  5
22D4
 10
142.214
 20
57.1508
 30
-1.27000e-14
  70
    32
  0
VERTEX
  8
0
  5
22D5
 10
142.205
 20
57.1509
 30
-1.27000e-14
  70
    32
  0
VERTEX
  8
0
  5
22D6
 10
142.196
 20
57.1511
 30
-1.27000e-14
  70
    32
  0
VERTEX
  8
0
  5
22D7
 10
142.188
 20
57.1512
 30
-1.27000e-14
  70
    32
  0
VERTEX
  8
0
  5
22D8
 10
142.179
 20
57.1514
 30
-1.27000e-14
  70
    32
  0
VERTEX
  8
0
  5
22D9
 10
142.170
 20
57.1517
 30
-1.27000e-14
  70
    32
  0
VERTEX
  8
0
  5
22DA
 10
142.162
 20
57.1519
 30
-1.27000e-14
  70
    32
  0
VERTEX
  8
0
  5
22DB
 10
142.153
 20
57.1522
 30
-1.27000e-14
  70
    32
  0
VERTEX
  8
0
  5
22DC
 10
142.144
 20
57.1524
 30
-1.27000e-14
  70
    32
  0
VERTEX
  8
0
  5
22DD
 10
142.136
 20
57.1527
 30
-1.27000e-14
  70
    32
  0
VERTEX
  8
0
  5
22DE
 10
142.127
 20
57.1530
 30
-1.27000e-14
  70
    32
  0
VERTEX
  8
0
  5
22DF
 10
142.119
 20
57.1534
 30
-1.27000e-14
  70
    32
  0
VERTEX
  8
0
  5
22E0
 10
142.110
 20
57.1537
 30
-1.27000e-14
  70
    32
  0
VERTEX
  8
0
  5
22E1
 10
142.101
 20
57.1541
 30
-1.27000e-14
  70
    32
  0
VERTEX
  8
0
  5
22E2
 10
142.093
 20
57.1545
 30
-1.27000e-14
  70
    32
  0
VERTEX
  8
0
  5
22E3
 10
142.084
 20
57.1549
 30
-1.27000e-14
  70
    32
  0
VERTEX
  8
0
  5
22E4
 10
142.076
 20
57.1554
 30
-1.27000e-14
  70
    32
  0
VERTEX
  8
0
  5
22E5
 10
142.067
 20
57.1558
 30
-1.27000e-14
  70
    32
  0
VERTEX
  8
0
  5
22E6
 10
142.059
 20
57.1563
 30
-1.27000e-14
  70
    32
  0
VERTEX
  8
0
  5
22E7
 10
142.050
 20
57.1568
 30
-1.27000e-14
  70
    32
  0
VERTEX
  8
0
  5
22E8
 10
142.042
 20
57.1573
 30
-1.27000e-14
  70
    32
  0
VERTEX
  8
0
  5
22E9
 10
142.033
 20
57.1579
 30
-1.27000e-14
  70
    32
  0
VERTEX
  8
0
  5
22EA
 10
142.024
 20
57.1584
 30
-1.27000e-14
  70
    32
  0
VERTEX
  8
0
  5
22EB
 10
142.016
 20
57.1590
 30
-1.27000e-14
  70
    32
  0
VERTEX
  8
0
  5
22EC
 10
142.007
 20
57.1596
 30
-1.27000e-14
  70
    32
  0
VERTEX
  8
0
  5
22ED
 10
141.999
 20
57.1602
 30
-1.27000e-14
  70
    32
  0
VERTEX
  8
0
  5
22EE
 10
141.991
 20
57.1609
 30
-1.27000e-14
  70
    32
  0
VERTEX
  8
0
  5
22EF
 10
141.982
 20
57.1615
 30
-1.27000e-14
  70
    32
  0
VERTEX
  8
0
  5
22F0
 10
141.974
 20
57.1622
 30
-1.27000e-14
  70
    32
  0
VERTEX
  8
0
  5
22F1
 10
141.965
 20
57.1629
 30
-1.27000e-14
  70
    32
  0
VERTEX
  8
0
  5
22F2
 10
141.957
 20
57.1636
 30
-1.27000e-14
  70
    32
  0
VERTEX
  8
0
  5
22F3
 10
141.948
 20
57.1643
 30
-1.27000e-14
  70
    32
  0
VERTEX
  8
0
  5
22F4
 10
141.940
 20
57.1651
 30
-1.27000e-14
  70
    32
  0
VERTEX
  8
0
  5
22F5
 10
141.931
 20
57.1659
 30
-1.27000e-14
  70
    32
  0
VERTEX
  8
0
  5
22F6
 10
141.923
 20
57.1667
 30
-1.27000e-14
  70
    32
  0
VERTEX
  8
0
  5
22F7
 10
141.915
 20
57.1675
 30
-1.27000e-14
  70
    32
  0
VERTEX
  8
0
  5
22F8
 10
141.906
 20
57.1683
 30
-1.27000e-14
  70
    32
  0
VERTEX
  8
0
  5
22F9
 10
141.898
 20
57.1692
 30
-1.27000e-14
  70
    32
  0
VERTEX
  8
0
  5
22FA
 10
141.890
 20
57.1701
 30
-1.27000e-14
  70
    32
  0
VERTEX
  8
0
  5
22FB
 10
141.881
 20
57.1710
 30
-1.27000e-14
  70
    32
  0
VERTEX
  8
0
  5
22FC
 10
141.873
 20
57.1719
 30
-1.27000e-14
  70
    32
  0
VERTEX
  8
0
  5
22FD
 10
141.865
 20
57.1728
 30
-1.27000e-14
  70
    32
  0
VERTEX
  8
0
  5
22FE
 10
141.856
 20
57.1738
 30
-1.27000e-14
  70
    32
  0
VERTEX
  8
0
  5
22FF
 10
141.848
 20
57.1748
 30
-1.27000e-14
  70
    32
  0
VERTEX
  8
0
  5
2300
 10
141.840
 20
57.1758
 30
-1.27000e-14
  70
    32
  0
VERTEX
  8
0
  5
2301
 10
141.831
 20
57.1768
 30
-1.27000e-14
  70
    32
  0
VERTEX
  8
0
  5
2302
 10
141.823
 20
57.1779
 30
-1.27000e-14
  70
    32
  0
VERTEX
  8
0
  5
2303
 10
141.815
 20
57.1789
 30
-1.27000e-14
  70
    32
  0
VERTEX
  8
0
  5
2304
 10
141.807
 20
57.1800
 30
-1.27000e-14
  70
    32
  0
VERTEX
  8
0
  5
2305
 10
141.798
 20
57.1811
 30
-1.27000e-14
  70
    32
  0
VERTEX
  8
0
  5
2306
 10
141.790
 20
57.1822
 30
-1.27000e-14
  70
    32
  0
VERTEX
  8
0
  5
2307
 10
141.782
 20
57.1834
 30
-1.27000e-14
  70
    32
  0
VERTEX
  8
0
  5
2308
 10
141.774
 20
57.1845
 30
-1.27000e-14
  70
    32
  0
VERTEX
  8
0
  5
2309
 10
141.766
 20
57.1857
 30
-1.27000e-14
  70
    32
  0
VERTEX
  8
0
  5
230A
 10
141.757
 20
57.1869
 30
-1.27000e-14
  70
    32
  0
VERTEX
  8
0
  5
230B
 10
141.749
 20
57.1881
 30
-1.27000e-14
  70
    32
  0
VERTEX
  8
0
  5
230C
 10
141.741
 20
57.1894
 30
-1.27000e-14
  70
    32
  0
VERTEX
  8
0
  5
230D
 10
141.733
 20
57.1907
 30
-1.27000e-14
  70
    32
  0
VERTEX
  8
0
  5
230E
 10
141.725
 20
57.1919
 30
-1.27000e-14
  70
    32
  0
VERTEX
  8
0
  5
230F
 10
141.717
 20
57.1933
 30
-1.27000e-14
  70
    32
  0
VERTEX
  8
0
  5
2310
 10
141.709
 20
57.1946
 30
-1.27000e-14
  70
    32
  0
VERTEX
  8
0
  5
2311
 10
141.700
 20
57.1959
 30
-1.27000e-14
  70
    32
  0
VERTEX
  8
0
  5
2312
 10
141.692
 20
57.1973
 30
-1.27000e-14
  70
    32
  0
VERTEX
  8
0
  5
2313
 10
141.684
 20
57.1987
 30
-1.27000e-14
  70
    32
  0
VERTEX
  8
0
  5
2314
 10
141.676
 20
57.2001
 30
-1.27000e-14
  70
    32
  0
VERTEX
  8
0
  5
2315
 10
141.668
 20
57.2015
 30
-1.27000e-14
  70
    32
  0
VERTEX
  8
0
  5
2316
 10
141.660
 20
57.2030
 30
-1.27000e-14
  70
    32
  0
VERTEX
  8
0
  5
2317
 10
141.652
 20
57.2045
 30
-1.27000e-14
  70
    32
  0
VERTEX
  8
0
  5
2318
 10
141.644
 20
57.2059
 30
-1.27000e-14
  70
    32
  0
VERTEX
  8
0
  5
2319
 10
141.636
 20
57.2075
 30
-1.27000e-14
  70
    32
  0
VERTEX
  8
0
  5
231A
 10
141.628
 20
57.2090
 30
-1.27000e-14
  70
    32
  0
VERTEX
  8
0
  5
231B
 10
141.620
 20
57.2105
 30
-1.27000e-14
  70
    32
  0
VERTEX
  8
0
  5
231C
 10
141.612
 20
57.2121
 30
-1.27000e-14
  70
    32
  0
VERTEX
  8
0
  5
231D
 10
141.604
 20
57.2137
 30
-1.27000e-14
  70
    32
  0
VERTEX
  8
0
  5
231E
 10
141.596
 20
57.2153
 30
-1.27000e-14
  70
    32
  0
VERTEX
  8
0
  5
231F
 10
141.588
 20
57.2170
 30
-1.27000e-14
  70
    32
  0
VERTEX
  8
0
  5
2320
 10
141.580
 20
57.2186
 30
-1.27000e-14
  70
    32
  0
VERTEX
  8
0
  5
2321
 10
141.572
 20
57.2203
 30
-1.27000e-14
  70
    32
  0
VERTEX
  8
0
  5
2322
 10
141.565
 20
57.2220
 30
-1.27000e-14
  70
    32
  0
VERTEX
  8
0
  5
2323
 10
141.557
 20
57.2237
 30
-1.27000e-14
  70
    32
  0
VERTEX
  8
0
  5
2324
 10
141.549
 20
57.2254
 30
-1.27000e-14
  70
    32
  0
VERTEX
  8
0
  5
2325
 10
141.541
 20
57.2272
 30
-1.27000e-14
  70
    32
  0
VERTEX
  8
0
  5
2326
 10
141.533
 20
57.2290
 30
-1.27000e-14
  70
    32
  0
VERTEX
  8
0
  5
2327
 10
141.525
 20
57.2308
 30
-1.27000e-14
  70
    32
  0
VERTEX
  8
0
  5
2328
 10
141.518
 20
57.2326
 30
-1.27000e-14
  70
    32
  0
VERTEX
  8
0
  5
2329
 10
141.510
 20
57.2345
 30
-1.27000e-14
  70
    32
  0
VERTEX
  8
0
  5
232A
 10
141.502
 20
57.2363
 30
-1.27000e-14
  70
    32
  0
VERTEX
  8
0
  5
232B
 10
141.494
 20
57.2382
 30
-1.27000e-14
  70
    32
  0
VERTEX
  8
0
  5
232C
 10
141.486
 20
57.2401
 30
-1.27000e-14
  70
    32
  0
VERTEX
  8
0
  5
232D
 10
141.479
 20
57.2420
 30
-1.27000e-14
  70
    32
  0
VERTEX
  8
0
  5
232E
 10
141.471
 20
57.2440
 30
-1.27000e-14
  70
    32
  0
VERTEX
  8
0
  5
232F
 10
141.463
 20
57.2459
 30
-1.27000e-14
  70
    32
  0
VERTEX
  8
0
  5
2330
 10
141.456
 20
57.2479
 30
-1.27000e-14
  70
    32
  0
VERTEX
  8
0
  5
2331
 10
141.448
 20
57.2499
 30
-1.27000e-14
  70
    32
  0
VERTEX
  8
0
  5
2332
 10
141.440
 20
57.2520
 30
-1.27000e-14
  70
    32
  0
VERTEX
  8
0
  5
2333
 10
141.433
 20
57.2540
 30
-1.27000e-14
  70
    32
  0
VERTEX
  8
0
  5
2334
 10
141.425
 20
57.2561
 30
-1.27000e-14
  70
    32
  0
VERTEX
  8
0
  5
2335
 10
141.417
 20
57.2582
 30
-1.27001e-14
  70
    32
  0
VERTEX
  8
0
  5
2336
 10
141.410
 20
57.2603
 30
-1.27003e-14
  70
    32
  0
VERTEX
  8
0
  5
2337
 10
141.402
 20
57.2624
 30
-1.27005e-14
  70
    32
  0
VERTEX
  8
0
  5
2338
 10
141.395
 20
57.2646
 30
-1.27007e-14
  70
    32
  0
VERTEX
  8
0
  5
2339
 10
141.387
 20
57.2668
 30
-1.27010e-14
  70
    32
  0
VERTEX
  8
0
  5
233A
 10
141.379
 20
57.2689
 30
-1.27014e-14
  70
    32
  0
VERTEX
  8
0
  5
233B
 10
141.372
 20
57.2712
 30
-1.27018e-14
  70
    32
  0
VERTEX
  8
0
  5
233C
 10
141.364
 20
57.2734
 30
-1.27023e-14
  70
    32
  0
VERTEX
  8
0
  5
233D
 10
141.357
 20
57.2757
 30
-1.27028e-14
  70
    32
  0
VERTEX
  8
0
  5
233E
 10
141.349
 20
57.2779
 30
-1.27033e-14
  70
    32
  0
VERTEX
  8
0
  5
233F
 10
141.342
 20
57.2802
 30
-1.27039e-14
  70
    32
  0
VERTEX
  8
0
  5
2340
 10
141.334
 20
57.2825
 30
-1.27046e-14
  70
    32
  0
VERTEX
  8
0
  5
2341
 10
141.327
 20
57.2849
 30
-1.27053e-14
  70
    32
  0
VERTEX
  8
0
  5
2342
 10
141.320
 20
57.2872
 30
-1.27060e-14
  70
    32
  0
VERTEX
  8
0
  5
2343
 10
141.312
 20
57.2896
 30
-1.27068e-14
  70
    32
  0
VERTEX
  8
0
  5
2344
 10
141.305
 20
57.2920
 30
-1.27076e-14
  70
    32
  0
VERTEX
  8
0
  5
2345
 10
141.297
 20
57.2944
 30
-1.27084e-14
  70
    32
  0
VERTEX
  8
0
  5
2346
 10
141.290
 20
57.2969
 30
-1.27093e-14
  70
    32
  0
VERTEX
  8
0
  5
2347
 10
141.283
 20
57.2993
 30
-1.27102e-14
  70
    32
  0
VERTEX
  8
0
  5
2348
 10
141.275
 20
57.3018
 30
-1.27112e-14
  70
    32
  0
VERTEX
  8
0
  5
2349
 10
141.268
 20
57.3043
 30
-1.27122e-14
  70
    32
  0
VERTEX
  8
0
  5
234A
 10
141.261
 20
57.3068
 30
-1.27132e-14
  70
    32
  0
VERTEX
  8
0
  5
234B
 10
141.253
 20
57.3094
 30
-1.27143e-14
  70
    32
  0
VERTEX
  8
0
  5
234C
 10
141.246
 20
57.3119
 30
-1.27153e-14
  70
    32
  0
VERTEX
  8
0
  5
234D
 10
141.239
 20
57.3145
 30
-1.27165e-14
  70
    32
  0
VERTEX
  8
0
  5
234E
 10
141.231
 20
57.3171
 30
-1.27176e-14
  70
    32
  0
VERTEX
  8
0
  5
234F
 10
141.224
 20
57.3197
 30
-1.27188e-14
  70
    32
  0
VERTEX
  8
0
  5
2350
 10
141.217
 20
57.3224
 30
-1.27200e-14
  70
    32
  0
VERTEX
  8
0
  5
2351
 10
141.210
 20
57.3250
 30
-1.27212e-14
  70
    32
  0
VERTEX
  8
0
  5
2352
 10
141.203
 20
57.3277
 30
-1.27224e-14
  70
    32
  0
VERTEX
  8
0
  5
2353
 10
141.195
 20
57.3304
 30
-1.27237e-14
  70
    32
  0
VERTEX
  8
0
  5
2354
 10
141.188
 20
57.3331
 30
-1.27250e-14
  70
    32
  0
VERTEX
  8
0
  5
2355
 10
141.181
 20
57.3359
 30
-1.27263e-14
  70
    32
  0
VERTEX
  8
0
  5
2356
 10
141.174
 20
57.3386
 30
-1.27276e-14
  70
    32
  0
VERTEX
  8
0
  5
2357
 10
141.167
 20
57.3414
 30
-1.27290e-14
  70
    32
  0
VERTEX
  8
0
  5
2358
 10
141.160
 20
57.3442
 30
-1.27304e-14
  70
    32
  0
VERTEX
  8
0
  5
2359
 10
141.153
 20
57.3470
 30
-1.27317e-14
  70
    32
  0
VERTEX
  8
0
  5
235A
 10
141.146
 20
57.3499
 30
-1.27331e-14
  70
    32
  0
VERTEX
  8
0
  5
235B
 10
141.138
 20
57.3527
 30
-1.27345e-14
  70
    32
  0
VERTEX
  8
0
  5
235C
 10
141.131
 20
57.3556
 30
-1.27360e-14
  70
    32
  0
VERTEX
  8
0
  5
235D
 10
141.124
 20
57.3585
 30
-1.27374e-14
  70
    32
  0
VERTEX
  8
0
  5
235E
 10
141.117
 20
57.3614
 30
-1.27388e-14
  70
    32
  0
VERTEX
  8
0
  5
235F
 10
141.110
 20
57.3643
 30
-1.27403e-14
  70
    32
  0
VERTEX
  8
0
  5
2360
 10
141.103
 20
57.3673
 30
-1.27417e-14
  70
    32
  0
VERTEX
  8
0
  5
2361
 10
141.096
 20
57.3703
 30
-1.27432e-14
  70
    32
  0
VERTEX
  8
0
  5
2362
 10
141.090
 20
57.3733
 30
-1.27447e-14
  70
    32
  0
VERTEX
  8
0
  5
2363
 10
141.083
 20
57.3763
 30
-1.27461e-14
  70
    32
  0
VERTEX
  8
0
  5
2364
 10
141.076
 20
57.3793
 30
-1.27476e-14
  70
    32
  0
VERTEX
  8
0
  5
2365
 10
141.069
 20
57.3823
 30
-1.27491e-14
  70
    32
  0
VERTEX
  8
0
  5
2366
 10
141.062
 20
57.3854
 30
-1.27506e-14
  70
    32
  0
VERTEX
  8
0
  5
2367
 10
141.055
 20
57.3885
 30
-1.27521e-14
  70
    32
  0
VERTEX
  8
0
  5
2368
 10
141.048
 20
57.3916
 30
-1.27535e-14
  70
    32
  0
VERTEX
  8
0
  5
2369
 10
141.041
 20
57.3947
 30
-1.27550e-14
  70
    32
  0
VERTEX
  8
0
  5
236A
 10
141.035
 20
57.3979
 30
-1.27565e-14
  70
    32
  0
VERTEX
  8
0
  5
236B
 10
141.028
 20
57.4010
 30
-1.27579e-14
  70
    32
  0
VERTEX
  8
0
  5
236C
 10
141.021
 20
57.4042
 30
-1.27594e-14
  70
    32
  0
VERTEX
  8
0
  5
236D
 10
141.014
 20
57.4074
 30
-1.27609e-14
  70
    32
  0
VERTEX
  8
0
  5
236E
 10
141.007
 20
57.4107
 30
-1.27623e-14
  70
    32
  0
VERTEX
  8
0
  5
236F
 10
141.001
 20
57.4139
 30
-1.27637e-14
  70
    32
  0
VERTEX
  8
0
  5
2370
 10
140.994
 20
57.4172
 30
-1.27652e-14
  70
    32
  0
VERTEX
  8
0
  5
2371
 10
140.987
 20
57.4204
 30
-1.27666e-14
  70
    32
  0
VERTEX
  8
0
  5
2372
 10
140.981
 20
57.4237
 30
-1.27680e-14
  70
    32
  0
VERTEX
  8
0
  5
2373
 10
140.974
 20
57.4270
 30
-1.27694e-14
  70
    32
  0
VERTEX
  8
0
  5
2374
 10
140.967
 20
57.4304
 30
-1.27707e-14
  70
    32
  0
VERTEX
  8
0
  5
2375
 10
140.961
 20
57.4337
 30
-1.27721e-14
  70
    32
  0
VERTEX
  8
0
  5
2376
 10
140.954
 20
57.4371
 30
-1.27734e-14
  70
    32
  0
VERTEX
  8
0
  5
2377
 10
140.947
 20
57.4405
 30
-1.27747e-14
  70
    32
  0
VERTEX
  8
0
  5
2378
 10
140.941
 20
57.4439
 30
-1.27760e-14
  70
    32
  0
VERTEX
  8
0
  5
2379
 10
140.934
 20
57.4473
 30
-1.27773e-14
  70
    32
  0
VERTEX
  8
0
  5
237A
 10
140.928
 20
57.4508
 30
-1.27785e-14
  70
    32
  0
VERTEX
  8
0
  5
237B
 10
140.921
 20
57.4542
 30
-1.27798e-14
  70
    32
  0
VERTEX
  8
0
  5
237C
 10
140.915
 20
57.4577
 30
-1.27810e-14
  70
    32
  0
VERTEX
  8
0
  5
237D
 10
140.908
 20
57.4612
 30
-1.27822e-14
  70
    32
  0
VERTEX
  8
0
  5
237E
 10
140.902
 20
57.4648
 30
-1.27833e-14
  70
    32
  0
VERTEX
  8
0
  5
237F
 10
140.895
 20
57.4683
 30
-1.27844e-14
  70
    32
  0
VERTEX
  8
0
  5
2380
 10
140.889
 20
57.4718
 30
-1.27855e-14
  70
    32
  0
VERTEX
  8
0
  5
2381
 10
140.882
 20
57.4754
 30
-1.27866e-14
  70
    32
  0
VERTEX
  8
0
  5
2382
 10
140.876
 20
57.4790
 30
-1.27876e-14
  70
    32
  0
VERTEX
  8
0
  5
2383
 10
140.870
 20
57.4826
 30
-1.27886e-14
  70
    32
  0
VERTEX
  8
0
  5
2384
 10
140.863
 20
57.4863
 30
-1.27896e-14
  70
    32
  0
VERTEX
  8
0
  5
2385
 10
140.857
 20
57.4899
 30
-1.27905e-14
  70
    32
  0
VERTEX
  8
0
  5
2386
 10
140.850
 20
57.4936
 30
-1.27914e-14
  70
    32
  0
VERTEX
  8
0
  5
2387
 10
140.844
 20
57.4973
 30
-1.27923e-14
  70
    32
  0
VERTEX
  8
0
  5
2388
 10
140.838
 20
57.5010
 30
-1.27931e-14
  70
    32
  0
VERTEX
  8
0
  5
2389
 10
140.831
 20
57.5047
 30
-1.27939e-14
  70
    32
  0
VERTEX
  8
0
  5
238A
 10
140.825
 20
57.5084
 30
-1.27946e-14
  70
    32
  0
VERTEX
  8
0
  5
238B
 10
140.819
 20
57.5122
 30
-1.27953e-14
  70
    32
  0
VERTEX
  8
0
  5
238C
 10
140.813
 20
57.5160
 30
-1.27959e-14
  70
    32
  0
VERTEX
  8
0
  5
238D
 10
140.806
 20
57.5197
 30
-1.27965e-14
  70
    32
  0
VERTEX
  8
0
  5
238E
 10
140.800
 20
57.5236
 30
-1.27971e-14
  70
    32
  0
VERTEX
  8
0
  5
238F
 10
140.794
 20
57.5274
 30
-1.27976e-14
  70
    32
  0
VERTEX
  8
0
  5
2390
 10
140.788
 20
57.5312
 30
-1.27981e-14
  70
    32
  0
VERTEX
  8
0
  5
2391
 10
140.782
 20
57.5351
 30
-1.27985e-14
  70
    32
  0
VERTEX
  8
0
  5
2392
 10
140.776
 20
57.5390
 30
-1.27989e-14
  70
    32
  0
VERTEX
  8
0
  5
2393
 10
140.769
 20
57.5429
 30
-1.27992e-14
  70
    32
  0
VERTEX
  8
0
  5
2394
 10
140.763
 20
57.5468
 30
-1.27995e-14
  70
    32
  0
VERTEX
  8
0
  5
2395
 10
140.757
 20
57.5507
 30
-1.27997e-14
  70
    32
  0
VERTEX
  8
0
  5
2396
 10
140.751
 20
57.5547
 30
-1.27998e-14
  70
    32
  0
VERTEX
  8
0
  5
2397
 10
140.745
 20
57.5587
 30
-1.28000e-14
  70
    32
  0
VERTEX
  8
0
  5
2398
 10
140.739
 20
57.5626
 30
-1.28000e-14
  70
    32
  0
VERTEX
  8
0
  5
2399
 10
140.733
 20
57.5666
 30
-1.28000e-14
  70
    32
  0
VERTEX
  8
0
  5
239A
 10
140.727
 20
57.5707
 30
-1.28000e-14
  70
    32
  0
VERTEX
  8
0
  5
239B
 10
140.721
 20
57.5747
 30
-1.28000e-14
  70
    32
  0
VERTEX
  8
0
  5
239C
 10
140.715
 20
57.5788
 30
-1.28000e-14
  70
    32
  0
VERTEX
  8
0
  5
239D
 10
140.709
 20
57.5828
 30
-1.28000e-14
  70
    32
  0
VERTEX
  8
0
  5
239E
 10
140.703
 20
57.5869
 30
-1.28000e-14
  70
    32
  0
VERTEX
  8
0
  5
239F
 10
140.697
 20
57.5910
 30
-1.28000e-14
  70
    32
  0
VERTEX
  8
0
  5
23A0
 10
140.692
 20
57.5952
 30
-1.28000e-14
  70
    32
  0
VERTEX
  8
0
  5
23A1
 10
140.686
 20
57.5993
 30
-1.28000e-14
  70
    32
  0
VERTEX
  8
0
  5
23A2
 10
140.680
 20
57.6035
 30
-1.28000e-14
  70
    32
  0
VERTEX
  8
0
  5
23A3
 10
140.674
 20
57.6077
 30
-1.28000e-14
  70
    32
  0
VERTEX
  8
0
  5
23A4
 10
140.668
 20
57.6118
 30
-1.28000e-14
  70
    32
  0
VERTEX
  8
0
  5
23A5
 10
140.662
 20
57.6161
 30
-1.28000e-14
  70
    32
  0
VERTEX
  8
0
  5
23A6
 10
140.657
 20
57.6203
 30
-1.28000e-14
  70
    32
  0
VERTEX
  8
0
  5
23A7
 10
140.651
 20
57.6245
 30
-1.28000e-14
  70
    32
  0
VERTEX
  8
0
  5
23A8
 10
140.645
 20
57.6288
 30
-1.28000e-14
  70
    32
  0
VERTEX
  8
0
  5
23A9
 10
140.639
 20
57.6331
 30
-1.28000e-14
  70
    32
  0
VERTEX
  8
0
  5
23AA
 10
140.634
 20
57.6374
 30
-1.28000e-14
  70
    32
  0
VERTEX
  8
0
  5
23AB
 10
140.628
 20
57.6417
 30
-1.28000e-14
  70
    32
  0
VERTEX
  8
0
  5
23AC
 10
140.622
 20
57.6460
 30
-1.28000e-14
  70
    32
  0
VERTEX
  8
0
  5
23AD
 10
140.617
 20
57.6503
 30
-1.28000e-14
  70
    32
  0
SEQEND
  8
0
  5
23AE
  0
LINE
  5
1F9E
  8
0
 10
4.869136936592553
 20
57.6503471930874767
 30
-0.0000000000000128
 11
189.869136936592497
 21
57.6503471930877112
 31
-0.0000000000000128
210
0.0
220
1.0
230
-0.0000000000000002
  0
POLYLINE
  8
0
  5
23AF
  66
     1
 10
0.000000
 20
0.000000
 30
0.000000
  70
     8
  0
VERTEX
  8
0
  5
23B0
 10
160.869
 20
57.1503
 30
-1.27000e-14
  70
    32
  0
VERTEX
  8
0
  5
23B1
 10
160.869
 20
57.1504
 30
-1.27000e-14
  70
    32
  0
VERTEX
  8
0
  5
23B2
 10
160.869
 20
57.1504
 30
-1.27000e-14
  70
    32
  0
VERTEX
  8
0
  5
23B3
 10
160.869
 20
57.1504
 30
-1.27000e-14
  70
    32
  0
VERTEX
  8
0
  5
23B4
 10
160.869
 20
57.1505
 30
-1.27000e-14
  70
    32
  0
VERTEX
  8
0
  5
23B5
 10
160.869
 20
57.1505
 30
-1.27000e-14
  70
    32
  0
VERTEX
  8
0
  5
23B6
 10
160.869
 20
57.1506
 30
-1.27000e-14
  70
    32
  0
VERTEX
  8
0
  5
23B7
 10
160.869
 20
57.1507
 30
-1.27000e-14
  70
    32
  0
VERTEX
  8
0
  5
23B8
 10
160.870
 20
57.1508
 30
-1.27000e-14
  70
    32
  0
VERTEX
  8
0
  5
23B9
 10
160.870
 20
57.1510
 30
-1.27000e-14
  70
    32
  0
VERTEX
  8
0
  5
23BA
 10
160.870
 20
57.1511
 30
-1.27000e-14
  70
    32
  0
VERTEX
  8
0
  5
23BB
 10
160.870
 20
57.1513
 30
-1.27000e-14
  70
    32
  0
VERTEX
  8
0
  5
23BC
 10
160.870
 20
57.1514
 30
-1.27000e-14
  70
    32
  0
VERTEX
  8
0
  5
23BD
 10
160.870
 20
57.1516
 30
-1.27000e-14
  70
    32
  0
VERTEX
  8
0
  5
23BE
 10
160.870
 20
57.1518
 30
-1.27000e-14
  70
    32
  0
VERTEX
  8
0
  5
23BF
 10
160.871
 20
57.1521
 30
-1.27000e-14
  70
    32
  0
VERTEX
  8
0
  5
23C0
 10
160.871
 20
57.1523
 30
-1.27000e-14
  70
    32
  0
VERTEX
  8
0
  5
23C1
 10
160.871
 20
57.1525
 30
-1.27000e-14
  70
    32
  0
VERTEX
  8
0
  5
23C2
 10
160.871
 20
57.1528
 30
-1.27000e-14
  70
    32
  0
VERTEX
  8
0
  5
23C3
 10
160.872
 20
57.1531
 30
-1.27000e-14
  70
    32
  0
VERTEX
  8
0
  5
23C4
 10
160.872
 20
57.1534
 30
-1.27000e-14
  70
    32
  0
VERTEX
  8
0
  5
23C5
 10
160.872
 20
57.1537
 30
-1.27000e-14
  70
    32
  0
VERTEX
  8
0
  5
23C6
 10
160.872
 20
57.1540
 30
-1.27000e-14
  70
    32
  0
VERTEX
  8
0
  5
23C7
 10
160.873
 20
57.1544
 30
-1.27000e-14
  70
    32
  0
VERTEX
  8
0
  5
23C8
 10
160.873
 20
57.1547
 30
-1.27000e-14
  70
    32
  0
VERTEX
  8
0
  5
23C9
 10
160.873
 20
57.1551
 30
-1.27000e-14
  70
    32
  0
VERTEX
  8
0
  5
23CA
 10
160.874
 20
57.1555
 30
-1.27000e-14
  70
    32
  0
VERTEX
  8
0
  5
23CB
 10
160.874
 20
57.1559
 30
-1.27000e-14
  70
    32
  0
VERTEX
  8
0
  5
23CC
 10
160.874
 20
57.1563
 30
-1.27000e-14
  70
    32
  0
VERTEX
  8
0
  5
23CD
 10
160.875
 20
57.1568
 30
-1.27000e-14
  70
    32
  0
VERTEX
  8
0
  5
23CE
 10
160.875
 20
57.1572
 30
-1.27000e-14
  70
    32
  0
VERTEX
  8
0
  5
23CF
 10
160.876
 20
57.1577
 30
-1.27000e-14
  70
    32
  0
VERTEX
  8
0
  5
23D0
 10
160.876
 20
57.1582
 30
-1.27000e-14
  70
    32
  0
VERTEX
  8
0
  5
23D1
 10
160.876
 20
57.1587
 30
-1.27000e-14
  70
    32
  0
VERTEX
  8
0
  5
23D2
 10
160.877
 20
57.1592
 30
-1.27000e-14
  70
    32
  0
VERTEX
  8
0
  5
23D3
 10
160.877
 20
57.1597
 30
-1.27000e-14
  70
    32
  0
VERTEX
  8
0
  5
23D4
 10
160.878
 20
57.1602
 30
-1.27000e-14
  70
    32
  0
VERTEX
  8
0
  5
23D5
 10
160.878
 20
57.1608
 30
-1.27000e-14
  70
    32
  0
VERTEX
  8
0
  5
23D6
 10
160.879
 20
57.1614
 30
-1.27000e-14
  70
    32
  0
VERTEX
  8
0
  5
23D7
 10
160.879
 20
57.1620
 30
-1.27000e-14
  70
    32
  0
VERTEX
  8
0
  5
23D8
 10
160.880
 20
57.1626
 30
-1.27000e-14
  70
    32
  0
VERTEX
  8
0
  5
23D9
 10
160.880
 20
57.1632
 30
-1.27000e-14
  70
    32
  0
VERTEX
  8
0
  5
23DA
 10
160.881
 20
57.1638
 30
-1.27000e-14
  70
    32
  0
VERTEX
  8
0
  5
23DB
 10
160.882
 20
57.1645
 30
-1.27000e-14
  70
    32
  0
VERTEX
  8
0
  5
23DC
 10
160.882
 20
57.1652
 30
-1.27000e-14
  70
    32
  0
VERTEX
  8
0
  5
23DD
 10
160.883
 20
57.1658
 30
-1.27000e-14
  70
    32
  0
VERTEX
  8
0
  5
23DE
 10
160.883
 20
57.1665
 30
-1.27000e-14
  70
    32
  0
VERTEX
  8
0
  5
23DF
 10
160.884
 20
57.1672
 30
-1.27000e-14
  70
    32
  0
VERTEX
  8
0
  5
23E0
 10
160.885
 20
57.1680
 30
-1.27000e-14
  70
    32
  0
VERTEX
  8
0
  5
23E1
 10
160.885
 20
57.1687
 30
-1.27000e-14
  70
    32
  0
VERTEX
  8
0
  5
23E2
 10
160.886
 20
57.1695
 30
-1.27000e-14
  70
    32
  0
VERTEX
  8
0
  5
23E3
 10
160.887
 20
57.1703
 30
-1.27000e-14
  70
    32
  0
VERTEX
  8
0
  5
23E4
 10
160.887
 20
57.1711
 30
-1.27000e-14
  70
    32
  0
VERTEX
  8
0
  5
23E5
 10
160.888
 20
57.1719
 30
-1.27000e-14
  70
    32
  0
VERTEX
  8
0
  5
23E6
 10
160.889
 20
57.1727
 30
-1.27000e-14
  70
    32
  0
VERTEX
  8
0
  5
23E7
 10
160.889
 20
57.1735
 30
-1.27000e-14
  70
    32
  0
VERTEX
  8
0
  5
23E8
 10
160.890
 20
57.1744
 30
-1.27000e-14
  70
    32
  0
VERTEX
  8
0
  5
23E9
 10
160.891
 20
57.1752
 30
-1.27000e-14
  70
    32
  0
VERTEX
  8
0
  5
23EA
 10
160.892
 20
57.1761
 30
-1.27000e-14
  70
    32
  0
VERTEX
  8
0
  5
23EB
 10
160.893
 20
57.1770
 30
-1.27000e-14
  70
    32
  0
VERTEX
  8
0
  5
23EC
 10
160.893
 20
57.1779
 30
-1.27000e-14
  70
    32
  0
VERTEX
  8
0
  5
23ED
 10
160.894
 20
57.1789
 30
-1.27000e-14
  70
    32
  0
VERTEX
  8
0
  5
23EE
 10
160.895
 20
57.1798
 30
-1.27000e-14
  70
    32
  0
VERTEX
  8
0
  5
23EF
 10
160.896
 20
57.1808
 30
-1.27000e-14
  70
    32
  0
VERTEX
  8
0
  5
23F0
 10
160.897
 20
57.1818
 30
-1.27000e-14
  70
    32
  0
VERTEX
  8
0
  5
23F1
 10
160.898
 20
57.1828
 30
-1.27000e-14
  70
    32
  0
VERTEX
  8
0
  5
23F2
 10
160.898
 20
57.1838
 30
-1.27000e-14
  70
    32
  0
VERTEX
  8
0
  5
23F3
 10
160.899
 20
57.1848
 30
-1.27000e-14
  70
    32
  0
VERTEX
  8
0
  5
23F4
 10
160.900
 20
57.1858
 30
-1.27000e-14
  70
    32
  0
VERTEX
  8
0
  5
23F5
 10
160.901
 20
57.1869
 30
-1.27000e-14
  70
    32
  0
VERTEX
  8
0
  5
23F6
 10
160.902
 20
57.1880
 30
-1.27000e-14
  70
    32
  0
VERTEX
  8
0
  5
23F7
 10
160.903
 20
57.1891
 30
-1.27000e-14
  70
    32
  0
VERTEX
  8
0
  5
23F8
 10
160.904
 20
57.1902
 30
-1.27000e-14
  70
    32
  0
VERTEX
  8
0
  5
23F9
 10
160.905
 20
57.1913
 30
-1.27000e-14
  70
    32
  0
VERTEX
  8
0
  5
23FA
 10
160.906
 20
57.1924
 30
-1.27000e-14
  70
    32
  0
VERTEX
  8
0
  5
23FB
 10
160.907
 20
57.1936
 30
-1.27000e-14
  70
    32
  0
VERTEX
  8
0
  5
23FC
 10
160.908
 20
57.1947
 30
-1.27000e-14
  70
    32
  0
VERTEX
  8
0
  5
23FD
 10
160.909
 20
57.1959
 30
-1.27000e-14
  70
    32
  0
VERTEX
  8
0
  5
23FE
 10
160.910
 20
57.1971
 30
-1.27000e-14
  70
    32
  0
VERTEX
  8
0
  5
23FF
 10
160.911
 20
57.1983
 30
-1.27000e-14
  70
    32
  0
VERTEX
  8
0
  5
2400
 10
160.912
 20
57.1996
 30
-1.27000e-14
  70
    32
  0
VERTEX
  8
0
  5
2401
 10
160.913
 20
57.2008
 30
-1.27000e-14
  70
    32
  0
VERTEX
  8
0
  5
2402
 10
160.914
 20
57.2021
 30
-1.27000e-14
  70
    32
  0
VERTEX
  8
0
  5
2403
 10
160.916
 20
57.2033
 30
-1.27000e-14
  70
    32
  0
VERTEX
  8
0
  5
2404
 10
160.917
 20
57.2046
 30
-1.27000e-14
  70
    32
  0
VERTEX
  8
0
  5
2405
 10
160.918
 20
57.2059
 30
-1.27000e-14
  70
    32
  0
VERTEX
  8
0
  5
2406
 10
160.919
 20
57.2073
 30
-1.27000e-14
  70
    32
  0
VERTEX
  8
0
  5
2407
 10
160.920
 20
57.2086
 30
-1.27000e-14
  70
    32
  0
VERTEX
  8
0
  5
2408
 10
160.921
 20
57.2100
 30
-1.27000e-14
  70
    32
  0
VERTEX
  8
0
  5
2409
 10
160.923
 20
57.2113
 30
-1.27000e-14
  70
    32
  0
VERTEX
  8
0
  5
240A
 10
160.924
 20
57.2127
 30
-1.27000e-14
  70
    32
  0
VERTEX
  8
0
  5
240B
 10
160.925
 20
57.2141
 30
-1.27000e-14
  70
    32
  0
VERTEX
  8
0
  5
240C
 10
160.926
 20
57.2155
 30
-1.27000e-14
  70
    32
  0
VERTEX
  8
0
  5
240D
 10
160.928
 20
57.2170
 30
-1.27000e-14
  70
    32
  0
VERTEX
  8
0
  5
240E
 10
160.929
 20
57.2184
 30
-1.27000e-14
  70
    32
  0
VERTEX
  8
0
  5
240F
 10
160.930
 20
57.2199
 30
-1.27000e-14
  70
    32
  0
VERTEX
  8
0
  5
2410
 10
160.931
 20
57.2214
 30
-1.27000e-14
  70
    32
  0
VERTEX
  8
0
  5
2411
 10
160.933
 20
57.2229
 30
-1.27000e-14
  70
    32
  0
VERTEX
  8
0
  5
2412
 10
160.934
 20
57.2244
 30
-1.27000e-14
  70
    32
  0
VERTEX
  8
0
  5
2413
 10
160.935
 20
57.2259
 30
-1.27000e-14
  70
    32
  0
VERTEX
  8
0
  5
2414
 10
160.937
 20
57.2275
 30
-1.27000e-14
  70
    32
  0
VERTEX
  8
0
  5
2415
 10
160.938
 20
57.2290
 30
-1.27000e-14
  70
    32
  0
VERTEX
  8
0
  5
2416
 10
160.939
 20
57.2306
 30
-1.27000e-14
  70
    32
  0
VERTEX
  8
0
  5
2417
 10
160.941
 20
57.2322
 30
-1.27000e-14
  70
    32
  0
VERTEX
  8
0
  5
2418
 10
160.942
 20
57.2338
 30
-1.27000e-14
  70
    32
  0
VERTEX
  8
0
  5
2419
 10
160.944
 20
57.2354
 30
-1.27000e-14
  70
    32
  0
VERTEX
  8
0
  5
241A
 10
160.945
 20
57.2371
 30
-1.27000e-14
  70
    32
  0
VERTEX
  8
0
  5
241B
 10
160.947
 20
57.2387
 30
-1.27000e-14
  70
    32
  0
VERTEX
  8
0
  5
241C
 10
160.948
 20
57.2404
 30
-1.27000e-14
  70
    32
  0
VERTEX
  8
0
  5
241D
 10
160.950
 20
57.2421
 30
-1.27000e-14
  70
    32
  0
VERTEX
  8
0
  5
241E
 10
160.951
 20
57.2438
 30
-1.27000e-14
  70
    32
  0
VERTEX
  8
0
  5
241F
 10
160.953
 20
57.2455
 30
-1.27000e-14
  70
    32
  0
VERTEX
  8
0
  5
2420
 10
160.954
 20
57.2473
 30
-1.27000e-14
  70
    32
  0
VERTEX
  8
0
  5
2421
 10
160.956
 20
57.2490
 30
-1.27000e-14
  70
    32
  0
VERTEX
  8
0
  5
2422
 10
160.957
 20
57.2508
 30
-1.27000e-14
  70
    32
  0
VERTEX
  8
0
  5
2423
 10
160.959
 20
57.2526
 30
-1.27000e-14
  70
    32
  0
VERTEX
  8
0
  5
2424
 10
160.960
 20
57.2544
 30
-1.27000e-14
  70
    32
  0
VERTEX
  8
0
  5
2425
 10
160.962
 20
57.2562
 30
-1.27000e-14
  70
    32
  0
VERTEX
  8
0
  5
2426
 10
160.964
 20
57.2580
 30
-1.27001e-14
  70
    32
  0
VERTEX
  8
0
  5
2427
 10
160.965
 20
57.2599
 30
-1.27002e-14
  70
    32
  0
VERTEX
  8
0
  5
2428
 10
160.967
 20
57.2617
 30
-1.27004e-14
  70
    32
  0
VERTEX
  8
0
  5
2429
 10
160.968
 20
57.2636
 30
-1.27006e-14
  70
    32
  0
VERTEX
  8
0
  5
242A
 10
160.970
 20
57.2655
 30
-1.27009e-14
  70
    32
  0
VERTEX
  8
0
  5
242B
 10
160.972
 20
57.2674
 30
-1.27011e-14
  70
    32
  0
VERTEX
  8
0
  5
242C
 10
160.973
 20
57.2694
 30
-1.27015e-14
  70
    32
  0
VERTEX
  8
0
  5
242D
 10
160.975
 20
57.2713
 30
-1.27018e-14
  70
    32
  0
VERTEX
  8
0
  5
242E
 10
160.977
 20
57.2733
 30
-1.27022e-14
  70
    32
  0
VERTEX
  8
0
  5
242F
 10
160.979
 20
57.2752
 30
-1.27027e-14
  70
    32
  0
VERTEX
  8
0
  5
2430
 10
160.980
 20
57.2772
 30
-1.27032e-14
  70
    32
  0
VERTEX
  8
0
  5
2431
 10
160.982
 20
57.2792
 30
-1.27037e-14
  70
    32
  0
VERTEX
  8
0
  5
2432
 10
160.984
 20
57.2813
 30
-1.27042e-14
  70
    32
  0
VERTEX
  8
0
  5
2433
 10
160.986
 20
57.2833
 30
-1.27048e-14
  70
    32
  0
VERTEX
  8
0
  5
2434
 10
160.987
 20
57.2853
 30
-1.27054e-14
  70
    32
  0
VERTEX
  8
0
  5
2435
 10
160.989
 20
57.2874
 30
-1.27061e-14
  70
    32
  0
VERTEX
  8
0
  5
2436
 10
160.991
 20
57.2895
 30
-1.27067e-14
  70
    32
  0
VERTEX
  8
0
  5
2437
 10
160.993
 20
57.2916
 30
-1.27074e-14
  70
    32
  0
VERTEX
  8
0
  5
2438
 10
160.995
 20
57.2937
 30
-1.27082e-14
  70
    32
  0
VERTEX
  8
0
  5
2439
 10
160.997
 20
57.2958
 30
-1.27089e-14
  70
    32
  0
VERTEX
  8
0
  5
243A
 10
160.999
 20
57.2980
 30
-1.27097e-14
  70
    32
  0
VERTEX
  8
0
  5
243B
 10
161.001
 20
57.3002
 30
-1.27105e-14
  70
    32
  0
VERTEX
  8
0
  5
243C
 10
161.002
 20
57.3023
 30
-1.27114e-14
  70
    32
  0
VERTEX
  8
0
  5
243D
 10
161.004
 20
57.3045
 30
-1.27123e-14
  70
    32
  0
VERTEX
  8
0
  5
243E
 10
161.006
 20
57.3067
 30
-1.27132e-14
  70
    32
  0
VERTEX
  8
0
  5
243F
 10
161.008
 20
57.3090
 30
-1.27141e-14
  70
    32
  0
VERTEX
  8
0
  5
2440
 10
161.010
 20
57.3112
 30
-1.27150e-14
  70
    32
  0
VERTEX
  8
0
  5
2441
 10
161.012
 20
57.3135
 30
-1.27160e-14
  70
    32
  0
VERTEX
  8
0
  5
2442
 10
161.014
 20
57.3157
 30
-1.27170e-14
  70
    32
  0
VERTEX
  8
0
  5
2443
 10
161.016
 20
57.3180
 30
-1.27180e-14
  70
    32
  0
VERTEX
  8
0
  5
2444
 10
161.018
 20
57.3203
 30
-1.27191e-14
  70
    32
  0
VERTEX
  8
0
  5
2445
 10
161.020
 20
57.3226
 30
-1.27201e-14
  70
    32
  0
VERTEX
  8
0
  5
2446
 10
161.022
 20
57.3250
 30
-1.27212e-14
  70
    32
  0
VERTEX
  8
0
  5
2447
 10
161.024
 20
57.3273
 30
-1.27223e-14
  70
    32
  0
VERTEX
  8
0
  5
2448
 10
161.026
 20
57.3297
 30
-1.27234e-14
  70
    32
  0
VERTEX
  8
0
  5
2449
 10
161.029
 20
57.3320
 30
-1.27245e-14
  70
    32
  0
VERTEX
  8
0
  5
244A
 10
161.031
 20
57.3344
 30
-1.27256e-14
  70
    32
  0
VERTEX
  8
0
  5
244B
 10
161.033
 20
57.3368
 30
-1.27268e-14
  70
    32
  0
VERTEX
  8
0
  5
244C
 10
161.035
 20
57.3393
 30
-1.27280e-14
  70
    32
  0
VERTEX
  8
0
  5
244D
 10
161.037
 20
57.3417
 30
-1.27292e-14
  70
    32
  0
VERTEX
  8
0
  5
244E
 10
161.039
 20
57.3442
 30
-1.27304e-14
  70
    32
  0
VERTEX
  8
0
  5
244F
 10
161.041
 20
57.3466
 30
-1.27316e-14
  70
    32
  0
VERTEX
  8
0
  5
2450
 10
161.043
 20
57.3491
 30
-1.27328e-14
  70
    32
  0
VERTEX
  8
0
  5
2451
 10
161.046
 20
57.3516
 30
-1.27340e-14
  70
    32
  0
VERTEX
  8
0
  5
2452
 10
161.048
 20
57.3541
 30
-1.27353e-14
  70
    32
  0
VERTEX
  8
0
  5
2453
 10
161.050
 20
57.3566
 30
-1.27365e-14
  70
    32
  0
VERTEX
  8
0
  5
2454
 10
161.052
 20
57.3592
 30
-1.27378e-14
  70
    32
  0
VERTEX
  8
0
  5
2455
 10
161.055
 20
57.3617
 30
-1.27390e-14
  70
    32
  0
VERTEX
  8
0
  5
2456
 10
161.057
 20
57.3643
 30
-1.27403e-14
  70
    32
  0
VERTEX
  8
0
  5
2457
 10
161.059
 20
57.3669
 30
-1.27416e-14
  70
    32
  0
VERTEX
  8
0
  5
2458
 10
161.061
 20
57.3695
 30
-1.27429e-14
  70
    32
  0
VERTEX
  8
0
  5
2459
 10
161.064
 20
57.3721
 30
-1.27441e-14
  70
    32
  0
VERTEX
  8
0
  5
245A
 10
161.066
 20
57.3748
 30
-1.27454e-14
  70
    32
  0
VERTEX
  8
0
  5
245B
 10
161.068
 20
57.3774
 30
-1.27467e-14
  70
    32
  0
VERTEX
  8
0
  5
245C
 10
161.071
 20
57.3801
 30
-1.27480e-14
  70
    32
  0
VERTEX
  8
0
  5
245D
 10
161.073
 20
57.3827
 30
-1.27493e-14
  70
    32
  0
VERTEX
  8
0
  5
245E
 10
161.075
 20
57.3854
 30
-1.27506e-14
  70
    32
  0
VERTEX
  8
0
  5
245F
 10
161.078
 20
57.3881
 30
-1.27519e-14
  70
    32
  0
VERTEX
  8
0
  5
2460
 10
161.080
 20
57.3909
 30
-1.27532e-14
  70
    32
  0
VERTEX
  8
0
  5
2461
 10
161.083
 20
57.3936
 30
-1.27545e-14
  70
    32
  0
VERTEX
  8
0
  5
2462
 10
161.085
 20
57.3963
 30
-1.27558e-14
  70
    32
  0
VERTEX
  8
0
  5
2463
 10
161.087
 20
57.3991
 30
-1.27571e-14
  70
    32
  0
VERTEX
  8
0
  5
2464
 10
161.090
 20
57.4019
 30
-1.27584e-14
  70
    32
  0
VERTEX
  8
0
  5
2465
 10
161.092
 20
57.4047
 30
-1.27596e-14
  70
    32
  0
VERTEX
  8
0
  5
2466
 10
161.095
 20
57.4075
 30
-1.27609e-14
  70
    32
  0
VERTEX
  8
0
  5
2467
 10
161.097
 20
57.4103
 30
-1.27622e-14
  70
    32
  0
VERTEX
  8
0
  5
2468
 10
161.100
 20
57.4132
 30
-1.27634e-14
  70
    32
  0
VERTEX
  8
0
  5
2469
 10
161.102
 20
57.4160
 30
-1.27647e-14
  70
    32
  0
VERTEX
  8
0
  5
246A
 10
161.105
 20
57.4189
 30
-1.27659e-14
  70
    32
  0
VERTEX
  8
0
  5
246B
 10
161.107
 20
57.4218
 30
-1.27672e-14
  70
    32
  0
VERTEX
  8
0
  5
246C
 10
161.110
 20
57.4246
 30
-1.27684e-14
  70
    32
  0
VERTEX
  8
0
  5
246D
 10
161.112
 20
57.4276
 30
-1.27696e-14
  70
    32
  0
VERTEX
  8
0
  5
246E
 10
161.115
 20
57.4305
 30
-1.27708e-14
  70
    32
  0
VERTEX
  8
0
  5
246F
 10
161.118
 20
57.4334
 30
-1.27720e-14
  70
    32
  0
VERTEX
  8
0
  5
2470
 10
161.120
 20
57.4364
 30
-1.27731e-14
  70
    32
  0
VERTEX
  8
0
  5
2471
 10
161.123
 20
57.4393
 30
-1.27743e-14
  70
    32
  0
VERTEX
  8
0
  5
2472
 10
161.125
 20
57.4423
 30
-1.27754e-14
  70
    32
  0
VERTEX
  8
0
  5
2473
 10
161.128
 20
57.4453
 30
-1.27766e-14
  70
    32
  0
VERTEX
  8
0
  5
2474
 10
161.131
 20
57.4483
 30
-1.27777e-14
  70
    32
  0
VERTEX
  8
0
  5
2475
 10
161.133
 20
57.4513
 30
-1.27788e-14
  70
    32
  0
VERTEX
  8
0
  5
2476
 10
161.136
 20
57.4544
 30
-1.27798e-14
  70
    32
  0
VERTEX
  8
0
  5
2477
 10
161.139
 20
57.4574
 30
-1.27809e-14
  70
    32
  0
VERTEX
  8
0
  5
2478
 10
161.141
 20
57.4605
 30
-1.27819e-14
  70
    32
  0
VERTEX
  8
0
  5
2479
 10
161.144
 20
57.4636
 30
-1.27829e-14
  70
    32
  0
VERTEX
  8
0
  5
247A
 10
161.147
 20
57.4667
 30
-1.27839e-14
  70
    32
  0
VERTEX
  8
0
  5
247B
 10
161.150
 20
57.4698
 30
-1.27849e-14
  70
    32
  0
VERTEX
  8
0
  5
247C
 10
161.152
 20
57.4729
 30
-1.27859e-14
  70
    32
  0
VERTEX
  8
0
  5
247D
 10
161.155
 20
57.4761
 30
-1.27868e-14
  70
    32
  0
VERTEX
  8
0
  5
247E
 10
161.158
 20
57.4792
 30
-1.27877e-14
  70
    32
  0
VERTEX
  8
0
  5
247F
 10
161.161
 20
57.4824
 30
-1.27886e-14
  70
    32
  0
VERTEX
  8
0
  5
2480
 10
161.164
 20
57.4856
 30
-1.27894e-14
  70
    32
  0
VERTEX
  8
0
  5
2481
 10
161.166
 20
57.4887
 30
-1.27902e-14
  70
    32
  0
VERTEX
  8
0
  5
2482
 10
161.169
 20
57.4920
 30
-1.27910e-14
  70
    32
  0
VERTEX
  8
0
  5
2483
 10
161.172
 20
57.4952
 30
-1.27918e-14
  70
    32
  0
VERTEX
  8
0
  5
2484
 10
161.175
 20
57.4984
 30
-1.27925e-14
  70
    32
  0
VERTEX
  8
0
  5
2485
 10
161.178
 20
57.5017
 30
-1.27932e-14
  70
    32
  0
VERTEX
  8
0
  5
2486
 10
161.181
 20
57.5049
 30
-1.27939e-14
  70
    32
  0
VERTEX
  8
0
  5
2487
 10
161.183
 20
57.5082
 30
-1.27946e-14
  70
    32
  0
VERTEX
  8
0
  5
2488
 10
161.186
 20
57.5115
 30
-1.27952e-14
  70
    32
  0
VERTEX
  8
0
  5
2489
 10
161.189
 20
57.5148
 30
-1.27958e-14
  70
    32
  0
VERTEX
  8
0
  5
248A
 10
161.192
 20
57.5181
 30
-1.27963e-14
  70
    32
  0
VERTEX
  8
0
  5
248B
 10
161.195
 20
57.5214
 30
-1.27968e-14
  70
    32
  0
VERTEX
  8
0
  5
248C
 10
161.198
 20
57.5248
 30
-1.27973e-14
  70
    32
  0
VERTEX
  8
0
  5
248D
 10
161.201
 20
57.5282
 30
-1.27977e-14
  70
    32
  0
VERTEX
  8
0
  5
248E
 10
161.204
 20
57.5315
 30
-1.27981e-14
  70
    32
  0
VERTEX
  8
0
  5
248F
 10
161.207
 20
57.5349
 30
-1.27985e-14
  70
    32
  0
VERTEX
  8
0
  5
2490
 10
161.210
 20
57.5383
 30
-1.27988e-14
  70
    32
  0
VERTEX
  8
0
  5
2491
 10
161.213
 20
57.5417
 30
-1.27991e-14
  70
    32
  0
VERTEX
  8
0
  5
2492
 10
161.216
 20
57.5452
 30
-1.27994e-14
  70
    32
  0
VERTEX
  8
0
  5
2493
 10
161.219
 20
57.5486
 30
-1.27996e-14
  70
    32
  0
VERTEX
  8
0
  5
2494
 10
161.222
 20
57.5521
 30
-1.27998e-14
  70
    32
  0
VERTEX
  8
0
  5
2495
 10
161.225
 20
57.5555
 30
-1.27999e-14
  70
    32
  0
VERTEX
  8
0
  5
2496
 10
161.228
 20
57.5590
 30
-1.28000e-14
  70
    32
  0
VERTEX
  8
0
  5
2497
 10
161.231
 20
57.5625
 30
-1.28000e-14
  70
    32
  0
VERTEX
  8
0
  5
2498
 10
161.234
 20
57.5660
 30
-1.28000e-14
  70
    32
  0
VERTEX
  8
0
  5
2499
 10
161.237
 20
57.5695
 30
-1.28000e-14
  70
    32
  0
VERTEX
  8
0
  5
249A
 10
161.241
 20
57.5731
 30
-1.28000e-14
  70
    32
  0
VERTEX
  8
0
  5
249B
 10
161.244
 20
57.5766
 30
-1.28000e-14
  70
    32
  0
VERTEX
  8
0
  5
249C
 10
161.247
 20
57.5802
 30
-1.28000e-14
  70
    32
  0
VERTEX
  8
0
  5
249D
 10
161.250
 20
57.5838
 30
-1.28000e-14
  70
    32
  0
VERTEX
  8
0
  5
249E
 10
161.253
 20
57.5873
 30
-1.28000e-14
  70
    32
  0
VERTEX
  8
0
  5
249F
 10
161.256
 20
57.5909
 30
-1.28000e-14
  70
    32
  0
VERTEX
  8
0
  5
24A0
 10
161.260
 20
57.5946
 30
-1.28000e-14
  70
    32
  0
VERTEX
  8
0
  5
24A1
 10
161.263
 20
57.5982
 30
-1.28000e-14
  70
    32
  0
VERTEX
  8
0
  5
24A2
 10
161.266
 20
57.6018
 30
-1.28000e-14
  70
    32
  0
VERTEX
  8
0
  5
24A3
 10
161.269
 20
57.6055
 30
-1.28000e-14
  70
    32
  0
VERTEX
  8
0
  5
24A4
 10
161.272
 20
57.6092
 30
-1.28000e-14
  70
    32
  0
VERTEX
  8
0
  5
24A5
 10
161.276
 20
57.6128
 30
-1.28000e-14
  70
    32
  0
VERTEX
  8
0
  5
24A6
 10
161.279
 20
57.6165
 30
-1.28000e-14
  70
    32
  0
VERTEX
  8
0
  5
24A7
 10
161.282
 20
57.6202
 30
-1.28000e-14
  70
    32
  0
VERTEX
  8
0
  5
24A8
 10
161.285
 20
57.6240
 30
-1.28000e-14
  70
    32
  0
VERTEX
  8
0
  5
24A9
 10
161.289
 20
57.6277
 30
-1.28000e-14
  70
    32
  0
VERTEX
  8
0
  5
24AA
 10
161.292
 20
57.6314
 30
-1.28000e-14
  70
    32
  0
VERTEX
  8
0
  5
24AB
 10
161.295
 20
57.6352
 30
-1.28000e-14
  70
    32
  0
VERTEX
  8
0
  5
24AC
 10
161.299
 20
57.6390
 30
-1.28000e-14
  70
    32
  0
VERTEX
  8
0
  5
24AD
 10
161.302
 20
57.6427
 30
-1.28000e-14
  70
    32
  0
VERTEX
  8
0
  5
24AE
 10
161.305
 20
57.6465
 30
-1.28000e-14
  70
    32
  0
VERTEX
  8
0
  5
24AF
 10
161.309
 20
57.6503
 30
-1.28000e-14
  70
    32
  0
SEQEND
  8
0
  5
24B0
  0
POLYLINE
  8
0
  5
24B1
  66
     1
 10
0.000000
 20
0.000000
 30
0.000000
  70
     8
  0
VERTEX
  8
0
  5
24B2
 10
33.4295
 20
57.6503
 30
-1.28000e-14
  70
    32
  0
VERTEX
  8
0
  5
24B3
 10
33.4328
 20
57.6465
 30
-1.28000e-14
  70
    32
  0
VERTEX
  8
0
  5
24B4
 10
33.4362
 20
57.6427
 30
-1.28000e-14
  70
    32
  0
VERTEX
  8
0
  5
24B5
 10
33.4395
 20
57.6390
 30
-1.28000e-14
  70
    32
  0
VERTEX
  8
0
  5
24B6
 10
33.4429
 20
57.6352
 30
-1.28000e-14
  70
    32
  0
VERTEX
  8
0
  5
24B7
 10
33.4462
 20
57.6314
 30
-1.28000e-14
  70
    32
  0
VERTEX
  8
0
  5
24B8
 10
33.4495
 20
57.6277
 30
-1.28000e-14
  70
    32
  0
VERTEX
  8
0
  5
24B9
 10
33.4528
 20
57.6240
 30
-1.28000e-14
  70
    32
  0
VERTEX
  8
0
  5
24BA
 10
33.4561
 20
57.6202
 30
-1.28000e-14
  70
    32
  0
VERTEX
  8
0
  5
24BB
 10
33.4593
 20
57.6165
 30
-1.28000e-14
  70
    32
  0
VERTEX
  8
0
  5
24BC
 10
33.4626
 20
57.6128
 30
-1.28000e-14
  70
    32
  0
VERTEX
  8
0
  5
24BD
 10
33.4658
 20
57.6092
 30
-1.28000e-14
  70
    32
  0
VERTEX
  8
0
  5
24BE
 10
33.4691
 20
57.6055
 30
-1.28000e-14
  70
    32
  0
VERTEX
  8
0
  5
24BF
 10
33.4723
 20
57.6018
 30
-1.28000e-14
  70
    32
  0
VERTEX
  8
0
  5
24C0
 10
33.4755
 20
57.5982
 30
-1.28000e-14
  70
    32
  0
VERTEX
  8
0
  5
24C1
 10
33.4787
 20
57.5946
 30
-1.28000e-14
  70
    32
  0
VERTEX
  8
0
  5
24C2
 10
33.4819
 20
57.5909
 30
-1.28000e-14
  70
    32
  0
VERTEX
  8
0
  5
24C3
 10
33.4851
 20
57.5873
 30
-1.28000e-14
  70
    32
  0
VERTEX
  8
0
  5
24C4
 10
33.4882
 20
57.5838
 30
-1.28000e-14
  70
    32
  0
VERTEX
  8
0
  5
24C5
 10
33.4914
 20
57.5802
 30
-1.28000e-14
  70
    32
  0
VERTEX
  8
0
  5
24C6
 10
33.4945
 20
57.5766
 30
-1.28000e-14
  70
    32
  0
VERTEX
  8
0
  5
24C7
 10
33.4977
 20
57.5731
 30
-1.28000e-14
  70
    32
  0
VERTEX
  8
0
  5
24C8
 10
33.5008
 20
57.5695
 30
-1.28000e-14
  70
    32
  0
VERTEX
  8
0
  5
24C9
 10
33.5039
 20
57.5660
 30
-1.28000e-14
  70
    32
  0
VERTEX
  8
0
  5
24CA
 10
33.5070
 20
57.5625
 30
-1.28000e-14
  70
    32
  0
VERTEX
  8
0
  5
24CB
 10
33.5101
 20
57.5590
 30
-1.28000e-14
  70
    32
  0
VERTEX
  8
0
  5
24CC
 10
33.5131
 20
57.5555
 30
-1.27999e-14
  70
    32
  0
VERTEX
  8
0
  5
24CD
 10
33.5162
 20
57.5521
 30
-1.27998e-14
  70
    32
  0
VERTEX
  8
0
  5
24CE
 10
33.5192
 20
57.5486
 30
-1.27996e-14
  70
    32
  0
VERTEX
  8
0
  5
24CF
 10
33.5223
 20
57.5452
 30
-1.27994e-14
  70
    32
  0
VERTEX
  8
0
  5
24D0
 10
33.5253
 20
57.5417
 30
-1.27991e-14
  70
    32
  0
VERTEX
  8
0
  5
24D1
 10
33.5283
 20
57.5383
 30
-1.27988e-14
  70
    32
  0
VERTEX
  8
0
  5
24D2
 10
33.5313
 20
57.5349
 30
-1.27985e-14
  70
    32
  0
VERTEX
  8
0
  5
24D3
 10
33.5343
 20
57.5315
 30
-1.27981e-14
  70
    32
  0
VERTEX
  8
0
  5
24D4
 10
33.5372
 20
57.5282
 30
-1.27977e-14
  70
    32
  0
VERTEX
  8
0
  5
24D5
 10
33.5402
 20
57.5248
 30
-1.27973e-14
  70
    32
  0
VERTEX
  8
0
  5
24D6
 10
33.5432
 20
57.5214
 30
-1.27968e-14
  70
    32
  0
VERTEX
  8
0
  5
24D7
 10
33.5461
 20
57.5181
 30
-1.27963e-14
  70
    32
  0
VERTEX
  8
0
  5
24D8
 10
33.5490
 20
57.5148
 30
-1.27958e-14
  70
    32
  0
VERTEX
  8
0
  5
24D9
 10
33.5519
 20
57.5115
 30
-1.27952e-14
  70
    32
  0
VERTEX
  8
0
  5
24DA
 10
33.5548
 20
57.5082
 30
-1.27946e-14
  70
    32
  0
VERTEX
  8
0
  5
24DB
 10
33.5577
 20
57.5049
 30
-1.27939e-14
  70
    32
  0
VERTEX
  8
0
  5
24DC
 10
33.5606
 20
57.5017
 30
-1.27932e-14
  70
    32
  0
VERTEX
  8
0
  5
24DD
 10
33.5634
 20
57.4984
 30
-1.27925e-14
  70
    32
  0
VERTEX
  8
0
  5
24DE
 10
33.5663
 20
57.4952
 30
-1.27918e-14
  70
    32
  0
VERTEX
  8
0
  5
24DF
 10
33.5691
 20
57.4920
 30
-1.27910e-14
  70
    32
  0
VERTEX
  8
0
  5
24E0
 10
33.5720
 20
57.4887
 30
-1.27902e-14
  70
    32
  0
VERTEX
  8
0
  5
24E1
 10
33.5748
 20
57.4856
 30
-1.27894e-14
  70
    32
  0
VERTEX
  8
0
  5
24E2
 10
33.5776
 20
57.4824
 30
-1.27886e-14
  70
    32
  0
VERTEX
  8
0
  5
24E3
 10
33.5804
 20
57.4792
 30
-1.27877e-14
  70
    32
  0
VERTEX
  8
0
  5
24E4
 10
33.5831
 20
57.4761
 30
-1.27868e-14
  70
    32
  0
VERTEX
  8
0
  5
24E5
 10
33.5859
 20
57.4729
 30
-1.27859e-14
  70
    32
  0
VERTEX
  8
0
  5
24E6
 10
33.5886
 20
57.4698
 30
-1.27849e-14
  70
    32
  0
VERTEX
  8
0
  5
24E7
 10
33.5914
 20
57.4667
 30
-1.27839e-14
  70
    32
  0
VERTEX
  8
0
  5
24E8
 10
33.5941
 20
57.4636
 30
-1.27829e-14
  70
    32
  0
VERTEX
  8
0
  5
24E9
 10
33.5968
 20
57.4605
 30
-1.27819e-14
  70
    32
  0
VERTEX
  8
0
  5
24EA
 10
33.5995
 20
57.4574
 30
-1.27809e-14
  70
    32
  0
VERTEX
  8
0
  5
24EB
 10
33.6022
 20
57.4544
 30
-1.27798e-14
  70
    32
  0
VERTEX
  8
0
  5
24EC
 10
33.6049
 20
57.4513
 30
-1.27788e-14
  70
    32
  0
VERTEX
  8
0
  5
24ED
 10
33.6075
 20
57.4483
 30
-1.27777e-14
  70
    32
  0
VERTEX
  8
0
  5
24EE
 10
33.6102
 20
57.4453
 30
-1.27766e-14
  70
    32
  0
VERTEX
  8
0
  5
24EF
 10
33.6128
 20
57.4423
 30
-1.27754e-14
  70
    32
  0
VERTEX
  8
0
  5
24F0
 10
33.6154
 20
57.4393
 30
-1.27743e-14
  70
    32
  0
VERTEX
  8
0
  5
24F1
 10
33.6181
 20
57.4364
 30
-1.27731e-14
  70
    32
  0
VERTEX
  8
0
  5
24F2
 10
33.6207
 20
57.4334
 30
-1.27720e-14
  70
    32
  0
VERTEX
  8
0
  5
24F3
 10
33.6232
 20
57.4305
 30
-1.27708e-14
  70
    32
  0
VERTEX
  8
0
  5
24F4
 10
33.6258
 20
57.4276
 30
-1.27696e-14
  70
    32
  0
VERTEX
  8
0
  5
24F5
 10
33.6284
 20
57.4246
 30
-1.27684e-14
  70
    32
  0
VERTEX
  8
0
  5
24F6
 10
33.6309
 20
57.4218
 30
-1.27672e-14
  70
    32
  0
VERTEX
  8
0
  5
24F7
 10
33.6335
 20
57.4189
 30
-1.27659e-14
  70
    32
  0
VERTEX
  8
0
  5
24F8
 10
33.6360
 20
57.4160
 30
-1.27647e-14
  70
    32
  0
VERTEX
  8
0
  5
24F9
 10
33.6385
 20
57.4132
 30
-1.27634e-14
  70
    32
  0
VERTEX
  8
0
  5
24FA
 10
33.6410
 20
57.4103
 30
-1.27622e-14
  70
    32
  0
VERTEX
  8
0
  5
24FB
 10
33.6435
 20
57.4075
 30
-1.27609e-14
  70
    32
  0
VERTEX
  8
0
  5
24FC
 10
33.6459
 20
57.4047
 30
-1.27596e-14
  70
    32
  0
VERTEX
  8
0
  5
24FD
 10
33.6484
 20
57.4019
 30
-1.27584e-14
  70
    32
  0
VERTEX
  8
0
  5
24FE
 10
33.6508
 20
57.3991
 30
-1.27571e-14
  70
    32
  0
VERTEX
  8
0
  5
24FF
 10
33.6533
 20
57.3963
 30
-1.27558e-14
  70
    32
  0
VERTEX
  8
0
  5
2500
 10
33.6557
 20
57.3936
 30
-1.27545e-14
  70
    32
  0
VERTEX
  8
0
  5
2501
 10
33.6581
 20
57.3909
 30
-1.27532e-14
  70
    32
  0
VERTEX
  8
0
  5
2502
 10
33.6605
 20
57.3881
 30
-1.27519e-14
  70
    32
  0
VERTEX
  8
0
  5
2503
 10
33.6629
 20
57.3854
 30
-1.27506e-14
  70
    32
  0
VERTEX
  8
0
  5
2504
 10
33.6652
 20
57.3827
 30
-1.27493e-14
  70
    32
  0
VERTEX
  8
0
  5
2505
 10
33.6676
 20
57.3801
 30
-1.27480e-14
  70
    32
  0
VERTEX
  8
0
  5
2506
 10
33.6699
 20
57.3774
 30
-1.27467e-14
  70
    32
  0
VERTEX
  8
0
  5
2507
 10
33.6722
 20
57.3748
 30
-1.27454e-14
  70
    32
  0
VERTEX
  8
0
  5
2508
 10
33.6746
 20
57.3721
 30
-1.27441e-14
  70
    32
  0
VERTEX
  8
0
  5
2509
 10
33.6769
 20
57.3695
 30
-1.27429e-14
  70
    32
  0
VERTEX
  8
0
  5
250A
 10
33.6791
 20
57.3669
 30
-1.27416e-14
  70
    32
  0
VERTEX
  8
0
  5
250B
 10
33.6814
 20
57.3643
 30
-1.27403e-14
  70
    32
  0
VERTEX
  8
0
  5
250C
 10
33.6837
 20
57.3617
 30
-1.27390e-14
  70
    32
  0
VERTEX
  8
0
  5
250D
 10
33.6859
 20
57.3592
 30
-1.27378e-14
  70
    32
  0
VERTEX
  8
0
  5
250E
 10
33.6882
 20
57.3566
 30
-1.27365e-14
  70
    32
  0
VERTEX
  8
0
  5
250F
 10
33.6904
 20
57.3541
 30
-1.27353e-14
  70
    32
  0
VERTEX
  8
0
  5
2510
 10
33.6926
 20
57.3516
 30
-1.27340e-14
  70
    32
  0
VERTEX
  8
0
  5
2511
 10
33.6948
 20
57.3491
 30
-1.27328e-14
  70
    32
  0
VERTEX
  8
0
  5
2512
 10
33.6970
 20
57.3466
 30
-1.27316e-14
  70
    32
  0
VERTEX
  8
0
  5
2513
 10
33.6991
 20
57.3442
 30
-1.27304e-14
  70
    32
  0
VERTEX
  8
0
  5
2514
 10
33.7013
 20
57.3417
 30
-1.27292e-14
  70
    32
  0
VERTEX
  8
0
  5
2515
 10
33.7034
 20
57.3393
 30
-1.27280e-14
  70
    32
  0
VERTEX
  8
0
  5
2516
 10
33.7056
 20
57.3368
 30
-1.27268e-14
  70
    32
  0
VERTEX
  8
0
  5
2517
 10
33.7077
 20
57.3344
 30
-1.27256e-14
  70
    32
  0
VERTEX
  8
0
  5
2518
 10
33.7098
 20
57.3320
 30
-1.27245e-14
  70
    32
  0
VERTEX
  8
0
  5
2519
 10
33.7119
 20
57.3297
 30
-1.27234e-14
  70
    32
  0
VERTEX
  8
0
  5
251A
 10
33.7139
 20
57.3273
 30
-1.27223e-14
  70
    32
  0
VERTEX
  8
0
  5
251B
 10
33.7160
 20
57.3250
 30
-1.27212e-14
  70
    32
  0
VERTEX
  8
0
  5
251C
 10
33.7180
 20
57.3226
 30
-1.27201e-14
  70
    32
  0
VERTEX
  8
0
  5
251D
 10
33.7201
 20
57.3203
 30
-1.27191e-14
  70
    32
  0
VERTEX
  8
0
  5
251E
 10
33.7221
 20
57.3180
 30
-1.27180e-14
  70
    32
  0
VERTEX
  8
0
  5
251F
 10
33.7241
 20
57.3157
 30
-1.27170e-14
  70
    32
  0
VERTEX
  8
0
  5
2520
 10
33.7261
 20
57.3135
 30
-1.27160e-14
  70
    32
  0
VERTEX
  8
0
  5
2521
 10
33.7281
 20
57.3112
 30
-1.27150e-14
  70
    32
  0
VERTEX
  8
0
  5
2522
 10
33.7300
 20
57.3090
 30
-1.27141e-14
  70
    32
  0
VERTEX
  8
0
  5
2523
 10
33.7320
 20
57.3067
 30
-1.27132e-14
  70
    32
  0
VERTEX
  8
0
  5
2524
 10
33.7339
 20
57.3045
 30
-1.27123e-14
  70
    32
  0
VERTEX
  8
0
  5
2525
 10
33.7359
 20
57.3023
 30
-1.27114e-14
  70
    32
  0
VERTEX
  8
0
  5
2526
 10
33.7378
 20
57.3002
 30
-1.27105e-14
  70
    32
  0
VERTEX
  8
0
  5
2527
 10
33.7397
 20
57.2980
 30
-1.27097e-14
  70
    32
  0
VERTEX
  8
0
  5
2528
 10
33.7416
 20
57.2958
 30
-1.27089e-14
  70
    32
  0
VERTEX
  8
0
  5
2529
 10
33.7434
 20
57.2937
 30
-1.27082e-14
  70
    32
  0
VERTEX
  8
0
  5
252A
 10
33.7453
 20
57.2916
 30
-1.27074e-14
  70
    32
  0
VERTEX
  8
0
  5
252B
 10
33.7471
 20
57.2895
 30
-1.27067e-14
  70
    32
  0
VERTEX
  8
0
  5
252C
 10
33.7490
 20
57.2874
 30
-1.27061e-14
  70
    32
  0
VERTEX
  8
0
  5
252D
 10
33.7508
 20
57.2853
 30
-1.27054e-14
  70
    32
  0
VERTEX
  8
0
  5
252E
 10
33.7526
 20
57.2833
 30
-1.27048e-14
  70
    32
  0
VERTEX
  8
0
  5
252F
 10
33.7544
 20
57.2813
 30
-1.27042e-14
  70
    32
  0
VERTEX
  8
0
  5
2530
 10
33.7561
 20
57.2792
 30
-1.27037e-14
  70
    32
  0
VERTEX
  8
0
  5
2531
 10
33.7579
 20
57.2772
 30
-1.27032e-14
  70
    32
  0
VERTEX
  8
0
  5
2532
 10
33.7596
 20
57.2752
 30
-1.27027e-14
  70
    32
  0
VERTEX
  8
0
  5
2533
 10
33.7614
 20
57.2733
 30
-1.27022e-14
  70
    32
  0
VERTEX
  8
0
  5
2534
 10
33.7631
 20
57.2713
 30
-1.27018e-14
  70
    32
  0
VERTEX
  8
0
  5
2535
 10
33.7648
 20
57.2694
 30
-1.27015e-14
  70
    32
  0
VERTEX
  8
0
  5
2536
 10
33.7665
 20
57.2674
 30
-1.27011e-14
  70
    32
  0
VERTEX
  8
0
  5
2537
 10
33.7682
 20
57.2655
 30
-1.27009e-14
  70
    32
  0
VERTEX
  8
0
  5
2538
 10
33.7698
 20
57.2636
 30
-1.27006e-14
  70
    32
  0
VERTEX
  8
0
  5
2539
 10
33.7715
 20
57.2617
 30
-1.27004e-14
  70
    32
  0
VERTEX
  8
0
  5
253A
 10
33.7731
 20
57.2599
 30
-1.27002e-14
  70
    32
  0
VERTEX
  8
0
  5
253B
 10
33.7747
 20
57.2580
 30
-1.27001e-14
  70
    32
  0
VERTEX
  8
0
  5
253C
 10
33.7764
 20
57.2562
 30
-1.27000e-14
  70
    32
  0
VERTEX
  8
0
  5
253D
 10
33.7780
 20
57.2544
 30
-1.27000e-14
  70
    32
  0
VERTEX
  8
0
  5
253E
 10
33.7795
 20
57.2526
 30
-1.27000e-14
  70
    32
  0
VERTEX
  8
0
  5
253F
 10
33.7811
 20
57.2508
 30
-1.27000e-14
  70
    32
  0
VERTEX
  8
0
  5
2540
 10
33.7826
 20
57.2490
 30
-1.27000e-14
  70
    32
  0
VERTEX
  8
0
  5
2541
 10
33.7842
 20
57.2473
 30
-1.27000e-14
  70
    32
  0
VERTEX
  8
0
  5
2542
 10
33.7857
 20
57.2455
 30
-1.27000e-14
  70
    32
  0
VERTEX
  8
0
  5
2543
 10
33.7872
 20
57.2438
 30
-1.27000e-14
  70
    32
  0
VERTEX
  8
0
  5
2544
 10
33.7887
 20
57.2421
 30
-1.27000e-14
  70
    32
  0
VERTEX
  8
0
  5
2545
 10
33.7902
 20
57.2404
 30
-1.27000e-14
  70
    32
  0
VERTEX
  8
0
  5
2546
 10
33.7917
 20
57.2387
 30
-1.27000e-14
  70
    32
  0
VERTEX
  8
0
  5
2547
 10
33.7931
 20
57.2371
 30
-1.27000e-14
  70
    32
  0
VERTEX
  8
0
  5
2548
 10
33.7946
 20
57.2354
 30
-1.27000e-14
  70
    32
  0
VERTEX
  8
0
  5
2549
 10
33.7960
 20
57.2338
 30
-1.27000e-14
  70
    32
  0
VERTEX
  8
0
  5
254A
 10
33.7974
 20
57.2322
 30
-1.27000e-14
  70
    32
  0
VERTEX
  8
0
  5
254B
 10
33.7988
 20
57.2306
 30
-1.27000e-14
  70
    32
  0
VERTEX
  8
0
  5
254C
 10
33.8002
 20
57.2290
 30
-1.27000e-14
  70
    32
  0
VERTEX
  8
0
  5
254D
 10
33.8015
 20
57.2275
 30
-1.27000e-14
  70
    32
  0
VERTEX
  8
0
  5
254E
 10
33.8029
 20
57.2259
 30
-1.27000e-14
  70
    32
  0
VERTEX
  8
0
  5
254F
 10
33.8042
 20
57.2244
 30
-1.27000e-14
  70
    32
  0
VERTEX
  8
0
  5
2550
 10
33.8056
 20
57.2229
 30
-1.27000e-14
  70
    32
  0
VERTEX
  8
0
  5
2551
 10
33.8069
 20
57.2214
 30
-1.27000e-14
  70
    32
  0
VERTEX
  8
0
  5
2552
 10
33.8082
 20
57.2199
 30
-1.27000e-14
  70
    32
  0
VERTEX
  8
0
  5
2553
 10
33.8095
 20
57.2184
 30
-1.27000e-14
  70
    32
  0
VERTEX
  8
0
  5
2554
 10
33.8107
 20
57.2170
 30
-1.27000e-14
  70
    32
  0
VERTEX
  8
0
  5
2555
 10
33.8120
 20
57.2155
 30
-1.27000e-14
  70
    32
  0
VERTEX
  8
0
  5
2556
 10
33.8132
 20
57.2141
 30
-1.27000e-14
  70
    32
  0
VERTEX
  8
0
  5
2557
 10
33.8145
 20
57.2127
 30
-1.27000e-14
  70
    32
  0
VERTEX
  8
0
  5
2558
 10
33.8157
 20
57.2113
 30
-1.27000e-14
  70
    32
  0
VERTEX
  8
0
  5
2559
 10
33.8169
 20
57.2100
 30
-1.27000e-14
  70
    32
  0
VERTEX
  8
0
  5
255A
 10
33.8181
 20
57.2086
 30
-1.27000e-14
  70
    32
  0
VERTEX
  8
0
  5
255B
 10
33.8193
 20
57.2073
 30
-1.27000e-14
  70
    32
  0
VERTEX
  8
0
  5
255C
 10
33.8204
 20
57.2059
 30
-1.27000e-14
  70
    32
  0
VERTEX
  8
0
  5
255D
 10
33.8216
 20
57.2046
 30
-1.27000e-14
  70
    32
  0
VERTEX
  8
0
  5
255E
 10
33.8227
 20
57.2033
 30
-1.27000e-14
  70
    32
  0
VERTEX
  8
0
  5
255F
 10
33.8238
 20
57.2021
 30
-1.27000e-14
  70
    32
  0
VERTEX
  8
0
  5
2560
 10
33.8249
 20
57.2008
 30
-1.27000e-14
  70
    32
  0
VERTEX
  8
0
  5
2561
 10
33.8260
 20
57.1996
 30
-1.27000e-14
  70
    32
  0
VERTEX
  8
0
  5
2562
 10
33.8271
 20
57.1983
 30
-1.27000e-14
  70
    32
  0
VERTEX
  8
0
  5
2563
 10
33.8282
 20
57.1971
 30
-1.27000e-14
  70
    32
  0
VERTEX
  8
0
  5
2564
 10
33.8292
 20
57.1959
 30
-1.27000e-14
  70
    32
  0
VERTEX
  8
0
  5
2565
 10
33.8303
 20
57.1947
 30
-1.27000e-14
  70
    32
  0
VERTEX
  8
0
  5
2566
 10
33.8313
 20
57.1936
 30
-1.27000e-14
  70
    32
  0
VERTEX
  8
0
  5
2567
 10
33.8323
 20
57.1924
 30
-1.27000e-14
  70
    32
  0
VERTEX
  8
0
  5
2568
 10
33.8333
 20
57.1913
 30
-1.27000e-14
  70
    32
  0
VERTEX
  8
0
  5
2569
 10
33.8343
 20
57.1902
 30
-1.27000e-14
  70
    32
  0
VERTEX
  8
0
  5
256A
 10
33.8352
 20
57.1891
 30
-1.27000e-14
  70
    32
  0
VERTEX
  8
0
  5
256B
 10
33.8362
 20
57.1880
 30
-1.27000e-14
  70
    32
  0
VERTEX
  8
0
  5
256C
 10
33.8371
 20
57.1869
 30
-1.27000e-14
  70
    32
  0
VERTEX
  8
0
  5
256D
 10
33.8380
 20
57.1858
 30
-1.27000e-14
  70
    32
  0
VERTEX
  8
0
  5
256E
 10
33.8390
 20
57.1848
 30
-1.27000e-14
  70
    32
  0
VERTEX
  8
0
  5
256F
 10
33.8399
 20
57.1838
 30
-1.27000e-14
  70
    32
  0
VERTEX
  8
0
  5
2570
 10
33.8407
 20
57.1828
 30
-1.27000e-14
  70
    32
  0
VERTEX
  8
0
  5
2571
 10
33.8416
 20
57.1818
 30
-1.27000e-14
  70
    32
  0
VERTEX
  8
0
  5
2572
 10
33.8425
 20
57.1808
 30
-1.27000e-14
  70
    32
  0
VERTEX
  8
0
  5
2573
 10
33.8433
 20
57.1798
 30
-1.27000e-14
  70
    32
  0
VERTEX
  8
0
  5
2574
 10
33.8441
 20
57.1789
 30
-1.27000e-14
  70
    32
  0
VERTEX
  8
0
  5
2575
 10
33.8450
 20
57.1779
 30
-1.27000e-14
  70
    32
  0
VERTEX
  8
0
  5
2576
 10
33.8458
 20
57.1770
 30
-1.27000e-14
  70
    32
  0
VERTEX
  8
0
  5
2577
 10
33.8466
 20
57.1761
 30
-1.27000e-14
  70
    32
  0
VERTEX
  8
0
  5
2578
 10
33.8473
 20
57.1752
 30
-1.27000e-14
  70
    32
  0
VERTEX
  8
0
  5
2579
 10
33.8481
 20
57.1744
 30
-1.27000e-14
  70
    32
  0
VERTEX
  8
0
  5
257A
 10
33.8488
 20
57.1735
 30
-1.27000e-14
  70
    32
  0
VERTEX
  8
0
  5
257B
 10
33.8496
 20
57.1727
 30
-1.27000e-14
  70
    32
  0
VERTEX
  8
0
  5
257C
 10
33.8503
 20
57.1719
 30
-1.27000e-14
  70
    32
  0
VERTEX
  8
0
  5
257D
 10
33.8510
 20
57.1711
 30
-1.27000e-14
  70
    32
  0
VERTEX
  8
0
  5
257E
 10
33.8517
 20
57.1703
 30
-1.27000e-14
  70
    32
  0
VERTEX
  8
0
  5
257F
 10
33.8524
 20
57.1695
 30
-1.27000e-14
  70
    32
  0
VERTEX
  8
0
  5
2580
 10
33.8530
 20
57.1687
 30
-1.27000e-14
  70
    32
  0
VERTEX
  8
0
  5
2581
 10
33.8537
 20
57.1680
 30
-1.27000e-14
  70
    32
  0
VERTEX
  8
0
  5
2582
 10
33.8543
 20
57.1672
 30
-1.27000e-14
  70
    32
  0
VERTEX
  8
0
  5
2583
 10
33.8550
 20
57.1665
 30
-1.27000e-14
  70
    32
  0
VERTEX
  8
0
  5
2584
 10
33.8556
 20
57.1658
 30
-1.27000e-14
  70
    32
  0
VERTEX
  8
0
  5
2585
 10
33.8562
 20
57.1652
 30
-1.27000e-14
  70
    32
  0
VERTEX
  8
0
  5
2586
 10
33.8568
 20
57.1645
 30
-1.27000e-14
  70
    32
  0
VERTEX
  8
0
  5
2587
 10
33.8573
 20
57.1638
 30
-1.27000e-14
  70
    32
  0
VERTEX
  8
0
  5
2588
 10
33.8579
 20
57.1632
 30
-1.27000e-14
  70
    32
  0
VERTEX
  8
0
  5
2589
 10
33.8584
 20
57.1626
 30
-1.27000e-14
  70
    32
  0
VERTEX
  8
0
  5
258A
 10
33.8590
 20
57.1620
 30
-1.27000e-14
  70
    32
  0
VERTEX
  8
0
  5
258B
 10
33.8595
 20
57.1614
 30
-1.27000e-14
  70
    32
  0
VERTEX
  8
0
  5
258C
 10
33.8600
 20
57.1608
 30
-1.27000e-14
  70
    32
  0
VERTEX
  8
0
  5
258D
 10
33.8605
 20
57.1602
 30
-1.27000e-14
  70
    32
  0
VERTEX
  8
0
  5
258E
 10
33.8609
 20
57.1597
 30
-1.27000e-14
  70
    32
  0
VERTEX
  8
0
  5
258F
 10
33.8614
 20
57.1592
 30
-1.27000e-14
  70
    32
  0
VERTEX
  8
0
  5
2590
 10
33.8619
 20
57.1587
 30
-1.27000e-14
  70
    32
  0
VERTEX
  8
0
  5
2591
 10
33.8623
 20
57.1582
 30
-1.27000e-14
  70
    32
  0
VERTEX
  8
0
  5
2592
 10
33.8627
 20
57.1577
 30
-1.27000e-14
  70
    32
  0
VERTEX
  8
0
  5
2593
 10
33.8631
 20
57.1572
 30
-1.27000e-14
  70
    32
  0
VERTEX
  8
0
  5
2594
 10
33.8635
 20
57.1568
 30
-1.27000e-14
  70
    32
  0
VERTEX
  8
0
  5
2595
 10
33.8639
 20
57.1563
 30
-1.27000e-14
  70
    32
  0
VERTEX
  8
0
  5
2596
 10
33.8643
 20
57.1559
 30
-1.27000e-14
  70
    32
  0
VERTEX
  8
0
  5
2597
 10
33.8646
 20
57.1555
 30
-1.27000e-14
  70
    32
  0
VERTEX
  8
0
  5
2598
 10
33.8650
 20
57.1551
 30
-1.27000e-14
  70
    32
  0
VERTEX
  8
0
  5
2599
 10
33.8653
 20
57.1547
 30
-1.27000e-14
  70
    32
  0
VERTEX
  8
0
  5
259A
 10
33.8656
 20
57.1544
 30
-1.27000e-14
  70
    32
  0
VERTEX
  8
0
  5
259B
 10
33.8659
 20
57.1540
 30
-1.27000e-14
  70
    32
  0
VERTEX
  8
0
  5
259C
 10
33.8662
 20
57.1537
 30
-1.27000e-14
  70
    32
  0
VERTEX
  8
0
  5
259D
 10
33.8665
 20
57.1534
 30
-1.27000e-14
  70
    32
  0
VERTEX
  8
0
  5
259E
 10
33.8667
 20
57.1531
 30
-1.27000e-14
  70
    32
  0
VERTEX
  8
0
  5
259F
 10
33.8670
 20
57.1528
 30
-1.27000e-14
  70
    32
  0
VERTEX
  8
0
  5
25A0
 10
33.8672
 20
57.1525
 30
-1.27000e-14
  70
    32
  0
VERTEX
  8
0
  5
25A1
 10
33.8674
 20
57.1523
 30
-1.27000e-14
  70
    32
  0
VERTEX
  8
0
  5
25A2
 10
33.8676
 20
57.1521
 30
-1.27000e-14
  70
    32
  0
VERTEX
  8
0
  5
25A3
 10
33.8678
 20
57.1518
 30
-1.27000e-14
  70
    32
  0
VERTEX
  8
0
  5
25A4
 10
33.8680
 20
57.1516
 30
-1.27000e-14
  70
    32
  0
VERTEX
  8
0
  5
25A5
 10
33.8682
 20
57.1514
 30
-1.27000e-14
  70
    32
  0
VERTEX
  8
0
  5
25A6
 10
33.8683
 20
57.1513
 30
-1.27000e-14
  70
    32
  0
VERTEX
  8
0
  5
25A7
 10
33.8685
 20
57.1511
 30
-1.27000e-14
  70
    32
  0
VERTEX
  8
0
  5
25A8
 10
33.8686
 20
57.1510
 30
-1.27000e-14
  70
    32
  0
VERTEX
  8
0
  5
25A9
 10
33.8687
 20
57.1508
 30
-1.27000e-14
  70
    32
  0
VERTEX
  8
0
  5
25AA
 10
33.8688
 20
57.1507
 30
-1.27000e-14
  70
    32
  0
VERTEX
  8
0
  5
25AB
 10
33.8689
 20
57.1506
 30
-1.27000e-14
  70
    32
  0
VERTEX
  8
0
  5
25AC
 10
33.8690
 20
57.1505
 30
-1.27000e-14
  70
    32
  0
VERTEX
  8
0
  5
25AD
 10
33.8690
 20
57.1505
 30
-1.27000e-14
  70
    32
  0
VERTEX
  8
0
  5
25AE
 10
33.8691
 20
57.1504
 30
-1.27000e-14
  70
    32
  0
VERTEX
  8
0
  5
25AF
 10
33.8691
 20
57.1504
 30
-1.27000e-14
  70
    32
  0
VERTEX
  8
0
  5
25B0
 10
33.8691
 20
57.1504
 30
-1.27000e-14
  70
    32
  0
VERTEX
  8
0
  5
25B1
 10
33.8691
 20
57.1503
 30
-1.27000e-14
  70
    32
  0
SEQEND
  8
0
  5
25B2
  0
POLYLINE
  8
0
  5
25B3
  66
     1
 10
0.000000
 20
0.000000
 30
0.000000
  70
     8
  0
VERTEX
  8
0
  5
25B4
 10
100.148
 20
57.6503
 30
-1.28000e-14
  70
    32
  0
VERTEX
  8
0
  5
25B5
 10
100.136
 20
57.6460
 30
-1.28000e-14
  70
    32
  0
VERTEX
  8
0
  5
25B6
 10
100.124
 20
57.6417
 30
-1.28000e-14
  70
    32
  0
VERTEX
  8
0
  5
25B7
 10
100.112
 20
57.6374
 30
-1.28000e-14
  70
    32
  0
VERTEX
  8
0
  5
25B8
 10
100.100
 20
57.6331
 30
-1.28000e-14
  70
    32
  0
VERTEX
  8
0
  5
25B9
 10
100.088
 20
57.6288
 30
-1.28000e-14
  70
    32
  0
VERTEX
  8
0
  5
25BA
 10
100.077
 20
57.6245
 30
-1.28000e-14
  70
    32
  0
VERTEX
  8
0
  5
25BB
 10
100.065
 20
57.6203
 30
-1.28000e-14
  70
    32
  0
VERTEX
  8
0
  5
25BC
 10
100.053
 20
57.6161
 30
-1.28000e-14
  70
    32
  0
VERTEX
  8
0
  5
25BD
 10
100.041
 20
57.6118
 30
-1.28000e-14
  70
    32
  0
VERTEX
  8
0
  5
25BE
 10
100.029
 20
57.6077
 30
-1.28000e-14
  70
    32
  0
VERTEX
  8
0
  5
25BF
 10
100.017
 20
57.6035
 30
-1.28000e-14
  70
    32
  0
VERTEX
  8
0
  5
25C0
 10
100.005
 20
57.5993
 30
-1.28000e-14
  70
    32
  0
VERTEX
  8
0
  5
25C1
 10
99.9930
 20
57.5952
 30
-1.28000e-14
  70
    32
  0
VERTEX
  8
0
  5
25C2
 10
99.9810
 20
57.5910
 30
-1.28000e-14
  70
    32
  0
VERTEX
  8
0
  5
25C3
 10
99.9690
 20
57.5869
 30
-1.28000e-14
  70
    32
  0
VERTEX
  8
0
  5
25C4
 10
99.9570
 20
57.5828
 30
-1.28000e-14
  70
    32
  0
VERTEX
  8
0
  5
25C5
 10
99.9450
 20
57.5788
 30
-1.28000e-14
  70
    32
  0
VERTEX
  8
0
  5
25C6
 10
99.9330
 20
57.5747
 30
-1.28000e-14
  70
    32
  0
VERTEX
  8
0
  5
25C7
 10
99.9210
 20
57.5707
 30
-1.28000e-14
  70
    32
  0
VERTEX
  8
0
  5
25C8
 10
99.9090
 20
57.5666
 30
-1.28000e-14
  70
    32
  0
VERTEX
  8
0
  5
25C9
 10
99.8970
 20
57.5626
 30
-1.28000e-14
  70
    32
  0
VERTEX
  8
0
  5
25CA
 10
99.8849
 20
57.5587
 30
-1.28000e-14
  70
    32
  0
VERTEX
  8
0
  5
25CB
 10
99.8729
 20
57.5547
 30
-1.27998e-14
  70
    32
  0
VERTEX
  8
0
  5
25CC
 10
99.8608
 20
57.5507
 30
-1.27997e-14
  70
    32
  0
VERTEX
  8
0
  5
25CD
 10
99.8487
 20
57.5468
 30
-1.27995e-14
  70
    32
  0
VERTEX
  8
0
  5
25CE
 10
99.8366
 20
57.5429
 30
-1.27992e-14
  70
    32
  0
VERTEX
  8
0
  5
25CF
 10
99.8245
 20
57.5390
 30
-1.27989e-14
  70
    32
  0
VERTEX
  8
0
  5
25D0
 10
99.8124
 20
57.5351
 30
-1.27985e-14
  70
    32
  0
VERTEX
  8
0
  5
25D1
 10
99.8003
 20
57.5312
 30
-1.27981e-14
  70
    32
  0
VERTEX
  8
0
  5
25D2
 10
99.7882
 20
57.5274
 30
-1.27976e-14
  70
    32
  0
VERTEX
  8
0
  5
25D3
 10
99.7761
 20
57.5236
 30
-1.27971e-14
  70
    32
  0
VERTEX
  8
0
  5
25D4
 10
99.7639
 20
57.5197
 30
-1.27966e-14
  70
    32
  0
VERTEX
  8
0
  5
25D5
 10
99.7518
 20
57.5160
 30
-1.27959e-14
  70
    32
  0
VERTEX
  8
0
  5
25D6
 10
99.7396
 20
57.5122
 30
-1.27953e-14
  70
    32
  0
VERTEX
  8
0
  5
25D7
 10
99.7275
 20
57.5084
 30
-1.27946e-14
  70
    32
  0
VERTEX
  8
0
  5
25D8
 10
99.7153
 20
57.5047
 30
-1.27939e-14
  70
    32
  0
VERTEX
  8
0
  5
25D9
 10
99.7031
 20
57.5010
 30
-1.27931e-14
  70
    32
  0
VERTEX
  8
0
  5
25DA
 10
99.6909
 20
57.4973
 30
-1.27923e-14
  70
    32
  0
VERTEX
  8
0
  5
25DB
 10
99.6787
 20
57.4936
 30
-1.27914e-14
  70
    32
  0
VERTEX
  8
0
  5
25DC
 10
99.6665
 20
57.4899
 30
-1.27905e-14
  70
    32
  0
VERTEX
  8
0
  5
25DD
 10
99.6543
 20
57.4863
 30
-1.27896e-14
  70
    32
  0
VERTEX
  8
0
  5
25DE
 10
99.6421
 20
57.4826
 30
-1.27886e-14
  70
    32
  0
VERTEX
  8
0
  5
25DF
 10
99.6299
 20
57.4790
 30
-1.27876e-14
  70
    32
  0
VERTEX
  8
0
  5
25E0
 10
99.6176
 20
57.4754
 30
-1.27866e-14
  70
    32
  0
VERTEX
  8
0
  5
25E1
 10
99.6054
 20
57.4718
 30
-1.27855e-14
  70
    32
  0
VERTEX
  8
0
  5
25E2
 10
99.5931
 20
57.4683
 30
-1.27844e-14
  70
    32
  0
VERTEX
  8
0
  5
25E3
 10
99.5809
 20
57.4648
 30
-1.27833e-14
  70
    32
  0
VERTEX
  8
0
  5
25E4
 10
99.5686
 20
57.4612
 30
-1.27822e-14
  70
    32
  0
VERTEX
  8
0
  5
25E5
 10
99.5563
 20
57.4577
 30
-1.27810e-14
  70
    32
  0
VERTEX
  8
0
  5
25E6
 10
99.5440
 20
57.4542
 30
-1.27798e-14
  70
    32
  0
VERTEX
  8
0
  5
25E7
 10
99.5317
 20
57.4508
 30
-1.27786e-14
  70
    32
  0
VERTEX
  8
0
  5
25E8
 10
99.5195
 20
57.4473
 30
-1.27773e-14
  70
    32
  0
VERTEX
  8
0
  5
25E9
 10
99.5071
 20
57.4439
 30
-1.27760e-14
  70
    32
  0
VERTEX
  8
0
  5
25EA
 10
99.4948
 20
57.4405
 30
-1.27747e-14
  70
    32
  0
VERTEX
  8
0
  5
25EB
 10
99.4825
 20
57.4371
 30
-1.27734e-14
  70
    32
  0
VERTEX
  8
0
  5
25EC
 10
99.4702
 20
57.4337
 30
-1.27721e-14
  70
    32
  0
VERTEX
  8
0
  5
25ED
 10
99.4579
 20
57.4304
 30
-1.27707e-14
  70
    32
  0
VERTEX
  8
0
  5
25EE
 10
99.4455
 20
57.4270
 30
-1.27694e-14
  70
    32
  0
VERTEX
  8
0
  5
25EF
 10
99.4332
 20
57.4237
 30
-1.27680e-14
  70
    32
  0
VERTEX
  8
0
  5
25F0
 10
99.4208
 20
57.4204
 30
-1.27666e-14
  70
    32
  0
VERTEX
  8
0
  5
25F1
 10
99.4084
 20
57.4172
 30
-1.27652e-14
  70
    32
  0
VERTEX
  8
0
  5
25F2
 10
99.3961
 20
57.4139
 30
-1.27638e-14
  70
    32
  0
VERTEX
  8
0
  5
25F3
 10
99.3837
 20
57.4107
 30
-1.27623e-14
  70
    32
  0
VERTEX
  8
0
  5
25F4
 10
99.3713
 20
57.4074
 30
-1.27609e-14
  70
    32
  0
VERTEX
  8
0
  5
25F5
 10
99.3589
 20
57.4042
 30
-1.27594e-14
  70
    32
  0
VERTEX
  8
0
  5
25F6
 10
99.3465
 20
57.4010
 30
-1.27580e-14
  70
    32
  0
VERTEX
  8
0
  5
25F7
 10
99.3341
 20
57.3979
 30
-1.27565e-14
  70
    32
  0
VERTEX
  8
0
  5
25F8
 10
99.3217
 20
57.3947
 30
-1.27550e-14
  70
    32
  0
VERTEX
  8
0
  5
25F9
 10
99.3093
 20
57.3916
 30
-1.27536e-14
  70
    32
  0
VERTEX
  8
0
  5
25FA
 10
99.2969
 20
57.3885
 30
-1.27521e-14
  70
    32
  0
VERTEX
  8
0
  5
25FB
 10
99.2845
 20
57.3854
 30
-1.27506e-14
  70
    32
  0
VERTEX
  8
0
  5
25FC
 10
99.2721
 20
57.3823
 30
-1.27491e-14
  70
    32
  0
VERTEX
  8
0
  5
25FD
 10
99.2596
 20
57.3793
 30
-1.27476e-14
  70
    32
  0
VERTEX
  8
0
  5
25FE
 10
99.2472
 20
57.3763
 30
-1.27462e-14
  70
    32
  0
VERTEX
  8
0
  5
25FF
 10
99.2347
 20
57.3733
 30
-1.27447e-14
  70
    32
  0
VERTEX
  8
0
  5
2600
 10
99.2223
 20
57.3703
 30
-1.27432e-14
  70
    32
  0
VERTEX
  8
0
  5
2601
 10
99.2098
 20
57.3673
 30
-1.27418e-14
  70
    32
  0
VERTEX
  8
0
  5
2602
 10
99.1974
 20
57.3643
 30
-1.27403e-14
  70
    32
  0
VERTEX
  8
0
  5
2603
 10
99.1849
 20
57.3614
 30
-1.27389e-14
  70
    32
  0
VERTEX
  8
0
  5
2604
 10
99.1724
 20
57.3585
 30
-1.27374e-14
  70
    32
  0
VERTEX
  8
0
  5
2605
 10
99.1599
 20
57.3556
 30
-1.27360e-14
  70
    32
  0
VERTEX
  8
0
  5
2606
 10
99.1475
 20
57.3527
 30
-1.27346e-14
  70
    32
  0
VERTEX
  8
0
  5
2607
 10
99.1350
 20
57.3499
 30
-1.27332e-14
  70
    32
  0
VERTEX
  8
0
  5
2608
 10
99.1225
 20
57.3470
 30
-1.27318e-14
  70
    32
  0
VERTEX
  8
0
  5
2609
 10
99.1100
 20
57.3442
 30
-1.27304e-14
  70
    32
  0
VERTEX
  8
0
  5
260A
 10
99.0975
 20
57.3414
 30
-1.27290e-14
  70
    32
  0
VERTEX
  8
0
  5
260B
 10
99.0850
 20
57.3386
 30
-1.27277e-14
  70
    32
  0
VERTEX
  8
0
  5
260C
 10
99.0725
 20
57.3359
 30
-1.27263e-14
  70
    32
  0
VERTEX
  8
0
  5
260D
 10
99.0599
 20
57.3331
 30
-1.27250e-14
  70
    32
  0
VERTEX
  8
0
  5
260E
 10
99.0474
 20
57.3304
 30
-1.27237e-14
  70
    32
  0
VERTEX
  8
0
  5
260F
 10
99.0349
 20
57.3277
 30
-1.27225e-14
  70
    32
  0
VERTEX
  8
0
  5
2610
 10
99.0224
 20
57.3250
 30
-1.27212e-14
  70
    32
  0
VERTEX
  8
0
  5
2611
 10
99.0098
 20
57.3224
 30
-1.27200e-14
  70
    32
  0
VERTEX
  8
0
  5
2612
 10
98.9973
 20
57.3197
 30
-1.27188e-14
  70
    32
  0
VERTEX
  8
0
  5
2613
 10
98.9848
 20
57.3171
 30
-1.27176e-14
  70
    32
  0
VERTEX
  8
0
  5
2614
 10
98.9722
 20
57.3145
 30
-1.27165e-14
  70
    32
  0
VERTEX
  8
0
  5
2615
 10
98.9597
 20
57.3119
 30
-1.27154e-14
  70
    32
  0
VERTEX
  8
0
  5
2616
 10
98.9471
 20
57.3094
 30
-1.27143e-14
  70
    32
  0
VERTEX
  8
0
  5
2617
 10
98.9345
 20
57.3068
 30
-1.27132e-14
  70
    32
  0
VERTEX
  8
0
  5
2618
 10
98.9220
 20
57.3043
 30
-1.27122e-14
  70
    32
  0
VERTEX
  8
0
  5
2619
 10
98.9094
 20
57.3018
 30
-1.27112e-14
  70
    32
  0
VERTEX
  8
0
  5
261A
 10
98.8969
 20
57.2993
 30
-1.27102e-14
  70
    32
  0
VERTEX
  8
0
  5
261B
 10
98.8843
 20
57.2969
 30
-1.27093e-14
  70
    32
  0
VERTEX
  8
0
  5
261C
 10
98.8717
 20
57.2944
 30
-1.27084e-14
  70
    32
  0
VERTEX
  8
0
  5
261D
 10
98.8591
 20
57.2920
 30
-1.27076e-14
  70
    32
  0
VERTEX
  8
0
  5
261E
 10
98.8466
 20
57.2896
 30
-1.27068e-14
  70
    32
  0
VERTEX
  8
0
  5
261F
 10
98.8340
 20
57.2872
 30
-1.27060e-14
  70
    32
  0
VERTEX
  8
0
  5
2620
 10
98.8214
 20
57.2849
 30
-1.27053e-14
  70
    32
  0
VERTEX
  8
0
  5
2621
 10
98.8088
 20
57.2825
 30
-1.27046e-14
  70
    32
  0
VERTEX
  8
0
  5
2622
 10
98.7962
 20
57.2802
 30
-1.27039e-14
  70
    32
  0
VERTEX
  8
0
  5
2623
 10
98.7836
 20
57.2779
 30
-1.27033e-14
  70
    32
  0
VERTEX
  8
0
  5
2624
 10
98.7710
 20
57.2757
 30
-1.27028e-14
  70
    32
  0
VERTEX
  8
0
  5
2625
 10
98.7584
 20
57.2734
 30
-1.27023e-14
  70
    32
  0
VERTEX
  8
0
  5
2626
 10
98.7458
 20
57.2712
 30
-1.27018e-14
  70
    32
  0
VERTEX
  8
0
  5
2627
 10
98.7332
 20
57.2689
 30
-1.27014e-14
  70
    32
  0
VERTEX
  8
0
  5
2628
 10
98.7206
 20
57.2668
 30
-1.27010e-14
  70
    32
  0
VERTEX
  8
0
  5
2629
 10
98.7080
 20
57.2646
 30
-1.27007e-14
  70
    32
  0
VERTEX
  8
0
  5
262A
 10
98.6954
 20
57.2624
 30
-1.27005e-14
  70
    32
  0
VERTEX
  8
0
  5
262B
 10
98.6827
 20
57.2603
 30
-1.27003e-14
  70
    32
  0
VERTEX
  8
0
  5
262C
 10
98.6701
 20
57.2582
 30
-1.27001e-14
  70
    32
  0
VERTEX
  8
0
  5
262D
 10
98.6575
 20
57.2561
 30
-1.27000e-14
  70
    32
  0
VERTEX
  8
0
  5
262E
 10
98.6449
 20
57.2540
 30
-1.27000e-14
  70
    32
  0
VERTEX
  8
0
  5
262F
 10
98.6323
 20
57.2520
 30
-1.27000e-14
  70
    32
  0
VERTEX
  8
0
  5
2630
 10
98.6196
 20
57.2499
 30
-1.27000e-14
  70
    32
  0
VERTEX
  8
0
  5
2631
 10
98.6070
 20
57.2479
 30
-1.27000e-14
  70
    32
  0
VERTEX
  8
0
  5
2632
 10
98.5944
 20
57.2459
 30
-1.27000e-14
  70
    32
  0
VERTEX
  8
0
  5
2633
 10
98.5817
 20
57.2440
 30
-1.27000e-14
  70
    32
  0
VERTEX
  8
0
  5
2634
 10
98.5691
 20
57.2420
 30
-1.27000e-14
  70
    32
  0
VERTEX
  8
0
  5
2635
 10
98.5565
 20
57.2401
 30
-1.27000e-14
  70
    32
  0
VERTEX
  8
0
  5
2636
 10
98.5438
 20
57.2382
 30
-1.27000e-14
  70
    32
  0
VERTEX
  8
0
  5
2637
 10
98.5312
 20
57.2363
 30
-1.27000e-14
  70
    32
  0
VERTEX
  8
0
  5
2638
 10
98.5186
 20
57.2345
 30
-1.27000e-14
  70
    32
  0
VERTEX
  8
0
  5
2639
 10
98.5059
 20
57.2326
 30
-1.27000e-14
  70
    32
  0
VERTEX
  8
0
  5
263A
 10
98.4933
 20
57.2308
 30
-1.27000e-14
  70
    32
  0
VERTEX
  8
0
  5
263B
 10
98.4806
 20
57.2290
 30
-1.27000e-14
  70
    32
  0
VERTEX
  8
0
  5
263C
 10
98.4680
 20
57.2272
 30
-1.27000e-14
  70
    32
  0
VERTEX
  8
0
  5
263D
 10
98.4554
 20
57.2254
 30
-1.27000e-14
  70
    32
  0
VERTEX
  8
0
  5
263E
 10
98.4427
 20
57.2237
 30
-1.27000e-14
  70
    32
  0
VERTEX
  8
0
  5
263F
 10
98.4301
 20
57.2220
 30
-1.27000e-14
  70
    32
  0
VERTEX
  8
0
  5
2640
 10
98.4174
 20
57.2203
 30
-1.27000e-14
  70
    32
  0
VERTEX
  8
0
  5
2641
 10
98.4048
 20
57.2186
 30
-1.27000e-14
  70
    32
  0
VERTEX
  8
0
  5
2642
 10
98.3922
 20
57.2170
 30
-1.27000e-14
  70
    32
  0
VERTEX
  8
0
  5
2643
 10
98.3795
 20
57.2153
 30
-1.27000e-14
  70
    32
  0
VERTEX
  8
0
  5
2644
 10
98.3669
 20
57.2137
 30
-1.27000e-14
  70
    32
  0
VERTEX
  8
0
  5
2645
 10
98.3542
 20
57.2121
 30
-1.27000e-14
  70
    32
  0
VERTEX
  8
0
  5
2646
 10
98.3416
 20
57.2105
 30
-1.27000e-14
  70
    32
  0
VERTEX
  8
0
  5
2647
 10
98.3289
 20
57.2090
 30
-1.27000e-14
  70
    32
  0
VERTEX
  8
0
  5
2648
 10
98.3163
 20
57.2075
 30
-1.27000e-14
  70
    32
  0
VERTEX
  8
0
  5
2649
 10
98.3036
 20
57.2059
 30
-1.27000e-14
  70
    32
  0
VERTEX
  8
0
  5
264A
 10
98.2910
 20
57.2045
 30
-1.27000e-14
  70
    32
  0
VERTEX
  8
0
  5
264B
 10
98.2784
 20
57.2030
 30
-1.27000e-14
  70
    32
  0
VERTEX
  8
0
  5
264C
 10
98.2657
 20
57.2015
 30
-1.27000e-14
  70
    32
  0
VERTEX
  8
0
  5
264D
 10
98.2531
 20
57.2001
 30
-1.27000e-14
  70
    32
  0
VERTEX
  8
0
  5
264E
 10
98.2404
 20
57.1987
 30
-1.27000e-14
  70
    32
  0
VERTEX
  8
0
  5
264F
 10
98.2278
 20
57.1973
 30
-1.27000e-14
  70
    32
  0
VERTEX
  8
0
  5
2650
 10
98.2152
 20
57.1959
 30
-1.27000e-14
  70
    32
  0
VERTEX
  8
0
  5
2651
 10
98.2025
 20
57.1946
 30
-1.27000e-14
  70
    32
  0
VERTEX
  8
0
  5
2652
 10
98.1899
 20
57.1933
 30
-1.27000e-14
  70
    32
  0
VERTEX
  8
0
  5
2653
 10
98.1773
 20
57.1919
 30
-1.27000e-14
  70
    32
  0
VERTEX
  8
0
  5
2654
 10
98.1646
 20
57.1907
 30
-1.27000e-14
  70
    32
  0
VERTEX
  8
0
  5
2655
 10
98.1520
 20
57.1894
 30
-1.27000e-14
  70
    32
  0
VERTEX
  8
0
  5
2656
 10
98.1394
 20
57.1881
 30
-1.27000e-14
  70
    32
  0
VERTEX
  8
0
  5
2657
 10
98.1267
 20
57.1869
 30
-1.27000e-14
  70
    32
  0
VERTEX
  8
0
  5
2658
 10
98.1141
 20
57.1857
 30
-1.27000e-14
  70
    32
  0
VERTEX
  8
0
  5
2659
 10
98.1015
 20
57.1845
 30
-1.27000e-14
  70
    32
  0
VERTEX
  8
0
  5
265A
 10
98.0889
 20
57.1834
 30
-1.27000e-14
  70
    32
  0
VERTEX
  8
0
  5
265B
 10
98.0762
 20
57.1822
 30
-1.27000e-14
  70
    32
  0
VERTEX
  8
0
  5
265C
 10
98.0636
 20
57.1811
 30
-1.27000e-14
  70
    32
  0
VERTEX
  8
0
  5
265D
 10
98.0510
 20
57.1800
 30
-1.27000e-14
  70
    32
  0
VERTEX
  8
0
  5
265E
 10
98.0384
 20
57.1789
 30
-1.27000e-14
  70
    32
  0
VERTEX
  8
0
  5
265F
 10
98.0258
 20
57.1779
 30
-1.27000e-14
  70
    32
  0
VERTEX
  8
0
  5
2660
 10
98.0132
 20
57.1768
 30
-1.27000e-14
  70
    32
  0
VERTEX
  8
0
  5
2661
 10
98.0006
 20
57.1758
 30
-1.27000e-14
  70
    32
  0
VERTEX
  8
0
  5
2662
 10
97.9880
 20
57.1748
 30
-1.27000e-14
  70
    32
  0
VERTEX
  8
0
  5
2663
 10
97.9754
 20
57.1738
 30
-1.27000e-14
  70
    32
  0
VERTEX
  8
0
  5
2664
 10
97.9628
 20
57.1728
 30
-1.27000e-14
  70
    32
  0
VERTEX
  8
0
  5
2665
 10
97.9502
 20
57.1719
 30
-1.27000e-14
  70
    32
  0
VERTEX
  8
0
  5
2666
 10
97.9376
 20
57.1710
 30
-1.27000e-14
  70
    32
  0
VERTEX
  8
0
  5
2667
 10
97.9250
 20
57.1701
 30
-1.27000e-14
  70
    32
  0
VERTEX
  8
0
  5
2668
 10
97.9124
 20
57.1692
 30
-1.27000e-14
  70
    32
  0
VERTEX
  8
0
  5
2669
 10
97.8998
 20
57.1683
 30
-1.27000e-14
  70
    32
  0
VERTEX
  8
0
  5
266A
 10
97.8872
 20
57.1675
 30
-1.27000e-14
  70
    32
  0
VERTEX
  8
0
  5
266B
 10
97.8746
 20
57.1667
 30
-1.27000e-14
  70
    32
  0
VERTEX
  8
0
  5
266C
 10
97.8621
 20
57.1659
 30
-1.27000e-14
  70
    32
  0
VERTEX
  8
0
  5
266D
 10
97.8495
 20
57.1651
 30
-1.27000e-14
  70
    32
  0
VERTEX
  8
0
  5
266E
 10
97.8369
 20
57.1643
 30
-1.27000e-14
  70
    32
  0
VERTEX
  8
0
  5
266F
 10
97.8244
 20
57.1636
 30
-1.27000e-14
  70
    32
  0
VERTEX
  8
0
  5
2670
 10
97.8118
 20
57.1629
 30
-1.27000e-14
  70
    32
  0
VERTEX
  8
0
  5
2671
 10
97.7993
 20
57.1622
 30
-1.27000e-14
  70
    32
  0
VERTEX
  8
0
  5
2672
 10
97.7867
 20
57.1615
 30
-1.27000e-14
  70
    32
  0
VERTEX
  8
0
  5
2673
 10
97.7742
 20
57.1609
 30
-1.27000e-14
  70
    32
  0
VERTEX
  8
0
  5
2674
 10
97.7616
 20
57.1602
 30
-1.27000e-14
  70
    32
  0
VERTEX
  8
0
  5
2675
 10
97.7491
 20
57.1596
 30
-1.27000e-14
  70
    32
  0
VERTEX
  8
0
  5
2676
 10
97.7365
 20
57.1590
 30
-1.27000e-14
  70
    32
  0
VERTEX
  8
0
  5
2677
 10
97.7240
 20
57.1584
 30
-1.27000e-14
  70
    32
  0
VERTEX
  8
0
  5
2678
 10
97.7115
 20
57.1579
 30
-1.27000e-14
  70
    32
  0
VERTEX
  8
0
  5
2679
 10
97.6990
 20
57.1573
 30
-1.27000e-14
  70
    32
  0
VERTEX
  8
0
  5
267A
 10
97.6864
 20
57.1568
 30
-1.27000e-14
  70
    32
  0
VERTEX
  8
0
  5
267B
 10
97.6739
 20
57.1563
 30
-1.27000e-14
  70
    32
  0
VERTEX
  8
0
  5
267C
 10
97.6614
 20
57.1558
 30
-1.27000e-14
  70
    32
  0
VERTEX
  8
0
  5
267D
 10
97.6489
 20
57.1554
 30
-1.27000e-14
  70
    32
  0
VERTEX
  8
0
  5
267E
 10
97.6364
 20
57.1549
 30
-1.27000e-14
  70
    32
  0
VERTEX
  8
0
  5
267F
 10
97.6239
 20
57.1545
 30
-1.27000e-14
  70
    32
  0
VERTEX
  8
0
  5
2680
 10
97.6114
 20
57.1541
 30
-1.27000e-14
  70
    32
  0
VERTEX
  8
0
  5
2681
 10
97.5990
 20
57.1537
 30
-1.27000e-14
  70
    32
  0
VERTEX
  8
0
  5
2682
 10
97.5865
 20
57.1534
 30
-1.27000e-14
  70
    32
  0
VERTEX
  8
0
  5
2683
 10
97.5740
 20
57.1530
 30
-1.27000e-14
  70
    32
  0
VERTEX
  8
0
  5
2684
 10
97.5616
 20
57.1527
 30
-1.27000e-14
  70
    32
  0
VERTEX
  8
0
  5
2685
 10
97.5491
 20
57.1524
 30
-1.27000e-14
  70
    32
  0
VERTEX
  8
0
  5
2686
 10
97.5366
 20
57.1522
 30
-1.27000e-14
  70
    32
  0
VERTEX
  8
0
  5
2687
 10
97.5242
 20
57.1519
 30
-1.27000e-14
  70
    32
  0
VERTEX
  8
0
  5
2688
 10
97.5118
 20
57.1517
 30
-1.27000e-14
  70
    32
  0
VERTEX
  8
0
  5
2689
 10
97.4993
 20
57.1514
 30
-1.27000e-14
  70
    32
  0
VERTEX
  8
0
  5
268A
 10
97.4869
 20
57.1512
 30
-1.27000e-14
  70
    32
  0
VERTEX
  8
0
  5
268B
 10
97.4745
 20
57.1511
 30
-1.27000e-14
  70
    32
  0
VERTEX
  8
0
  5
268C
 10
97.4621
 20
57.1509
 30
-1.27000e-14
  70
    32
  0
VERTEX
  8
0
  5
268D
 10
97.4496
 20
57.1508
 30
-1.27000e-14
  70
    32
  0
VERTEX
  8
0
  5
268E
 10
97.4372
 20
57.1506
 30
-1.27000e-14
  70
    32
  0
VERTEX
  8
0
  5
268F
 10
97.4248
 20
57.1505
 30
-1.27000e-14
  70
    32
  0
VERTEX
  8
0
  5
2690
 10
97.4125
 20
57.1505
 30
-1.27000e-14
  70
    32
  0
VERTEX
  8
0
  5
2691
 10
97.4001
 20
57.1504
 30
-1.27000e-14
  70
    32
  0
VERTEX
  8
0
  5
2692
 10
97.3877
 20
57.1504
 30
-1.27000e-14
  70
    32
  0
VERTEX
  8
0
  5
2693
 10
97.3753
 20
57.1503
 30
-1.27000e-14
  70
    32
  0
VERTEX
  8
0
  5
2694
 10
97.3630
 20
57.1503
 30
-1.27000e-14
  70
    32
  0
VERTEX
  8
0
  5
2695
 10
97.3506
 20
57.1504
 30
-1.27000e-14
  70
    32
  0
VERTEX
  8
0
  5
2696
 10
97.3382
 20
57.1504
 30
-1.27000e-14
  70
    32
  0
VERTEX
  8
0
  5
2697
 10
97.3258
 20
57.1505
 30
-1.27000e-14
  70
    32
  0
VERTEX
  8
0
  5
2698
 10
97.3134
 20
57.1505
 30
-1.27000e-14
  70
    32
  0
VERTEX
  8
0
  5
2699
 10
97.3010
 20
57.1506
 30
-1.27000e-14
  70
    32
  0
VERTEX
  8
0
  5
269A
 10
97.2886
 20
57.1508
 30
-1.27000e-14
  70
    32
  0
VERTEX
  8
0
  5
269B
 10
97.2762
 20
57.1509
 30
-1.27000e-14
  70
    32
  0
VERTEX
  8
0
  5
269C
 10
97.2638
 20
57.1511
 30
-1.27000e-14
  70
    32
  0
VERTEX
  8
0
  5
269D
 10
97.2514
 20
57.1512
 30
-1.27000e-14
  70
    32
  0
VERTEX
  8
0
  5
269E
 10
97.2390
 20
57.1514
 30
-1.27000e-14
  70
    32
  0
VERTEX
  8
0
  5
269F
 10
97.2265
 20
57.1517
 30
-1.27000e-14
  70
    32
  0
VERTEX
  8
0
  5
26A0
 10
97.2141
 20
57.1519
 30
-1.27000e-14
  70
    32
  0
VERTEX
  8
0
  5
26A1
 10
97.2016
 20
57.1522
 30
-1.27000e-14
  70
    32
  0
VERTEX
  8
0
  5
26A2
 10
97.1892
 20
57.1524
 30
-1.27000e-14
  70
    32
  0
VERTEX
  8
0
  5
26A3
 10
97.1767
 20
57.1527
 30
-1.27000e-14
  70
    32
  0
VERTEX
  8
0
  5
26A4
 10
97.1643
 20
57.1530
 30
-1.27000e-14
  70
    32
  0
VERTEX
  8
0
  5
26A5
 10
97.1518
 20
57.1534
 30
-1.27000e-14
  70
    32
  0
VERTEX
  8
0
  5
26A6
 10
97.1393
 20
57.1537
 30
-1.27000e-14
  70
    32
  0
VERTEX
  8
0
  5
26A7
 10
97.1268
 20
57.1541
 30
-1.27000e-14
  70
    32
  0
VERTEX
  8
0
  5
26A8
 10
97.1143
 20
57.1545
 30
-1.27000e-14
  70
    32
  0
VERTEX
  8
0
  5
26A9
 10
97.1018
 20
57.1549
 30
-1.27000e-14
  70
    32
  0
VERTEX
  8
0
  5
26AA
 10
97.0894
 20
57.1554
 30
-1.27000e-14
  70
    32
  0
VERTEX
  8
0
  5
26AB
 10
97.0768
 20
57.1558
 30
-1.27000e-14
  70
    32
  0
VERTEX
  8
0
  5
26AC
 10
97.0643
 20
57.1563
 30
-1.27000e-14
  70
    32
  0
VERTEX
  8
0
  5
26AD
 10
97.0518
 20
57.1568
 30
-1.27000e-14
  70
    32
  0
VERTEX
  8
0
  5
26AE
 10
97.0393
 20
57.1573
 30
-1.27000e-14
  70
    32
  0
VERTEX
  8
0
  5
26AF
 10
97.0268
 20
57.1579
 30
-1.27000e-14
  70
    32
  0
VERTEX
  8
0
  5
26B0
 10
97.0143
 20
57.1584
 30
-1.27000e-14
  70
    32
  0
VERTEX
  8
0
  5
26B1
 10
97.0017
 20
57.1590
 30
-1.27000e-14
  70
    32
  0
VERTEX
  8
0
  5
26B2
 10
96.9892
 20
57.1596
 30
-1.27000e-14
  70
    32
  0
VERTEX
  8
0
  5
26B3
 10
96.9767
 20
57.1602
 30
-1.27000e-14
  70
    32
  0
VERTEX
  8
0
  5
26B4
 10
96.9641
 20
57.1609
 30
-1.27000e-14
  70
    32
  0
VERTEX
  8
0
  5
26B5
 10
96.9516
 20
57.1615
 30
-1.27000e-14
  70
    32
  0
VERTEX
  8
0
  5
26B6
 10
96.9390
 20
57.1622
 30
-1.27000e-14
  70
    32
  0
VERTEX
  8
0
  5
26B7
 10
96.9265
 20
57.1629
 30
-1.27000e-14
  70
    32
  0
VERTEX
  8
0
  5
26B8
 10
96.9139
 20
57.1636
 30
-1.27000e-14
  70
    32
  0
VERTEX
  8
0
  5
26B9
 10
96.9013
 20
57.1643
 30
-1.27000e-14
  70
    32
  0
VERTEX
  8
0
  5
26BA
 10
96.8888
 20
57.1651
 30
-1.27000e-14
  70
    32
  0
VERTEX
  8
0
  5
26BB
 10
96.8762
 20
57.1659
 30
-1.27000e-14
  70
    32
  0
VERTEX
  8
0
  5
26BC
 10
96.8636
 20
57.1667
 30
-1.27000e-14
  70
    32
  0
VERTEX
  8
0
  5
26BD
 10
96.8511
 20
57.1675
 30
-1.27000e-14
  70
    32
  0
VERTEX
  8
0
  5
26BE
 10
96.8385
 20
57.1683
 30
-1.27000e-14
  70
    32
  0
VERTEX
  8
0
  5
26BF
 10
96.8259
 20
57.1692
 30
-1.27000e-14
  70
    32
  0
VERTEX
  8
0
  5
26C0
 10
96.8133
 20
57.1701
 30
-1.27000e-14
  70
    32
  0
VERTEX
  8
0
  5
26C1
 10
96.8007
 20
57.1710
 30
-1.27000e-14
  70
    32
  0
VERTEX
  8
0
  5
26C2
 10
96.7881
 20
57.1719
 30
-1.27000e-14
  70
    32
  0
VERTEX
  8
0
  5
26C3
 10
96.7755
 20
57.1728
 30
-1.27000e-14
  70
    32
  0
VERTEX
  8
0
  5
26C4
 10
96.7629
 20
57.1738
 30
-1.27000e-14
  70
    32
  0
VERTEX
  8
0
  5
26C5
 10
96.7503
 20
57.1748
 30
-1.27000e-14
  70
    32
  0
VERTEX
  8
0
  5
26C6
 10
96.7377
 20
57.1758
 30
-1.27000e-14
  70
    32
  0
VERTEX
  8
0
  5
26C7
 10
96.7251
 20
57.1768
 30
-1.27000e-14
  70
    32
  0
VERTEX
  8
0
  5
26C8
 10
96.7125
 20
57.1779
 30
-1.27000e-14
  70
    32
  0
VERTEX
  8
0
  5
26C9
 10
96.6999
 20
57.1789
 30
-1.27000e-14
  70
    32
  0
VERTEX
  8
0
  5
26CA
 10
96.6873
 20
57.1800
 30
-1.27000e-14
  70
    32
  0
VERTEX
  8
0
  5
26CB
 10
96.6747
 20
57.1811
 30
-1.27000e-14
  70
    32
  0
VERTEX
  8
0
  5
26CC
 10
96.6620
 20
57.1822
 30
-1.27000e-14
  70
    32
  0
VERTEX
  8
0
  5
26CD
 10
96.6494
 20
57.1834
 30
-1.27000e-14
  70
    32
  0
VERTEX
  8
0
  5
26CE
 10
96.6368
 20
57.1845
 30
-1.27000e-14
  70
    32
  0
VERTEX
  8
0
  5
26CF
 10
96.6242
 20
57.1857
 30
-1.27000e-14
  70
    32
  0
VERTEX
  8
0
  5
26D0
 10
96.6115
 20
57.1869
 30
-1.27000e-14
  70
    32
  0
VERTEX
  8
0
  5
26D1
 10
96.5989
 20
57.1881
 30
-1.27000e-14
  70
    32
  0
VERTEX
  8
0
  5
26D2
 10
96.5863
 20
57.1894
 30
-1.27000e-14
  70
    32
  0
VERTEX
  8
0
  5
26D3
 10
96.5736
 20
57.1907
 30
-1.27000e-14
  70
    32
  0
VERTEX
  8
0
  5
26D4
 10
96.5610
 20
57.1919
 30
-1.27000e-14
  70
    32
  0
VERTEX
  8
0
  5
26D5
 10
96.5484
 20
57.1933
 30
-1.27000e-14
  70
    32
  0
VERTEX
  8
0
  5
26D6
 10
96.5357
 20
57.1946
 30
-1.27000e-14
  70
    32
  0
VERTEX
  8
0
  5
26D7
 10
96.5231
 20
57.1959
 30
-1.27000e-14
  70
    32
  0
VERTEX
  8
0
  5
26D8
 10
96.5105
 20
57.1973
 30
-1.27000e-14
  70
    32
  0
VERTEX
  8
0
  5
26D9
 10
96.4978
 20
57.1987
 30
-1.27000e-14
  70
    32
  0
VERTEX
  8
0
  5
26DA
 10
96.4852
 20
57.2001
 30
-1.27000e-14
  70
    32
  0
VERTEX
  8
0
  5
26DB
 10
96.4726
 20
57.2015
 30
-1.27000e-14
  70
    32
  0
VERTEX
  8
0
  5
26DC
 10
96.4599
 20
57.2030
 30
-1.27000e-14
  70
    32
  0
VERTEX
  8
0
  5
26DD
 10
96.4473
 20
57.2045
 30
-1.27000e-14
  70
    32
  0
VERTEX
  8
0
  5
26DE
 10
96.4346
 20
57.2059
 30
-1.27000e-14
  70
    32
  0
VERTEX
  8
0
  5
26DF
 10
96.4220
 20
57.2075
 30
-1.27000e-14
  70
    32
  0
VERTEX
  8
0
  5
26E0
 10
96.4093
 20
57.2090
 30
-1.27000e-14
  70
    32
  0
VERTEX
  8
0
  5
26E1
 10
96.3967
 20
57.2105
 30
-1.27000e-14
  70
    32
  0
VERTEX
  8
0
  5
26E2
 10
96.3841
 20
57.2121
 30
-1.27000e-14
  70
    32
  0
VERTEX
  8
0
  5
26E3
 10
96.3714
 20
57.2137
 30
-1.27000e-14
  70
    32
  0
VERTEX
  8
0
  5
26E4
 10
96.3588
 20
57.2153
 30
-1.27000e-14
  70
    32
  0
VERTEX
  8
0
  5
26E5
 10
96.3461
 20
57.2170
 30
-1.27000e-14
  70
    32
  0
VERTEX
  8
0
  5
26E6
 10
96.3335
 20
57.2186
 30
-1.27000e-14
  70
    32
  0
VERTEX
  8
0
  5
26E7
 10
96.3208
 20
57.2203
 30
-1.27000e-14
  70
    32
  0
VERTEX
  8
0
  5
26E8
 10
96.3082
 20
57.2220
 30
-1.27000e-14
  70
    32
  0
VERTEX
  8
0
  5
26E9
 10
96.2955
 20
57.2237
 30
-1.27000e-14
  70
    32
  0
VERTEX
  8
0
  5
26EA
 10
96.2829
 20
57.2254
 30
-1.27000e-14
  70
    32
  0
VERTEX
  8
0
  5
26EB
 10
96.2703
 20
57.2272
 30
-1.27000e-14
  70
    32
  0
VERTEX
  8
0
  5
26EC
 10
96.2576
 20
57.2290
 30
-1.27000e-14
  70
    32
  0
VERTEX
  8
0
  5
26ED
 10
96.2450
 20
57.2308
 30
-1.27000e-14
  70
    32
  0
VERTEX
  8
0
  5
26EE
 10
96.2323
 20
57.2326
 30
-1.27000e-14
  70
    32
  0
VERTEX
  8
0
  5
26EF
 10
96.2197
 20
57.2345
 30
-1.27000e-14
  70
    32
  0
VERTEX
  8
0
  5
26F0
 10
96.2071
 20
57.2363
 30
-1.27000e-14
  70
    32
  0
VERTEX
  8
0
  5
26F1
 10
96.1944
 20
57.2382
 30
-1.27000e-14
  70
    32
  0
VERTEX
  8
0
  5
26F2
 10
96.1818
 20
57.2401
 30
-1.27000e-14
  70
    32
  0
VERTEX
  8
0
  5
26F3
 10
96.1692
 20
57.2420
 30
-1.27000e-14
  70
    32
  0
VERTEX
  8
0
  5
26F4
 10
96.1565
 20
57.2440
 30
-1.27000e-14
  70
    32
  0
VERTEX
  8
0
  5
26F5
 10
96.1439
 20
57.2459
 30
-1.27000e-14
  70
    32
  0
VERTEX
  8
0
  5
26F6
 10
96.1313
 20
57.2479
 30
-1.27000e-14
  70
    32
  0
VERTEX
  8
0
  5
26F7
 10
96.1186
 20
57.2499
 30
-1.27000e-14
  70
    32
  0
VERTEX
  8
0
  5
26F8
 10
96.1060
 20
57.2520
 30
-1.27000e-14
  70
    32
  0
VERTEX
  8
0
  5
26F9
 10
96.0934
 20
57.2540
 30
-1.27000e-14
  70
    32
  0
VERTEX
  8
0
  5
26FA
 10
96.0808
 20
57.2561
 30
-1.27000e-14
  70
    32
  0
VERTEX
  8
0
  5
26FB
 10
96.0682
 20
57.2582
 30
-1.27001e-14
  70
    32
  0
VERTEX
  8
0
  5
26FC
 10
96.0555
 20
57.2603
 30
-1.27003e-14
  70
    32
  0
VERTEX
  8
0
  5
26FD
 10
96.0429
 20
57.2624
 30
-1.27005e-14
  70
    32
  0
VERTEX
  8
0
  5
26FE
 10
96.0303
 20
57.2646
 30
-1.27007e-14
  70
    32
  0
VERTEX
  8
0
  5
26FF
 10
96.0177
 20
57.2668
 30
-1.27010e-14
  70
    32
  0
VERTEX
  8
0
  5
2700
 10
96.0051
 20
57.2689
 30
-1.27014e-14
  70
    32
  0
VERTEX
  8
0
  5
2701
 10
95.9925
 20
57.2712
 30
-1.27018e-14
  70
    32
  0
VERTEX
  8
0
  5
2702
 10
95.9799
 20
57.2734
 30
-1.27023e-14
  70
    32
  0
VERTEX
  8
0
  5
2703
 10
95.9673
 20
57.2757
 30
-1.27028e-14
  70
    32
  0
VERTEX
  8
0
  5
2704
 10
95.9547
 20
57.2779
 30
-1.27033e-14
  70
    32
  0
VERTEX
  8
0
  5
2705
 10
95.9421
 20
57.2802
 30
-1.27039e-14
  70
    32
  0
VERTEX
  8
0
  5
2706
 10
95.9295
 20
57.2825
 30
-1.27046e-14
  70
    32
  0
VERTEX
  8
0
  5
2707
 10
95.9169
 20
57.2849
 30
-1.27053e-14
  70
    32
  0
VERTEX
  8
0
  5
2708
 10
95.9043
 20
57.2872
 30
-1.27060e-14
  70
    32
  0
VERTEX
  8
0
  5
2709
 10
95.8917
 20
57.2896
 30
-1.27068e-14
  70
    32
  0
VERTEX
  8
0
  5
270A
 10
95.8791
 20
57.2920
 30
-1.27076e-14
  70
    32
  0
VERTEX
  8
0
  5
270B
 10
95.8666
 20
57.2944
 30
-1.27084e-14
  70
    32
  0
VERTEX
  8
0
  5
270C
 10
95.8540
 20
57.2969
 30
-1.27093e-14
  70
    32
  0
VERTEX
  8
0
  5
270D
 10
95.8414
 20
57.2993
 30
-1.27102e-14
  70
    32
  0
VERTEX
  8
0
  5
270E
 10
95.8288
 20
57.3018
 30
-1.27112e-14
  70
    32
  0
VERTEX
  8
0
  5
270F
 10
95.8163
 20
57.3043
 30
-1.27122e-14
  70
    32
  0
VERTEX
  8
0
  5
2710
 10
95.8037
 20
57.3068
 30
-1.27132e-14
  70
    32
  0
VERTEX
  8
0
  5
2711
 10
95.7912
 20
57.3094
 30
-1.27143e-14
  70
    32
  0
VERTEX
  8
0
  5
2712
 10
95.7786
 20
57.3119
 30
-1.27154e-14
  70
    32
  0
VERTEX
  8
0
  5
2713
 10
95.7661
 20
57.3145
 30
-1.27165e-14
  70
    32
  0
VERTEX
  8
0
  5
2714
 10
95.7535
 20
57.3171
 30
-1.27176e-14
  70
    32
  0
VERTEX
  8
0
  5
2715
 10
95.7410
 20
57.3197
 30
-1.27188e-14
  70
    32
  0
VERTEX
  8
0
  5
2716
 10
95.7284
 20
57.3224
 30
-1.27200e-14
  70
    32
  0
VERTEX
  8
0
  5
2717
 10
95.7159
 20
57.3250
 30
-1.27212e-14
  70
    32
  0
VERTEX
  8
0
  5
2718
 10
95.7034
 20
57.3277
 30
-1.27225e-14
  70
    32
  0
VERTEX
  8
0
  5
2719
 10
95.6909
 20
57.3304
 30
-1.27237e-14
  70
    32
  0
VERTEX
  8
0
  5
271A
 10
95.6783
 20
57.3331
 30
-1.27250e-14
  70
    32
  0
VERTEX
  8
0
  5
271B
 10
95.6658
 20
57.3359
 30
-1.27263e-14
  70
    32
  0
VERTEX
  8
0
  5
271C
 10
95.6533
 20
57.3386
 30
-1.27277e-14
  70
    32
  0
VERTEX
  8
0
  5
271D
 10
95.6408
 20
57.3414
 30
-1.27290e-14
  70
    32
  0
VERTEX
  8
0
  5
271E
 10
95.6283
 20
57.3442
 30
-1.27304e-14
  70
    32
  0
VERTEX
  8
0
  5
271F
 10
95.6158
 20
57.3470
 30
-1.27318e-14
  70
    32
  0
VERTEX
  8
0
  5
2720
 10
95.6033
 20
57.3499
 30
-1.27332e-14
  70
    32
  0
VERTEX
  8
0
  5
2721
 10
95.5908
 20
57.3527
 30
-1.27346e-14
  70
    32
  0
VERTEX
  8
0
  5
2722
 10
95.5783
 20
57.3556
 30
-1.27360e-14
  70
    32
  0
VERTEX
  8
0
  5
2723
 10
95.5659
 20
57.3585
 30
-1.27374e-14
  70
    32
  0
VERTEX
  8
0
  5
2724
 10
95.5534
 20
57.3614
 30
-1.27389e-14
  70
    32
  0
VERTEX
  8
0
  5
2725
 10
95.5409
 20
57.3643
 30
-1.27403e-14
  70
    32
  0
VERTEX
  8
0
  5
2726
 10
95.5284
 20
57.3673
 30
-1.27418e-14
  70
    32
  0
VERTEX
  8
0
  5
2727
 10
95.5160
 20
57.3703
 30
-1.27432e-14
  70
    32
  0
VERTEX
  8
0
  5
2728
 10
95.5035
 20
57.3733
 30
-1.27447e-14
  70
    32
  0
VERTEX
  8
0
  5
2729
 10
95.4911
 20
57.3763
 30
-1.27462e-14
  70
    32
  0
VERTEX
  8
0
  5
272A
 10
95.4787
 20
57.3793
 30
-1.27476e-14
  70
    32
  0
VERTEX
  8
0
  5
272B
 10
95.4662
 20
57.3823
 30
-1.27491e-14
  70
    32
  0
VERTEX
  8
0
  5
272C
 10
95.4538
 20
57.3854
 30
-1.27506e-14
  70
    32
  0
VERTEX
  8
0
  5
272D
 10
95.4414
 20
57.3885
 30
-1.27521e-14
  70
    32
  0
VERTEX
  8
0
  5
272E
 10
95.4289
 20
57.3916
 30
-1.27536e-14
  70
    32
  0
VERTEX
  8
0
  5
272F
 10
95.4165
 20
57.3947
 30
-1.27550e-14
  70
    32
  0
VERTEX
  8
0
  5
2730
 10
95.4041
 20
57.3979
 30
-1.27565e-14
  70
    32
  0
VERTEX
  8
0
  5
2731
 10
95.3917
 20
57.4010
 30
-1.27580e-14
  70
    32
  0
VERTEX
  8
0
  5
2732
 10
95.3793
 20
57.4042
 30
-1.27594e-14
  70
    32
  0
VERTEX
  8
0
  5
2733
 10
95.3670
 20
57.4074
 30
-1.27609e-14
  70
    32
  0
VERTEX
  8
0
  5
2734
 10
95.3546
 20
57.4107
 30
-1.27623e-14
  70
    32
  0
VERTEX
  8
0
  5
2735
 10
95.3422
 20
57.4139
 30
-1.27638e-14
  70
    32
  0
VERTEX
  8
0
  5
2736
 10
95.3298
 20
57.4172
 30
-1.27652e-14
  70
    32
  0
VERTEX
  8
0
  5
2737
 10
95.3175
 20
57.4204
 30
-1.27666e-14
  70
    32
  0
VERTEX
  8
0
  5
2738
 10
95.3051
 20
57.4237
 30
-1.27680e-14
  70
    32
  0
VERTEX
  8
0
  5
2739
 10
95.2928
 20
57.4270
 30
-1.27694e-14
  70
    32
  0
VERTEX
  8
0
  5
273A
 10
95.2804
 20
57.4304
 30
-1.27707e-14
  70
    32
  0
VERTEX
  8
0
  5
273B
 10
95.2681
 20
57.4337
 30
-1.27721e-14
  70
    32
  0
VERTEX
  8
0
  5
273C
 10
95.2558
 20
57.4371
 30
-1.27734e-14
  70
    32
  0
VERTEX
  8
0
  5
273D
 10
95.2434
 20
57.4405
 30
-1.27747e-14
  70
    32
  0
VERTEX
  8
0
  5
273E
 10
95.2311
 20
57.4439
 30
-1.27760e-14
  70
    32
  0
VERTEX
  8
0
  5
273F
 10
95.2188
 20
57.4473
 30
-1.27773e-14
  70
    32
  0
VERTEX
  8
0
  5
2740
 10
95.2065
 20
57.4508
 30
-1.27786e-14
  70
    32
  0
VERTEX
  8
0
  5
2741
 10
95.1942
 20
57.4542
 30
-1.27798e-14
  70
    32
  0
VERTEX
  8
0
  5
2742
 10
95.1819
 20
57.4577
 30
-1.27810e-14
  70
    32
  0
VERTEX
  8
0
  5
2743
 10
95.1697
 20
57.4612
 30
-1.27822e-14
  70
    32
  0
VERTEX
  8
0
  5
2744
 10
95.1574
 20
57.4648
 30
-1.27833e-14
  70
    32
  0
VERTEX
  8
0
  5
2745
 10
95.1451
 20
57.4683
 30
-1.27844e-14
  70
    32
  0
VERTEX
  8
0
  5
2746
 10
95.1329
 20
57.4718
 30
-1.27855e-14
  70
    32
  0
VERTEX
  8
0
  5
2747
 10
95.1206
 20
57.4754
 30
-1.27866e-14
  70
    32
  0
VERTEX
  8
0
  5
2748
 10
95.1084
 20
57.4790
 30
-1.27876e-14
  70
    32
  0
VERTEX
  8
0
  5
2749
 10
95.0962
 20
57.4826
 30
-1.27886e-14
  70
    32
  0
VERTEX
  8
0
  5
274A
 10
95.0840
 20
57.4863
 30
-1.27896e-14
  70
    32
  0
VERTEX
  8
0
  5
274B
 10
95.0717
 20
57.4899
 30
-1.27905e-14
  70
    32
  0
VERTEX
  8
0
  5
274C
 10
95.0595
 20
57.4936
 30
-1.27914e-14
  70
    32
  0
VERTEX
  8
0
  5
274D
 10
95.0473
 20
57.4973
 30
-1.27923e-14
  70
    32
  0
VERTEX
  8
0
  5
274E
 10
95.0351
 20
57.5010
 30
-1.27931e-14
  70
    32
  0
VERTEX
  8
0
  5
274F
 10
95.0230
 20
57.5047
 30
-1.27939e-14
  70
    32
  0
VERTEX
  8
0
  5
2750
 10
95.0108
 20
57.5084
 30
-1.27946e-14
  70
    32
  0
VERTEX
  8
0
  5
2751
 10
94.9986
 20
57.5122
 30
-1.27953e-14
  70
    32
  0
VERTEX
  8
0
  5
2752
 10
94.9865
 20
57.5160
 30
-1.27959e-14
  70
    32
  0
VERTEX
  8
0
  5
2753
 10
94.9743
 20
57.5197
 30
-1.27966e-14
  70
    32
  0
VERTEX
  8
0
  5
2754
 10
94.9622
 20
57.5236
 30
-1.27971e-14
  70
    32
  0
VERTEX
  8
0
  5
2755
 10
94.9501
 20
57.5274
 30
-1.27976e-14
  70
    32
  0
VERTEX
  8
0
  5
2756
 10
94.9379
 20
57.5312
 30
-1.27981e-14
  70
    32
  0
VERTEX
  8
0
  5
2757
 10
94.9258
 20
57.5351
 30
-1.27985e-14
  70
    32
  0
VERTEX
  8
0
  5
2758
 10
94.9137
 20
57.5390
 30
-1.27989e-14
  70
    32
  0
VERTEX
  8
0
  5
2759
 10
94.9016
 20
57.5429
 30
-1.27992e-14
  70
    32
  0
VERTEX
  8
0
  5
275A
 10
94.8896
 20
57.5468
 30
-1.27995e-14
  70
    32
  0
VERTEX
  8
0
  5
275B
 10
94.8775
 20
57.5507
 30
-1.27997e-14
  70
    32
  0
VERTEX
  8
0
  5
275C
 10
94.8654
 20
57.5547
 30
-1.27998e-14
  70
    32
  0
VERTEX
  8
0
  5
275D
 10
94.8534
 20
57.5587
 30
-1.28000e-14
  70
    32
  0
VERTEX
  8
0
  5
275E
 10
94.8413
 20
57.5626
 30
-1.28000e-14
  70
    32
  0
VERTEX
  8
0
  5
275F
 10
94.8293
 20
57.5666
 30
-1.28000e-14
  70
    32
  0
VERTEX
  8
0
  5
2760
 10
94.8173
 20
57.5707
 30
-1.28000e-14
  70
    32
  0
VERTEX
  8
0
  5
2761
 10
94.8052
 20
57.5747
 30
-1.28000e-14
  70
    32
  0
VERTEX
  8
0
  5
2762
 10
94.7932
 20
57.5788
 30
-1.28000e-14
  70
    32
  0
VERTEX
  8
0
  5
2763
 10
94.7812
 20
57.5828
 30
-1.28000e-14
  70
    32
  0
VERTEX
  8
0
  5
2764
 10
94.7692
 20
57.5869
 30
-1.28000e-14
  70
    32
  0
VERTEX
  8
0
  5
2765
 10
94.7573
 20
57.5910
 30
-1.28000e-14
  70
    32
  0
VERTEX
  8
0
  5
2766
 10
94.7453
 20
57.5952
 30
-1.28000e-14
  70
    32
  0
VERTEX
  8
0
  5
2767
 10
94.7333
 20
57.5993
 30
-1.28000e-14
  70
    32
  0
VERTEX
  8
0
  5
2768
 10
94.7214
 20
57.6035
 30
-1.28000e-14
  70
    32
  0
VERTEX
  8
0
  5
2769
 10
94.7094
 20
57.6077
 30
-1.28000e-14
  70
    32
  0
VERTEX
  8
0
  5
276A
 10
94.6975
 20
57.6118
 30
-1.28000e-14
  70
    32
  0
VERTEX
  8
0
  5
276B
 10
94.6856
 20
57.6161
 30
-1.28000e-14
  70
    32
  0
VERTEX
  8
0
  5
276C
 10
94.6737
 20
57.6203
 30
-1.28000e-14
  70
    32
  0
VERTEX
  8
0
  5
276D
 10
94.6618
 20
57.6245
 30
-1.28000e-14
  70
    32
  0
VERTEX
  8
0
  5
276E
 10
94.6499
 20
57.6288
 30
-1.28000e-14
  70
    32
  0
VERTEX
  8
0
  5
276F
 10
94.6380
 20
57.6331
 30
-1.28000e-14
  70
    32
  0
VERTEX
  8
0
  5
2770
 10
94.6261
 20
57.6374
 30
-1.28000e-14
  70
    32
  0
VERTEX
  8
0
  5
2771
 10
94.6143
 20
57.6417
 30
-1.28000e-14
  70
    32
  0
VERTEX
  8
0
  5
2772
 10
94.6024
 20
57.6460
 30
-1.28000e-14
  70
    32
  0
VERTEX
  8
0
  5
2773
 10
94.5906
 20
57.6503
 30
-1.28000e-14
  70
    32
  0
SEQEND
  8
0
  5
2774
  0
LINE
  5
1FA2
  8
0
 10
36.369136936592561
 20
54.6503471930875691
 30
-0.0000000000000121
 11
158.369136936592497
 21
54.6503471930876827
 31
-0.0000000000000121
210
0.0
220
1.0
230
-0.0000000000000002
  0
LINE
  5
1FA3
  8
0
 10
4.869136936592553
 20
72.6503471930874838
 30
-0.0000000000000161
 11
189.869136936592497
 21
72.6503471930877112
 31
-0.0000000000000161
210
0.0
220
1.0
230
-0.0000000000000002
  0
ARC
  5
1FA4
  8
0
 10
-57.319136936592578
 20
90.0792577934373639
 30
0.0
 40
1.999999999999964
210
0.0
220
-0.0000000000000002
230
-1.0
 50
179.9999999999996021
 51
204.2080934587800982
  0
ARC
  5
1FA5
  8
0
 10
-137.4191369365927926
 20
90.0792577934375203
 30
0.0
 40
2.0000000000002851
210
0.0
220
-0.0000000000000002
230
-1.0
 50
335.7919065412212944
 51
359.9999999999976126
  0
LINE
  5
1FA6
  8
0
 10
135.4191369365925084
 20
99.6503471930875833
 30
-0.0000000000000221
 11
135.4191369365925084
 21
90.079257793437435
 31
-0.00000000000002
210
0.0
220
1.0
230
-0.0000000000000002
  0
LINE
  5
1FA7
  8
0
 10
59.3191369365925425
 20
99.650347193087498
 30
-0.0000000000000221
 11
59.3191369365925496
 21
90.0792577934373782
 31
-0.00000000000002
210
0.0
220
1.0
230
-0.0000000000000002
  0
LINE
  5
1FA8
  8
0
 10
135.5950125318566108
 20
89.259154046313455
 30
-0.0000000000000198
 11
141.1149316903473903
 21
76.9814156693299054
 31
-0.0000000000000171
210
0.0
220
1.0
230
-0.0000000000000002
  0
LINE
  5
1FA9
  8
0
 10
59.1432613413284827
 20
89.2591540463133839
 30
-0.0000000000000198
 11
53.6233421828377104
 21
76.9814156693298202
 31
-0.0000000000000171
210
0.0
220
1.0
230
-0.0000000000000002
  0
LINE
  5
1FAA
  8
0
 10
36.3691369365925183
 20
54.6503471930875691
 30
-0.0000000000000121
 11
33.8691369365924686
 21
57.1503471930876188
 31
-0.0000000000000127
210
0.0
220
1.0
230
-0.0000000000000002
  0
LINE
  5
1FAB
  8
0
 10
158.369136936592497
 20
54.6503471930876685
 30
-0.0000000000000121
 11
160.869136936592696
 21
57.1503471930878604
 31
-0.0000000000000127
210
0.0
220
1.0
230
-0.0000000000000002
  0
ARC
  5
1FAC
  8
0
 10
-47.8601254101483704
 20
78.6503471930875406
 30
0.0
 40
5.9999999999999947
210
0.0
220
-0.0000000000000002
230
-1.0
 50
196.1501353081092986
 51
270.0000000000002274
  0
ARC
  5
1FAD
  8
0
 10
-146.8781484630366947
 20
78.6503471930875833
 30
0.0
 40
5.9999999999999707
210
0.0
220
-0.0000000000000002
230
-1.0
 50
270.0
 51
343.8498646918918098
  0
LINE
  5
1FAE
  8
0
 10
189.869136936592497
 20
72.6503471930877396
 30
-0.0000000000000161
 11
189.869136936592497
 21
57.6503471930877396
 31
-0.0000000000000128
210
0.0
220
1.0
230
-0.0000000000000002
  0
LINE
  5
1FAF
  8
0
 10
4.8691369365925183
 20
72.6503471930875406
 30
-0.0000000000000161
 11
4.8691369365925317
 21
57.6503471930875406
 31
-0.0000000000000128
210
0.0
220
1.0
230
-0.0000000000000002
  0
LINE
  5
1FB0
  8
0
  6
VERDECKT
 62
     1
 10
59.054325037325782
 20
168.9752161590299977
 30
-0.0000000000000375
 11
135.6839488358592973
 21
168.9752161590299977
 31
-0.0000000000000375
210
0.0
220
1.0
230
-0.0000000000000002
  0
LINE
  5
1FB1
  8
0
  6
VERDECKT
 62
     1
 10
132.269136936592588
 20
109.3437475285191027
 30
-0.0000000000000243
 11
132.269136936592588
 21
99.6503471930875833
 31
-0.0000000000000221
210
0.0
220
1.0
230
-0.0000000000000002
  0
LINE
  5
1FB2
  8
0
  6
VERDECKT
 62
     1
 10
62.4691369365925127
 20
109.3437475285190033
 30
-0.0000000000000243
 11
62.4691369365925198
 21
99.650347193087498
 31
-0.0000000000000221
210
0.0
220
1.0
230
-0.0000000000000002
  0
ARC
  5
1FB3
  8
0
  6
VERDECKT
 62
     1
 10
-52.8691369365944581
 20
109.3437475285196001
 30
0.0
 40
9.5999999999980652
210
0.0
220
-0.0000000000000002
230
-1.0
 50
147.6719358778373135
 51
180.0000000000034959
  0
ARC
  5
1FB4
  8
0
  6
VERDECKT
 62
     1
 10
-141.8691369365907065
 20
109.3437475285196996
 30
0.0
 40
9.5999999999980901
210
0.0
220
-0.0000000000000002
230
-1.0
 50
359.9999999999964189
 51
32.3280641221624521
  0
ARC
  5
1FB5
  8
0
  6
VERDECKT
 62
     1
 10
-69.7691369365938243
 20
120.0390736105046017
 30
0.0
 40
10.4000000000011195
210
0.0
220
-0.0000000000000002
230
-1.0
 50
327.6719358778386777
 51
0.0
  0
ARC
  5
1FB6
  8
0
  6
VERDECKT
 62
     1
 10
-124.9691369365909992
 20
120.0390736105047012
 30
0.0
 40
10.4000000000014303
210
0.0
220
-0.0000000000000002
230
-1.0
 50
180.0000000000001137
 51
212.3280641221604981
  0
LINE
  5
1FB7
  8
0
  6
VERDECKT
 62
     1
 10
135.369136936592497
 20
136.6503471930876117
 30
-0.0000000000000303
 11
135.369136936592497
 21
120.0390736105047012
 31
-0.0000000000000267
210
0.0
220
1.0
230
-0.0000000000000002
  0
LINE
  5
1FB8
  8
0
  6
VERDECKT
 62
     1
 10
59.3691369365925965
 20
136.650347193087498
 30
-0.0000000000000303
 11
59.3691369365926178
 21
120.0390736105046017
 31
-0.0000000000000267
210
0.0
220
1.0
230
-0.0000000000000002
  0
ARC
  5
1FB9
  8
0
  6
VERDECKT
 62
     1
 10
-46.9054426965790086
 20
136.8628281469142962
 30
0.0
 40
12.4655052951850696
210
0.0
220
-0.0000000000000002
230
-1.0
 50
157.8401622549660885
 51
180.9766833519975933
  0
ARC
  5
1FBA
  8
0
  6
VERDECKT
 62
     1
 10
-147.8328311766063052
 20
136.8628281469144952
 30
0.0
 40
12.4655052951852596
210
0.0
220
-0.0000000000000002
230
-1.0
 50
359.0233166480020941
 51
22.1598377450329806
  0
ARC
  5
1FBB
  8
0
  6
VERDECKT
 62
     1
 10
-78.2304965541391368
 20
149.6207386059797102
 30
0.0
 40
21.3579078746972897
210
0.0
220
-0.0000000000000002
230
-1.0
 50
337.8401622549649801
 51
359.9791482129015776
  0
ARC
  5
1FBC
  8
0
  6
VERDECKT
 62
     1
 10
-116.5077773190459993
 20
149.6207386059799092
 30
0.0
 40
21.3579078746973003
210
0.0
220
-0.0000000000000002
230
-1.0
 50
180.0208517870985077
 51
202.1598377450351904
  0
LINE
  5
1FBD
  8
0
  6
VERDECKT
 62
     1
 10
56.8725900938345106
 20
149.6129657727653921
 30
-0.0000000000000332
 11
56.8691369365924899
 21
159.1014247859689874
 31
-0.0000000000000353
210
0.0
220
1.0
230
-0.0000000000000002
  0
LINE
  5
1FBE
  8
0
  6
VERDECKT
 62
     1
 10
137.8656837793504906
 20
149.6129657727655058
 30
-0.0000000000000332
 11
137.869136936592497
 21
159.1014247859691011
 31
-0.0000000000000353
210
0.0
220
1.0
230
-0.0000000000000002
  0
ARC
  5
1FBF
  8
0
  6
VERDECKT
 62
     1
 10
-79.3121757950258655
 20
159.3041618022610066
 30
0.0
 40
22.44395454234661
210
0.0
220
-0.0000000000000002
230
-1.0
 50
359.4824382068028967
 51
24.4406345191043002
  0
ARC
  5
1FC0
  8
0
  6
VERDECKT
 62
     1
 10
-115.4260980781593986
 20
159.3041618022612056
 30
0.0
 40
22.4439545423463294
210
0.0
220
-0.0000000000000002
230
-1.0
 50
155.5593654808957069
 51
180.5175617931973022
  0
LINE
  5
1FC1
  8
0
  6
VERDECKT
 62
     1
 10
135.6839488358592973
 20
168.9752161590299977
 30
-0.0000000000000375
 11
135.8588600795305865
 21
168.5903522210622043
 31
-0.0000000000000374
210
0.0
220
1.0
230
-0.0000000000000002
  0
LINE
  5
1FC2
  8
0
  6
VERDECKT
 62
     1
 10
59.054325037325782
 20
168.9752161590299977
 30
-0.0000000000000375
 11
58.8794137936544715
 21
168.5903522210622043
 31
-0.0000000000000374
210
0.0
220
1.0
230
-0.0000000000000002
  0
LINE
  5
1FC3
  8
0
  6
VERDECKT
 62
     1
 10
59.0543250373258033
 20
168.9752161590301114
 30
-0.0000000000000375
 11
57.6037396083160829
 21
169.6503471930855085
 31
-0.0000000000000377
210
0.0
220
1.0
230
-0.0000000000000002
  0
LINE
  5
1FC4
  8
0
  6
VERDECKT
 62
     1
 10
135.6839488358592121
 20
168.9752161590301114
 30
-0.0000000000000375
 11
137.1345342648689041
 21
169.6503471930855085
 31
-0.0000000000000377
210
0.0
220
1.0
230
-0.0000000000000002
  0
LINE
  5
1FC5
  8
0
  6
VERDECKT
 62
     1
 10
37.1038953005680696
 20
57.6503471930877325
 30
-0.0000000000000128
 11
37.1038953005680696
 21
72.6503471930877254
 31
-0.0000000000000161
210
0.0
220
1.0
230
-0.0000000000000002
  0
LINE
  5
1FC6
  8
0
  6
VERDECKT
 62
     1
 10
55.1038953005680696
 20
57.6503471930877467
 30
-0.0000000000000128
 11
55.1038953005680696
 21
72.6503471930877538
 31
-0.0000000000000161
210
0.0
220
1.0
230
-0.0000000000000002
  0
LINE
  5
1FC7
  8
0
  6
VERDECKT
 62
     1
 10
157.6343785726168107
 20
72.6503471930877538
 30
-0.0000000000000161
 11
157.6343785726168107
 21
57.6503471930877467
 31
-0.0000000000000128
210
0.0
220
1.0
230
-0.0000000000000002
  0
LINE
  5
1FC8
  8
0
  6
VERDECKT
 62
     1
 10
139.6343785726168107
 20
72.6503471930877254
 30
-0.0000000000000161
 11
139.6343785726168107
 21
57.6503471930877325
 31
-0.0000000000000128
210
0.0
220
1.0
230
-0.0000000000000002
  0
LINE
  5
1FC9
  8
0
  6
VERDECKT
 62
     1
 10
178.8691369365924118
 20
72.6503471930877538
 30
-0.0000000000000161
 11
178.8691369365924118
 21
57.6503471930877467
 31
-0.0000000000000128
210
0.0
220
1.0
230
-0.0000000000000002
  0
LINE
  5
1FCA
  8
0
  6
VERDECKT
 62
     1
 10
160.869136936592696
 20
72.6503471930876827
 30
-0.0000000000000161
 11
160.869136936592696
 21
57.1503471930878177
 31
-0.0000000000000127
210
0.0
220
1.0
230
-0.0000000000000002
  0
LINE
  5
1FCB
  8
0
  6
VERDECKT
 62
     1
 10
15.8691369365928505
 20
57.6503471930874483
 30
-0.0000000000000128
 11
15.8691369365928203
 21
72.6503471930874412
 31
-0.0000000000000161
210
0.0
220
1.0
230
-0.0000000000000002
  0
LINE
  5
1FCC
  8
0
  6
VERDECKT
 62
     1
 10
33.8691369365925112
 20
57.1503471930875975
 30
-0.0000000000000127
 11
33.8691369365924828
 21
72.6503471930875691
 31
-0.0000000000000161
210
0.0
220
1.0
230
-0.0000000000000002
  0
LINE
  5
1FCD
  8
0
  6
VERDECKT
 62
     1
 10
106.3691369365923975
 20
72.6503471930876401
 30
-0.0000000000000161
 11
106.3691369365923975
 21
57.650347193087633
 31
-0.0000000000000128
210
0.0
220
1.0
230
-0.0000000000000002
  0
LINE
  5
1FCE
  8
0
  6
VERDECKT
 62
     1
 10
88.3691369365927244
 20
72.6503471930876117
 30
-0.0000000000000161
 11
88.3691369365927244
 21
57.6503471930876117
 31
-0.0000000000000128
210
0.0
220
1.0
230
-0.0000000000000002
  0
LINE
  5
1FCF
  8
0
  6
VERDECKT
 62
     1
 10
132.5191369365925027
 20
99.6503471930875406
 30
-0.0000000000000221
 11
132.519136936592588
 21
54.6503471930876827
 31
-0.0000000000000121
210
0.0
220
1.0
230
-0.0000000000000002
  0
LINE
  5
1FD0
  8
0
  6
VERDECKT
 62
     1
 10
62.2191369365925269
 20
99.6503471930874554
 30
-0.0000000000000221
 11
62.2191369365925624
 21
54.6503471930875904
 31
-0.0000000000000121
210
0.0
220
1.0
230
-0.0000000000000002
  0
ENDBLK
  5
1FD2
  8
0
  0
ENDSEC
  0
SECTION
  2
ENTITIES
  0
TEXT
  5
8F
  8
VOLL
 10
78.076754716981128
 20
31.025947764705851
 30
0.0
 40
1.8
  1

  7
GREEKS
  0
INSERT
  5
B3C
  8
ADSK_ASSOC_ENTITY_BACKUPS
  2
*S2
 10
0.0
 20
0.0
 30
0.0
  0
INSERT
  5
1F86
  8
STEMPEL
  2
A$C8C0E7456
 10
258.0860500635416201
 20
-58.3760091060563369
 30
-37.4191524712326427
  0
INSERT
  5
1FD3
  8
STEMPEL
  2
A$CE2E5E81E
 10
258.0860500635416201
 20
-76.5113537352499975
 30
-37.4191524712325929
  0
VIEWPORT
  5
928
 67
     1
  8
0
 10
104.9325357368027056
 20
148.4488398705011889
 30
0.0
 40
533.9969448798291296
 41
299.1239570917758783
 68
     1
 69
     1
1001
ACAD
1000
MVIEW
1002
{
1070
    16
1010
0.0
1020
0.0
1030
0.0
1010
0.0
1020
0.0
1030
1.0
1040
0.0
1040
299.1239570917758783
1040
104.9325357368027056
1040
148.4488398705011889
1040
50.0
1040
0.0
1040
0.0
1070
     0
1070
  1500
1070
     1
1070
     1
1070
     0
1070
     0
1070
     0
1070
     0
1040
0.0
1040
0.0
1040
0.0
1040
10.0
1040
10.0
1040
10.0
1040
10.0
1070
     0
1002
{
1002
}
1002
}
  0
ENDSEC
  0
EOF
