  0
SECTION
  2
HEADER
  9
$ACADVER
  1
AC1009
  9
$INSBASE
 10
0.0
 20
0.0
 30
0.0
  9
$EXTMIN
 10
222.8539755492328993
 20
-222.7947804413610982
 30
-21.4413694495660501
  9
$EXTMAX
 10
372.8539755492329277
 20
37.1591247022795699
 30
-21.4413694495660287
  9
$LIMMIN
 10
0.0
 20
0.0
  9
$LIMMAX
 10
210.0
 20
297.0
  9
$ORTHOMODE
 70
     1
  9
$REGENMODE
 70
     1
  9
$FILLMODE
 70
     1
  9
$QTEXTMODE
 70
     0
  9
$MIRRTEXT
 70
     1
  9
$DRAGMODE
 70
     2
  9
$LTSCALE
 40
10.0
  9
$OSMODE
 70
  2495
  9
$ATTMODE
 70
     1
  9
$TEXTSIZE
 40
3.5
  9
$TRACEWID
 40
0.5
  9
$TEXTSTYLE
  7
STANDARD
  9
$CLAYER
  8
STEMPEL
  9
$CELTYPE
  6
BYLAYER
  9
$CECOLOR
 62
   256
  9
$DIMSCALE
 40
1.0
  9
$DIMASZ
 40
3.5
  9
$DIMEXO
 40
1.0
  9
$DIMDLI
 40
7.0
  9
$DIMRND
 40
0.0
  9
$DIMDLE
 40
0.0
  9
$DIMEXE
 40
1.0
  9
$DIMTP
 40
0.0
  9
$DIMTM
 40
0.0
  9
$DIMTXT
 40
3.5
  9
$DIMCEN
 40
1.5
  9
$DIMTSZ
 40
0.0
  9
$DIMTOL
 70
     0
  9
$DIMLIM
 70
     0
  9
$DIMTIH
 70
     0
  9
$DIMTOH
 70
     0
  9
$DIMSE1
 70
     0
  9
$DIMSE2
 70
     0
  9
$DIMTAD
 70
     1
  9
$DIMZIN
 70
     8
  9
$DIMBLK
  1

  9
$DIMASO
 70
     1
  9
$DIMSHO
 70
     0
  9
$DIMPOST
  1

  9
$DIMAPOST
  1

  9
$DIMALT
 70
     0
  9
$DIMALTD
 70
     2
  9
$DIMALTF
 40
25.3999999999999986
  9
$DIMLFAC
 40
2.0
  9
$DIMTOFL
 70
     1
  9
$DIMTVP
 40
0.0
  9
$DIMTIX
 70
     0
  9
$DIMSOXD
 70
     0
  9
$DIMSAH
 70
     0
  9
$DIMBLK1
  1

  9
$DIMBLK2
  1

  9
$DIMSTYLE
  2
STANDARD
  9
$DIMCLRD
 70
     0
  9
$DIMCLRE
 70
     0
  9
$DIMCLRT
 70
     1
  9
$DIMTFAC
 40
0.5
  9
$DIMGAP
 40
1.5
  9
$LUNITS
 70
     2
  9
$LUPREC
 70
     2
  9
$SKETCHINC
 40
1.0
  9
$FILLETRAD
 40
5.5
  9
$AUNITS
 70
     0
  9
$AUPREC
 70
     0
  9
$MENU
  1
ACAD
  9
$ELEVATION
 40
0.0
  9
$PELEVATION
 40
0.0
  9
$THICKNESS
 40
0.0
  9
$LIMCHECK
 70
     0
  9
$BLIPMODE
 70
     0
  9
$CHAMFERA
 40
2.0
  9
$CHAMFERB
 40
2.0
  9
$SKPOLY
 70
     0
  9
$TDCREATE
 40
2455397.8646990740671754
  9
$TDUPDATE
 40
2459627.43859953712672
  9
$TDINDWG
 40
0.1983374074
  9
$TDUSRTIMER
 40
0.1983374074
  9
$USRTIMER
 70
     1
  9
$ANGBASE
 50
0.0
  9
$ANGDIR
 70
     0
  9
$PDMODE
 70
     0
  9
$PDSIZE
 40
0.0
  9
$PLINEWID
 40
0.0
  9
$COORDS
 70
     1
  9
$SPLFRAME
 70
     0
  9
$SPLINETYPE
 70
     6
  9
$SPLINESEGS
 70
     8
  9
$ATTDIA
 70
     1
  9
$ATTREQ
 70
     1
  9
$HANDLING
 70
     1
  9
$HANDSEED
  5
1900
  9
$SURFTAB1
 70
     6
  9
$SURFTAB2
 70
     6
  9
$SURFTYPE
 70
     6
  9
$SURFU
 70
     6
  9
$SURFV
 70
     6
  9
$UCSNAME
  2

  9
$UCSORG
 10
0.0
 20
0.0
 30
0.0
  9
$UCSXDIR
 10
1.0
 20
0.0
 30
0.0
  9
$UCSYDIR
 10
0.0
 20
1.0
 30
0.0
  9
$PUCSNAME
  2

  9
$PUCSORG
 10
0.0
 20
0.0
 30
0.0
  9
$PUCSXDIR
 10
1.0
 20
0.0
 30
0.0
  9
$PUCSYDIR
 10
0.0
 20
1.0
 30
0.0
  9
$USERI1
 70
     0
  9
$USERI2
 70
     0
  9
$USERI3
 70
     0
  9
$USERI4
 70
     0
  9
$USERI5
 70
     0
  9
$USERR1
 40
0.0
  9
$USERR2
 40
0.0
  9
$USERR3
 40
0.0
  9
$USERR4
 40
0.0
  9
$USERR5
 40
0.0
  9
$WORLDVIEW
 70
     1
  9
$SHADEDGE
 70
     3
  9
$SHADEDIF
 70
    70
  9
$TILEMODE
 70
     1
  9
$MAXACTVP
 70
    16
  9
$PLIMCHECK
 70
     0
  9
$PEXTMIN
 10
1.0000000000000000E+20
 20
1.0000000000000000E+20
 30
1.0000000000000000E+20
  9
$PEXTMAX
 10
-1.0000000000000000E+20
 20
-1.0000000000000000E+20
 30
-1.0000000000000000E+20
  9
$PLIMMIN
 10
-0.0674642631973264
 20
-0.0511601294987543
  9
$PLIMMAX
 10
209.9325357368026914
 20
296.9488398705012742
  9
$UNITMODE
 70
     0
  9
$VISRETAIN
 70
     0
  9
$PLINEGEN
 70
     0
  9
$PSLTSCALE
 70
     0
  0
ENDSEC
  0
SECTION
  2
TABLES
  0
TABLE
  2
VPORT
 70
     1
  0
VPORT
  2
*ACTIVE
 70
     0
 10
0.0
 20
0.0
 11
1.0
 21
1.0
 12
-0.4514742538758867
 22
-33.6359763186923075
 13
0.0
 23
0.0
 14
1.0
 24
1.0
 15
10.0
 25
10.0
 16
-0.0000000000001137
 26
0.0
 36
610.9381966944323494
 17
298.305449803108786
 27
-59.1818515508484211
 37
-10.7206847247830108
 40
261.8129318788753039
 41
1.7852028639618129
 42
50.0
 43
0.0
 44
0.0
 50
0.0
 51
0.0
 71
     0
 72
  1500
 73
     1
 74
     0
 75
     0
 76
     0
 77
     0
 78
     0
  0
ENDTAB
  0
TABLE
  2
LTYPE
 70
     6
  0
LTYPE
  2
CONTINUOUS
 70
     0
  3
Solid line
 72
    65
 73
     0
 40
0.0
  0
LTYPE
  2
PHANTOM2
 70
     0
  3
Phantom (.5x) ___ _ _ ___ _ _ ___ _ _ ___ _ _
 72
    65
 73
     6
 40
1.25
 49
0.625
 49
-0.125
 49
0.125
 49
-0.125
 49
0.125
 49
-0.125
  0
LTYPE
  2
VERDECKT
 70
     0
  3
Verdeckt __ __ __ __ __ __ __ __ __ __ __ __ __
 72
    65
 73
     2
 40
0.375
 49
0.25
 49
-0.125
  0
ENDTAB
  0
TABLE
  2
LAYER
 70
    14
  0
LAYER
  2
0
 70
     0
 62
     7
  6
CONTINUOUS
  0
LAYER
  2
VOLL
 70
     0
 62
     1
  6
CONTINUOUS
  0
LAYER
  2
STEMPEL
 70
     0
 62
     3
  6
CONTINUOUS
  0
LAYER
  2
DEFPOINTS
 70
     0
 62
     7
  6
CONTINUOUS
  0
LAYER
  2
ADSK_ASSOC_ENTITY_BACKUPS
 70
     1
 62
    -7
  6
CONTINUOUS
  0
ENDTAB
  0
TABLE
  2
STYLE
 70
     4
  0
STYLE
  2
STANDARD
 70
     0
 40
0.0
 41
0.8
 50
0.0
 71
     0
 42
3.5
  3
simplex.shx
  4

  0
STYLE
  2
GREEKS
 70
     0
 40
0.0
 41
0.8
 50
0.0
 71
     0
 42
2.5
  3
SIMPLEX.shx
  4

  0
ENDTAB
  0
TABLE
  2
VIEW
 70
     1
  0
ENDTAB
  0
TABLE
  2
UCS
 70
     0
  0
ENDTAB
  0
TABLE
  2
APPID
 70
    24
  0
APPID
  2
ACAD
 70
     0
  0
APPID
  2
ACAD_NAV_VCDISPLAY
 70
     0
  0
APPID
  2
ACAD_MLEADERVER
 70
     0
  0
APPID
  2
ACAD_EXEMPT_FROM_CAD_STANDARDS
 70
     0
  0
APPID
  2
ACAD_PSEXT
 70
     0
  0
APPID
  2
ACAECLAYERSTANDARD
 70
     0
  0
APPID
  2
ACAUTHENVIRON
 70
     0
  0
APPID
  2
ACCMTRANSPARENCY
 70
     0
  0
APPID
  2
ACAD_STEPID
 70
     0
  0
APPID
  2
ACSYNERGY
 70
     0
  0
APPID
  2
SYNERGY_BODY_TBR_ID
 70
     0
  0
APPID
  2
ACAD_VIEW_EDGE_ID
 70
     0
  0
APPID
  2
ACSYNERGYSKETCH
 70
     0
  0
APPID
  2
ACAD_MODELDOC_XFORM
 70
     0
  0
APPID
  2
ACAD_DSTYLE_DIMJAG
 70
     0
  0
APPID
  2
ACAD_DSTYLE_DIMTALN
 70
     0
  0
APPID
  2
ACADANNOMONITORALERTICONDI
 70
     0
  0
APPID
  2
ACAD_DIMASSOC_CALC_DIMLFAC
 70
     0
  0
APPID
  2
ACAD_DIMASSOC_DIMLFAC
 70
     0
  0
APPID
  2
ACAD_DIMASSOC_OVERRIDDEN_D
 70
     0
  0
APPID
  2
ACAD_DSTYLE_DIMRADIAL_EXTENSION
 70
     0
  0
APPID
  2
GRADIENTCOLOR1ACI
 70
     0
  0
APPID
  2
GRADIENTCOLOR2ACI
 70
     0
  0
APPID
  2
AcDbAttr
 70
     0
  0
ENDTAB
  0
TABLE
  2
DIMSTYLE
 70
     2
  0
DIMSTYLE
  2
STANDARD
 70
     0
  3

  4

  5

  6

  7

 40
1.0
 41
0.18
 42
0.0625
 43
0.38
 44
0.18
 45
0.0
 46
0.0
 47
0.0
 48
0.0
140
0.18
141
0.09
142
0.0
143
25.3999999999999986
144
1.0
145
0.0
146
1.0
147
0.09
 71
     0
 72
     0
 73
     1
 74
     1
 75
     0
 76
     0
 77
     0
 78
     0
170
     0
171
     2
172
     0
173
     0
174
     0
175
     0
176
     0
177
     0
178
     0
  0
ENDTAB
  0
ENDSEC
  0
SECTION
  2
BLOCKS
  0
BLOCK
  8
0
  2
$MODEL_SPACE
 70
     0
 10
0.0
 20
0.0
 30
0.0
  3
$MODEL_SPACE
  1

  0
ENDBLK
  5
36
  8
0
  0
BLOCK
 67
     1
  8
0
  2
$PAPER_SPACE
 70
     0
 10
0.0
 20
0.0
 30
0.0
  3
$PAPER_SPACE
  1

  0
ENDBLK
  5
34
 67
     1
  8
0
  0
BLOCK
  8
0
  2
*S2
 70
     1
 10
0.0
 20
0.0
 30
0.0
  3
*S2
  1

  0
ENDBLK
  5
B3A
  8
0
  0
BLOCK
  8
0
  2
A$C73252454
 70
     0
 10
0.0
 20
0.0
 30
0.0
  3
A$C73252454
  1

  0
CIRCLE
  5
1848
  8
0
 10
97.3691369365925681
 20
-92.4362661998708148
 30
0.0000000000000284
 40
24.1476030003187994
  0
CIRCLE
  5
1849
  8
0
 10
97.3691369365925539
 20
-92.4362661998708148
 30
0.0000000000000284
 40
19.5
  0
CIRCLE
  5
184A
  8
0
 10
97.3691369365925681
 20
-92.4362661998708148
 30
0.0000000000000284
 40
22.5
  0
CIRCLE
  5
184B
  8
0
 10
97.3691369365925681
 20
-92.4362661998708148
 30
0.0000000000000284
 40
22.7705481821080014
  0
CIRCLE
  5
184C
  8
0
 10
97.3691369365925681
 20
-92.4362661998708148
 30
0.0000000000000284
 40
25.5000000076649016
  0
CIRCLE
  5
184D
  8
0
 10
97.3691369365925681
 20
-92.4362661998708148
 30
0.0000000000000213
 40
28.4830215716113386
  0
CIRCLE
  5
184E
  8
0
 10
97.3691369365925681
 20
-92.4362661998708148
 30
0.0000000000000213
 40
75.0
  0
CIRCLE
  5
184F
  8
0
 10
42.369136936592561
 20
-92.4362661998708148
 30
0.0000000000000071
 40
9.0
  0
CIRCLE
  5
1850
  8
0
 10
152.369136936592497
 20
-92.4362661998708148
 30
0.0000000000000355
 40
9.0
  0
CIRCLE
  5
1851
  8
0
 10
97.3691369365925681
 20
-147.4362661998708006
 30
0.0000000000000213
 40
9.0
  0
CIRCLE
  5
1852
  8
0
 10
97.3691369365925681
 20
-37.4362661998708219
 30
0.0000000000000213
 40
9.0
  0
CIRCLE
  5
1853
  8
0
  6
VERDECKT
 62
     1
 10
97.3691369365925539
 20
-92.4362661998708148
 30
0.0000000000000284
 40
22.9378778578126017
  0
CIRCLE
  5
1854
  8
0
  6
VERDECKT
 62
     1
 10
97.3691369365925539
 20
-92.4362661998708148
 30
0.0000000000000284
 40
21.5500000000000007
  0
CIRCLE
  5
1855
  8
0
  6
VERDECKT
 62
     1
 10
97.3691369365925539
 20
-92.4362661998708148
 30
0.0000000000000284
 40
21.0000000000000604
  0
CIRCLE
  5
1856
  8
0
  6
VERDECKT
 62
     1
 10
97.3691369365925681
 20
-92.4362661998708148
 30
0.0000000000000284
 40
24.0000000069681008
  0
CIRCLE
  5
1857
  8
0
  6
VERDECKT
 62
     1
 10
97.3691369365925681
 20
-92.4362661998708148
 30
0.0000000000000213
 40
41.0
  0
CIRCLE
  5
1858
  8
0
  6
VERDECKT
 62
     1
 10
97.3691369365925681
 20
-92.4362661998708148
 30
0.0000000000000213
 40
39.0
  0
CIRCLE
  5
1859
  8
0
  6
VERDECKT
 62
     1
 10
97.3691369365925681
 20
-92.4362661998708148
 30
0.0000000000000284
 40
24.1499999999999808
  0
CIRCLE
  5
185A
  8
0
  6
VERDECKT
 62
     1
 10
97.3691369365925681
 20
-92.4362661998708148
 30
0.0000000000000284
 40
21.549999999999951
  0
ENDBLK
  5
185C
  8
0
  0
BLOCK
  8
0
  2
A$CEE7A3B9F
 70
     0
 10
0.0
 20
0.0
 30
0.0
  3
A$CEE7A3B9F
  1

  0
LINE
  5
1860
  8
0
 10
74.4312590787799451
 20
82.219377114790845
 30
-0.0000000000000183
 11
120.3070147944051058
 21
82.219377114790845
 31
-0.0000000000000183
210
0.0
220
1.0
230
-0.0000000000000002
  0
LINE
  5
1861
  8
0
 10
73.2215339362737438
 20
123.650347193087697
 30
-0.0000000000000275
 11
121.516739936911307
 21
123.650347193087697
 31
-0.0000000000000275
210
0.0
220
1.0
230
-0.0000000000000002
  0
ARC
  5
1862
  8
0
 10
-72.3691369365923123
 20
87.7340718945672648
 30
0.0
 40
4.0000000000002132
210
0.0
220
-0.0000000000000002
230
-1.0
 50
180.0000000000003979
 51
202.293629159693694
  0
ARC
  5
1863
  8
0
 10
-122.369136936592696
 20
87.7340718945672648
 30
0.0
 40
4.0000000000002141
210
0.0
220
-0.0000000000000002
230
-1.0
 50
337.706370840306306
 51
359.9999999999996021
  0
LINE
  5
1864
  8
0
 10
118.6681293157589039
 20
86.2166587700254325
 30
-0.0000000000000191
 11
120.3070147944051058
 21
82.219377114790845
 31
-0.0000000000000183
210
0.0
220
1.0
230
-0.0000000000000002
  0
LINE
  5
1865
  8
0
 10
76.0701445574261186
 20
86.2166587700254325
 30
-0.0000000000000191
 11
74.4312590787799451
 21
82.219377114790845
 31
-0.0000000000000183
210
0.0
220
1.0
230
-0.0000000000000002
  0
LINE
  5
1866
  8
0
 10
75.8191369365925425
 20
81.650347193087697
 30
-0.0000000000000181
 11
74.4312590787799451
 21
82.219377114790845
 31
-0.0000000000000183
210
0.0
220
1.0
230
-0.0000000000000002
  0
LINE
  5
1867
  8
0
 10
118.9191369365924942
 20
81.650347193087697
 30
-0.0000000000000181
 11
120.3070147944051058
 21
82.219377114790845
 31
-0.0000000000000183
210
0.0
220
1.0
230
-0.0000000000000002
  0
ARC
  5
1868
  8
0
 10
-88.366704190944418
 20
117.1086697689245
 30
0.0
 40
16.4975672620167799
210
0.0
220
-0.0000000000000002
230
-1.0
 50
359.9982534496203925
 51
23.3610410950192318
  0
ARC
  5
1869
  8
0
 10
-106.371569682240704
 20
117.1086697689245
 30
0.0
 40
16.4975672620166911
210
0.0
220
-0.0000000000000002
230
-1.0
 50
156.6389589049807114
 51
180.0017465503796075
  0
LINE
  5
186A
  8
0
 10
71.8692921203272164
 20
112.0173471930881988
 30
-0.0000000000000249
 11
71.8691369365925254
 21
117.1081668726797034
 31
-0.000000000000026
210
0.0
220
1.0
230
-0.0000000000000002
  0
LINE
  5
186B
  8
0
 10
122.8689817528578061
 20
112.0173471930881988
 30
-0.0000000000000249
 11
122.869136936592497
 21
117.1081668726797034
 31
-0.000000000000026
210
0.0
220
1.0
230
-0.0000000000000002
  0
ARC
  5
186C
  8
0
 10
-91.8691369365820236
 20
112.0173471930864935
 30
0.0
 40
19.9998448162547895
210
0.0
220
-0.0000000000000002
230
-1.0
 50
341.8060294016119087
 51
0.000000000004809
  0
ARC
  5
186D
  8
0
 10
-102.8691369366027999
 20
112.0173471930865929
 30
0.0
 40
19.9998448162549813
210
0.0
220
-0.0000000000000002
230
-1.0
 50
179.9999999999951967
 51
198.193970598388006
  0
ARC
  5
186E
  8
0
 10
-63.3691369365936197
 20
102.6503471930882938
 30
0.0
 40
9.9999999999989129
210
0.0
220
-0.0000000000000002
230
-1.0
 50
161.8060294016115961
 51
180.0000000000005969
  0
ARC
  5
186F
  8
0
 10
-131.3691369365909054
 20
102.6503471930883933
 30
0.0
 40
9.9999999999983498
210
0.0
220
-0.0000000000000002
230
-1.0
 50
359.9999999999985789
 51
18.1939705983885389
  0
LINE
  5
1870
  8
0
 10
121.369136936592497
 20
102.6503471930881943
 30
-0.0000000000000228
 11
121.369136936592497
 21
98.4721725735846434
 31
-0.0000000000000219
210
0.0
220
1.0
230
-0.0000000000000002
  0
LINE
  5
1871
  8
0
 10
73.3691369365925112
 20
102.6503471930881943
 30
-0.0000000000000228
 11
73.3691369365925112
 21
98.4721725735846434
 31
-0.0000000000000219
210
0.0
220
1.0
230
-0.0000000000000002
  0
ARC
  5
1872
  8
0
 10
-83.3691369365931649
 20
98.4721725735850413
 30
0.0
 40
10.0000000000007496
210
0.0
220
-0.0000000000000002
230
-1.0
 50
324.3409123038618986
 51
359.9999999999977263
  0
ARC
  5
1873
  8
0
 10
-111.3691369365919002
 20
98.4721725735850555
 30
0.0
 40
10.0000000000007692
210
0.0
220
-0.0000000000000002
230
-1.0
 50
180.0000000000023022
 51
215.6590876961381866
  0
ARC
  5
1874
  8
0
 10
-70.3691369365925254
 20
89.1447935204959094
 30
0.0
 40
5.9999999999999574
210
0.0
220
-0.0000000000000002
230
-1.0
 50
144.3409123038615007
 51
180.000000000000199
  0
ARC
  5
1875
  8
0
 10
-124.369136936592497
 20
89.1447935204959094
 30
0.0
 40
5.9999999999999574
210
0.0
220
-0.0000000000000002
230
-1.0
 50
0.0
 51
35.6590876961387124
  0
LINE
  5
1876
  8
0
 10
118.3691369365925965
 20
89.1447935204958668
 30
-0.0000000000000198
 11
118.3691369365925965
 21
87.7340718945672364
 31
-0.0000000000000195
210
0.0
220
1.0
230
-0.0000000000000002
  0
LINE
  5
1877
  8
0
 10
76.3691369365924828
 20
89.1447935204958668
 30
-0.0000000000000198
 11
76.3691369365924828
 21
87.7340718945672364
 31
-0.0000000000000195
210
0.0
220
1.0
230
-0.0000000000000002
  0
LINE
  5
1878
  8
0
 10
73.2191369365925766
 20
72.6503471930876827
 30
-0.0000000000000161
 11
121.5191369365925027
 21
72.6503471930876827
 31
-0.0000000000000161
210
0.0
220
1.0
230
-0.0000000000000002
  0
LINE
  5
1879
  8
0
 10
22.3691369365925503
 20
38.6503471930876827
 30
-0.0000000000000086
 11
172.369136936592497
 21
38.6503471930876827
 31
-0.0000000000000086
210
0.0
220
1.0
230
-0.0000000000000002
  0
LINE
  5
187A
  8
0
 10
58.3691369365925468
 20
36.6503471930876188
 30
-0.0000000000000081
 11
136.369136936592497
 21
36.6503471930876188
 31
-0.0000000000000081
210
0.0
220
1.0
230
-0.0000000000000002
  0
LINE
  5
187B
  8
0
 10
172.369136936592497
 20
54.6503471930876827
 30
-0.0000000000000121
 11
22.3691369365925503
 21
54.6503471930876827
 31
-0.0000000000000121
210
0.0
220
1.0
230
-0.0000000000000002
  0
LINE
  5
187C
  8
0
 10
73.2191369365925766
 20
81.650347193087697
 30
-0.0000000000000181
 11
121.5191369365925027
 21
81.650347193087697
 31
-0.0000000000000181
210
0.0
220
1.0
230
-0.0000000000000002
  0
LINE
  5
187D
  8
0
 10
121.5191369365925027
 20
72.650347193087697
 30
-0.0000000000000161
 11
124.4324660049005047
 21
57.5161702148643883
 31
-0.0000000000000128
210
0.0
220
1.0
230
-0.0000000000000002
  0
LINE
  5
187E
  8
0
 10
73.2191369365925766
 20
72.6503471930876827
 30
-0.0000000000000161
 11
70.3058078682845462
 21
57.516170214864367
 31
-0.0000000000000128
210
0.0
220
1.0
230
-0.0000000000000002
  0
ARC
  5
187F
  8
0
 10
-64.4139794099816925
 20
58.650347193087633
 30
0.0
 40
5.9999999999999183
210
0.0
220
-0.0000000000000002
230
-1.0
 50
190.8961521411407034
 51
221.8103148957785891
  0
ARC
  5
1880
  8
0
 10
-130.3242944632033868
 20
58.650347193087633
 30
0.0
 40
5.999999999999897
210
0.0
220
-0.0000000000000002
230
-1.0
 50
318.189685104221212
 51
349.1038478588594103
  0
LINE
  5
1881
  8
0
 10
58.3691369365925397
 20
36.6503471930875975
 30
-0.0000000000000081
 11
56.3691369365925397
 21
38.6503471930876614
 31
-0.0000000000000086
210
0.0
220
1.0
230
-0.0000000000000002
  0
LINE
  5
1882
  8
0
 10
136.3691369365926107
 20
36.6503471930875975
 30
-0.0000000000000081
 11
138.369136936592497
 21
38.6503471930876614
 31
-0.0000000000000086
210
0.0
220
1.0
230
-0.0000000000000002
  0
LINE
  5
1883
  8
0
 10
172.369136936592497
 20
54.6503471930876827
 30
-0.0000000000000121
 11
172.369136936592497
 21
38.6503471930876827
 31
-0.0000000000000086
210
0.0
220
1.0
230
-0.0000000000000002
  0
LINE
  5
1884
  8
0
 10
22.3691369365925503
 20
54.6503471930876827
 30
-0.0000000000000121
 11
22.3691369365925503
 21
38.6503471930876827
 31
-0.0000000000000086
210
0.0
220
1.0
230
-0.0000000000000002
  0
LINE
  5
1885
  8
0
 10
121.5191369365925027
 20
81.650347193087697
 30
-0.0000000000000181
 11
121.5191369365925027
 21
72.6503471930876827
 31
-0.0000000000000161
210
0.0
220
1.0
230
-0.0000000000000002
  0
LINE
  5
1886
  8
0
 10
73.2191369365925766
 20
81.650347193087697
 30
-0.0000000000000181
 11
73.2191369365925766
 21
72.6503471930876827
 31
-0.0000000000000161
210
0.0
220
1.0
230
-0.0000000000000002
  0
LINE
  5
1887
  8
0
  6
VERDECKT
 62
     1
 10
74.5985887544845241
 20
123.0556035275961051
 30
-0.0000000000000273
 11
120.1396851187004984
 21
123.0556035275961051
 31
-0.0000000000000273
210
0.0
220
1.0
230
-0.0000000000000002
  0
LINE
  5
1888
  8
0
  6
VERDECKT
 62
     1
 10
117.2802514579463065
 20
85.6476288483223129
 30
-0.000000000000019
 11
118.9191369365924942
 21
81.650347193087697
 31
-0.0000000000000181
210
0.0
220
1.0
230
-0.0000000000000002
  0
LINE
  5
1889
  8
0
  6
VERDECKT
 62
     1
 10
77.4580224152387444
 20
85.6476288483223129
 30
-0.000000000000019
 11
75.8191369365925425
 21
81.650347193087697
 31
-0.0000000000000181
210
0.0
220
1.0
230
-0.0000000000000002
  0
ARC
  5
188A
  8
0
  6
VERDECKT
 62
     1
 10
-72.3691369365925539
 20
87.7340718945672364
 30
0.0
 40
5.4999999999999849
210
0.0
220
-0.0000000000000002
230
-1.0
 50
179.999999999999801
 51
202.2936291596938929
  0
ARC
  5
188B
  8
0
  6
VERDECKT
 62
     1
 10
-122.369136936592497
 20
87.7340718945672364
 30
0.0
 40
5.4999999999999867
210
0.0
220
-0.0000000000000002
230
-1.0
 50
337.7063708403060787
 51
0.0000000000001399
  0
LINE
  5
188C
  8
0
  6
VERDECKT
 62
     1
 10
116.869136936592497
 20
89.1447935204958668
 30
-0.0000000000000198
 11
116.869136936592497
 21
87.7340718945672648
 31
-0.0000000000000195
210
0.0
220
1.0
230
-0.0000000000000002
  0
LINE
  5
188D
  8
0
  6
VERDECKT
 62
     1
 10
77.8691369365925397
 20
89.1447935204958668
 30
-0.0000000000000198
 11
77.8691369365925397
 21
87.7340718945672648
 31
-0.0000000000000195
210
0.0
220
1.0
230
-0.0000000000000002
  0
ARC
  5
188E
  8
0
  6
VERDECKT
 62
     1
 10
-70.3691369365929091
 20
89.1447935204959379
 30
0.0
 40
7.4999999999996261
210
0.0
220
-0.0000000000000002
230
-1.0
 50
144.3409123038601933
 51
180.0000000000005116
  0
ARC
  5
188F
  8
0
  6
VERDECKT
 62
     1
 10
-124.3691369365920991
 20
89.1447935204959379
 30
0.0
 40
7.4999999999996163
210
0.0
220
-0.0000000000000002
230
-1.0
 50
359.9999999999996021
 51
35.6590876961398777
  0
ARC
  5
1890
  8
0
  6
VERDECKT
 62
     1
 10
-83.369136936591957
 20
98.4721725735844444
 30
0.0
 40
8.4999999999994156
210
0.0
220
-0.0000000000000002
230
-1.0
 50
324.340912303860307
 51
0.0000000000013486
  0
ARC
  5
1891
  8
0
  6
VERDECKT
 62
     1
 10
-111.3691369365934065
 20
98.4721725735843734
 30
0.0
 40
8.4999999999991331
210
0.0
220
-0.0000000000000002
230
-1.0
 50
179.9999999999980105
 51
215.6590876961402898
  0
LINE
  5
1892
  8
0
  6
VERDECKT
 62
     1
 10
119.869136936592497
 20
102.6503471930881943
 30
-0.0000000000000228
 11
119.869136936592497
 21
98.4721725735846434
 31
-0.0000000000000219
210
0.0
220
1.0
230
-0.0000000000000002
  0
LINE
  5
1893
  8
0
  6
VERDECKT
 62
     1
 10
74.8691369365925254
 20
102.6503471930881943
 30
-0.0000000000000228
 11
74.8691369365925254
 21
98.4721725735846434
 31
-0.0000000000000219
210
0.0
220
1.0
230
-0.0000000000000002
  0
ARC
  5
1894
  8
0
  6
VERDECKT
 62
     1
 10
-63.3691369365934705
 20
102.6503471930881943
 30
0.0
 40
11.4999999999990603
210
0.0
220
-0.0000000000000002
230
-1.0
 50
161.8060294016121929
 51
180.000000000000199
  0
ARC
  5
1895
  8
0
  6
VERDECKT
 62
     1
 10
-131.3691369365915875
 20
102.6503471930881943
 30
0.0
 40
11.4999999999990905
210
0.0
220
-0.0000000000000002
230
-1.0
 50
359.9999999999997726
 51
18.1939705983878213
  0
ARC
  5
1896
  8
0
  6
VERDECKT
 62
     1
 10
-91.8691369365831747
 20
112.0173471930865929
 30
0.0
 40
18.4998448162559193
210
0.0
220
-0.0000000000000002
230
-1.0
 50
341.8060294016124772
 51
0.0000000000050126
  0
ARC
  5
1897
  8
0
  6
VERDECKT
 62
     1
 10
-102.8691369366019046
 20
112.0173471930865929
 30
0.0
 40
18.4998448162559086
210
0.0
220
-0.0000000000000002
230
-1.0
 50
179.9999999999949978
 51
198.1939705983874944
  0
LINE
  5
1898
  8
0
  6
VERDECKT
 62
     1
 10
73.3692921203272448
 20
112.0173471930881988
 30
-0.0000000000000249
 11
73.3691369365925397
 21
117.1081668726797034
 31
-0.000000000000026
210
0.0
220
1.0
230
-0.0000000000000002
  0
LINE
  5
1899
  8
0
  6
VERDECKT
 62
     1
 10
121.3689817528578061
 20
112.0173471930881988
 30
-0.0000000000000249
 11
121.369136936592497
 21
117.1081668726797034
 31
-0.000000000000026
210
0.0
220
1.0
230
-0.0000000000000002
  0
ARC
  5
189A
  8
0
  6
VERDECKT
 62
     1
 10
-88.3669253496394873
 20
117.1086240510841066
 30
0.0
 40
14.9977884200150697
210
0.0
220
-0.0000000000000002
230
-1.0
 50
359.9982534496206199
 51
23.3610410950196083
  0
ARC
  5
189B
  8
0
  6
VERDECKT
 62
     1
 10
-106.3713485235461036
 20
117.108624051084206
 30
0.0
 40
14.9977884200145297
210
0.0
220
-0.0000000000000002
230
-1.0
 50
156.6389589049800009
 51
180.0017465503798917
  0
LINE
  5
189C
  8
0
  6
VERDECKT
 62
     1
 10
74.5985887544845241
 20
123.0556035275961051
 30
-0.0000000000000273
 11
73.2215339362737296
 21
123.650347193087697
 31
-0.0000000000000275
210
0.0
220
1.0
230
-0.0000000000000002
  0
LINE
  5
189D
  8
0
  6
VERDECKT
 62
     1
 10
120.1396851187004984
 20
123.0556035275961051
 30
-0.0000000000000273
 11
121.516739936911307
 21
123.650347193087697
 31
-0.0000000000000275
210
0.0
220
1.0
230
-0.0000000000000002
  0
LINE
  5
189E
  8
0
  6
VERDECKT
 62
     1
 10
33.3691369365925468
 20
38.6503471930876827
 30
-0.0000000000000086
 11
33.3691369365925468
 21
54.6503471930876827
 31
-0.0000000000000121
210
0.0
220
1.0
230
-0.0000000000000002
  0
LINE
  5
189F
  8
0
  6
VERDECKT
 62
     1
 10
51.369136936592561
 20
38.6503471930876827
 30
-0.0000000000000086
 11
51.369136936592561
 21
54.6503471930876827
 31
-0.0000000000000121
210
0.0
220
1.0
230
-0.0000000000000002
  0
LINE
  5
18A0
  8
0
  6
VERDECKT
 62
     1
 10
161.369136936592497
 20
54.6503471930876827
 30
-0.0000000000000121
 11
161.369136936592497
 21
38.6503471930876827
 31
-0.0000000000000086
210
0.0
220
1.0
230
-0.0000000000000002
  0
LINE
  5
18A1
  8
0
  6
VERDECKT
 62
     1
 10
143.369136936592497
 20
54.6503471930876827
 30
-0.0000000000000121
 11
143.369136936592497
 21
38.6503471930876827
 31
-0.0000000000000086
210
0.0
220
1.0
230
-0.0000000000000002
  0
LINE
  5
18A2
  8
0
  6
VERDECKT
 62
     1
 10
88.3691369365925539
 20
38.6503471930876827
 30
-0.0000000000000086
 11
88.3691369365925539
 21
54.6503471930876827
 31
-0.0000000000000121
210
0.0
220
1.0
230
-0.0000000000000002
  0
LINE
  5
18A3
  8
0
  6
VERDECKT
 62
     1
 10
106.369136936592497
 20
38.6503471930876827
 30
-0.0000000000000086
 11
106.369136936592497
 21
54.6503471930876827
 31
-0.0000000000000121
210
0.0
220
1.0
230
-0.0000000000000002
  0
LINE
  5
18A4
  8
0
  6
VERDECKT
 62
     1
 10
118.9191369365924942
 20
81.650347193087697
 30
-0.0000000000000181
 11
118.9191369365924942
 21
36.6503471930876188
 31
-0.0000000000000081
210
0.0
220
1.0
230
-0.0000000000000002
  0
LINE
  5
18A5
  8
0
  6
VERDECKT
 62
     1
 10
75.8191369365925425
 20
81.650347193087697
 30
-0.0000000000000181
 11
75.8191369365925425
 21
36.6503471930876188
 31
-0.0000000000000081
210
0.0
220
1.0
230
-0.0000000000000002
  0
ENDBLK
  5
18A7
  8
0
  0
ENDSEC
  0
SECTION
  2
ENTITIES
  0
TEXT
  5
8F
  8
VOLL
 10
78.076754716981128
 20
31.025947764705851
 30
0.0
 40
1.8
  1

  7
GREEKS
  0
INSERT
  5
B3C
  8
ADSK_ASSOC_ENTITY_BACKUPS
  2
*S2
 10
0.0
 20
0.0
 30
0.0
  0
INSERT
  5
185D
  8
STEMPEL
  2
A$C73252454
 10
200.4848386126402886
 20
-55.3585142414902478
 30
-21.4413694495660607
  0
INSERT
  5
18A8
  8
STEMPEL
  2
A$CEE7A3B9F
 10
200.4848386126402886
 20
-86.4912224908081271
 30
-21.4413694495660287
  0
VIEWPORT
  5
928
 67
     1
  8
0
 10
104.9325357368027056
 20
148.4488398705011889
 30
0.0
 40
533.9969448798291296
 41
299.1239570917758783
 68
     1
 69
     1
1001
ACAD
1000
MVIEW
1002
{
1070
    16
1010
0.0
1020
0.0
1030
0.0
1010
0.0
1020
0.0
1030
1.0
1040
0.0
1040
299.1239570917758783
1040
104.9325357368027056
1040
148.4488398705011889
1040
50.0
1040
0.0
1040
0.0
1070
     0
1070
  1500
1070
     1
1070
     1
1070
     0
1070
     0
1070
     0
1070
     0
1040
0.0
1040
0.0
1040
0.0
1040
10.0
1040
10.0
1040
10.0
1040
10.0
1070
     0
1002
{
1002
}
1002
}
  0
ENDSEC
  0
EOF
