  0
SECTION
  2
HEADER
  9
$ACADVER
  1
AC1009
  9
$INSBASE
 10
0.0
 20
0.0
 30
0.0
  9
$EXTMIN
 10
428.375437127075827
 20
-252.5309712937645088
 30
15.5956255809443896
  9
$EXTMAX
 10
532.1410331310571564
 20
45.2133978738648992
 30
15.5956255809444304
  9
$LIMMIN
 10
0.0
 20
0.0
  9
$LIMMAX
 10
210.0
 20
297.0
  9
$ORTHOMODE
 70
     1
  9
$REGENMODE
 70
     1
  9
$FILLMODE
 70
     1
  9
$QTEXTMODE
 70
     0
  9
$MIRRTEXT
 70
     1
  9
$DRAGMODE
 70
     2
  9
$LTSCALE
 40
10.0
  9
$OSMODE
 70
  2495
  9
$ATTMODE
 70
     1
  9
$TEXTSIZE
 40
3.5
  9
$TRACEWID
 40
0.5
  9
$TEXTSTYLE
  7
STANDARD
  9
$CLAYER
  8
STEMPEL
  9
$CELTYPE
  6
BYLAYER
  9
$CECOLOR
 62
   256
  9
$DIMSCALE
 40
1.0
  9
$DIMASZ
 40
3.5
  9
$DIMEXO
 40
1.0
  9
$DIMDLI
 40
7.0
  9
$DIMRND
 40
0.0
  9
$DIMDLE
 40
0.0
  9
$DIMEXE
 40
1.0
  9
$DIMTP
 40
0.0
  9
$DIMTM
 40
0.0
  9
$DIMTXT
 40
3.5
  9
$DIMCEN
 40
1.5
  9
$DIMTSZ
 40
0.0
  9
$DIMTOL
 70
     0
  9
$DIMLIM
 70
     0
  9
$DIMTIH
 70
     0
  9
$DIMTOH
 70
     0
  9
$DIMSE1
 70
     0
  9
$DIMSE2
 70
     0
  9
$DIMTAD
 70
     1
  9
$DIMZIN
 70
     8
  9
$DIMBLK
  1

  9
$DIMASO
 70
     1
  9
$DIMSHO
 70
     0
  9
$DIMPOST
  1

  9
$DIMAPOST
  1

  9
$DIMALT
 70
     0
  9
$DIMALTD
 70
     2
  9
$DIMALTF
 40
25.3999999999999986
  9
$DIMLFAC
 40
1.0
  9
$DIMTOFL
 70
     1
  9
$DIMTVP
 40
0.0
  9
$DIMTIX
 70
     0
  9
$DIMSOXD
 70
     0
  9
$DIMSAH
 70
     0
  9
$DIMBLK1
  1

  9
$DIMBLK2
  1

  9
$DIMSTYLE
  2
STANDARD
  9
$DIMCLRD
 70
     0
  9
$DIMCLRE
 70
     0
  9
$DIMCLRT
 70
     1
  9
$DIMTFAC
 40
0.5
  9
$DIMGAP
 40
1.5
  9
$LUNITS
 70
     2
  9
$LUPREC
 70
     2
  9
$SKETCHINC
 40
1.0
  9
$FILLETRAD
 40
16.6000000000000014
  9
$AUNITS
 70
     0
  9
$AUPREC
 70
     0
  9
$MENU
  1
ACAD
  9
$ELEVATION
 40
0.0
  9
$PELEVATION
 40
0.0
  9
$THICKNESS
 40
0.0
  9
$LIMCHECK
 70
     0
  9
$BLIPMODE
 70
     0
  9
$CHAMFERA
 40
0.0
  9
$CHAMFERB
 40
0.0
  9
$SKPOLY
 70
     0
  9
$TDCREATE
 40
2455397.8646990740671754
  9
$TDUPDATE
 40
2459501.6129166670143604
  9
$TDINDWG
 40
0.2320411111
  9
$TDUSRTIMER
 40
0.2320411111
  9
$USRTIMER
 70
     1
  9
$ANGBASE
 50
0.0
  9
$ANGDIR
 70
     0
  9
$PDMODE
 70
     0
  9
$PDSIZE
 40
0.0
  9
$PLINEWID
 40
0.0
  9
$COORDS
 70
     1
  9
$SPLFRAME
 70
     0
  9
$SPLINETYPE
 70
     6
  9
$SPLINESEGS
 70
     8
  9
$ATTDIA
 70
     1
  9
$ATTREQ
 70
     1
  9
$HANDLING
 70
     1
  9
$HANDSEED
  5
1D01
  9
$SURFTAB1
 70
     6
  9
$SURFTAB2
 70
     6
  9
$SURFTYPE
 70
     6
  9
$SURFU
 70
     6
  9
$SURFV
 70
     6
  9
$UCSNAME
  2

  9
$UCSORG
 10
0.0
 20
0.0
 30
0.0
  9
$UCSXDIR
 10
1.0
 20
0.0
 30
0.0
  9
$UCSYDIR
 10
0.0
 20
1.0
 30
0.0
  9
$PUCSNAME
  2

  9
$PUCSORG
 10
0.0
 20
0.0
 30
0.0
  9
$PUCSXDIR
 10
1.0
 20
0.0
 30
0.0
  9
$PUCSYDIR
 10
0.0
 20
1.0
 30
0.0
  9
$USERI1
 70
     0
  9
$USERI2
 70
     0
  9
$USERI3
 70
     0
  9
$USERI4
 70
     0
  9
$USERI5
 70
     0
  9
$USERR1
 40
0.0
  9
$USERR2
 40
0.0
  9
$USERR3
 40
0.0
  9
$USERR4
 40
0.0
  9
$USERR5
 40
0.0
  9
$WORLDVIEW
 70
     1
  9
$SHADEDGE
 70
     3
  9
$SHADEDIF
 70
    70
  9
$TILEMODE
 70
     1
  9
$MAXACTVP
 70
    16
  9
$PLIMCHECK
 70
     0
  9
$PEXTMIN
 10
1.0000000000000000E+20
 20
1.0000000000000000E+20
 30
1.0000000000000000E+20
  9
$PEXTMAX
 10
-1.0000000000000000E+20
 20
-1.0000000000000000E+20
 30
-1.0000000000000000E+20
  9
$PLIMMIN
 10
-0.0674642631973264
 20
-0.0511601294987543
  9
$PLIMMAX
 10
209.9325357368026914
 20
296.9488398705012742
  9
$UNITMODE
 70
     0
  9
$VISRETAIN
 70
     0
  9
$PLINEGEN
 70
     0
  9
$PSLTSCALE
 70
     0
  0
ENDSEC
  0
SECTION
  2
TABLES
  0
TABLE
  2
VPORT
 70
     1
  0
VPORT
  2
*ACTIVE
 70
     0
 10
0.0
 20
0.0
 11
1.0
 21
1.0
 12
85.4083927544288173
 22
-64.8721865970347551
 13
0.0
 23
0.0
 14
1.0
 24
1.0
 15
10.0
 25
10.0
 16
-0.0000000000002274
 26
0.0
 36
896.320377976161808
 17
394.8498423746377171
 27
-38.7866001129150391
 37
1.079840607159525
 40
299.8736495192454186
 41
1.7852028639618129
 42
50.0
 43
0.0
 44
0.0
 50
0.0
 51
0.0
 71
     0
 72
  1500
 73
     1
 74
     0
 75
     0
 76
     0
 77
     0
 78
     0
  0
ENDTAB
  0
TABLE
  2
LTYPE
 70
     6
  0
LTYPE
  2
CONTINUOUS
 70
     0
  3
Solid line
 72
    65
 73
     0
 40
0.0
  0
LTYPE
  2
PHANTOM2
 70
     0
  3
Phantom (.5x) ___ _ _ ___ _ _ ___ _ _ ___ _ _
 72
    65
 73
     6
 40
1.25
 49
0.625
 49
-0.125
 49
0.125
 49
-0.125
 49
0.125
 49
-0.125
  0
LTYPE
  2
VERDECKT
 70
     0
  3
Verdeckt __ __ __ __ __ __ __ __ __ __ __ __ __
 72
    65
 73
     2
 40
0.375
 49
0.25
 49
-0.125
  0
ENDTAB
  0
TABLE
  2
LAYER
 70
    16
  0
LAYER
  2
0
 70
     0
 62
     7
  6
CONTINUOUS
  0
LAYER
  2
VOLL
 70
     0
 62
     1
  6
CONTINUOUS
  0
LAYER
  2
STEMPEL
 70
     0
 62
     3
  6
CONTINUOUS
  0
LAYER
  2
DEFPOINTS
 70
     0
 62
     7
  6
CONTINUOUS
  0
LAYER
  2
ADSK_ASSOC_ENTITY_BACKUPS
 70
     1
 62
    -7
  6
CONTINUOUS
  0
ENDTAB
  0
TABLE
  2
STYLE
 70
     4
  0
STYLE
  2
STANDARD
 70
     0
 40
0.0
 41
0.8
 50
0.0
 71
     0
 42
3.5
  3
simplex.shx
  4

  0
STYLE
  2
GREEKS
 70
     0
 40
0.0
 41
0.8
 50
0.0
 71
     0
 42
2.5
  3
SIMPLEX.shx
  4

  0
ENDTAB
  0
TABLE
  2
VIEW
 70
     1
  0
ENDTAB
  0
TABLE
  2
UCS
 70
     0
  0
ENDTAB
  0
TABLE
  2
APPID
 70
    22
  0
APPID
  2
ACAD
 70
     0
  0
APPID
  2
ACAD_NAV_VCDISPLAY
 70
     0
  0
APPID
  2
ACAD_MLEADERVER
 70
     0
  0
APPID
  2
ACAD_EXEMPT_FROM_CAD_STANDARDS
 70
     0
  0
APPID
  2
ACAD_PSEXT
 70
     0
  0
APPID
  2
ACAECLAYERSTANDARD
 70
     0
  0
APPID
  2
ACAUTHENVIRON
 70
     0
  0
APPID
  2
ACCMTRANSPARENCY
 70
     0
  0
APPID
  2
ACAD_STEPID
 70
     0
  0
APPID
  2
ACSYNERGY
 70
     0
  0
APPID
  2
SYNERGY_BODY_TBR_ID
 70
     0
  0
APPID
  2
ACAD_VIEW_EDGE_ID
 70
     0
  0
APPID
  2
ACSYNERGYSKETCH
 70
     0
  0
APPID
  2
ACAD_MODELDOC_XFORM
 70
     0
  0
APPID
  2
ACAD_DSTYLE_DIMJAG
 70
     0
  0
APPID
  2
ACAD_DSTYLE_DIMTALN
 70
     0
  0
APPID
  2
ACADANNOMONITORALERTICONDI
 70
     0
  0
APPID
  2
ACAD_DIMASSOC_CALC_DIMLFAC
 70
     0
  0
APPID
  2
ACAD_DIMASSOC_DIMLFAC
 70
     0
  0
APPID
  2
ACAD_DIMASSOC_OVERRIDDEN_D
 70
     0
  0
APPID
  2
ACAD_DSTYLE_DIMRADIAL_EXTENSION
 70
     0
  0
APPID
  2
AcDbAttr
 70
     0
  0
ENDTAB
  0
TABLE
  2
DIMSTYLE
 70
     2
  0
DIMSTYLE
  2
STANDARD
 70
     0
  3

  4

  5

  6

  7

 40
1.0
 41
0.18
 42
0.0625
 43
0.38
 44
0.18
 45
0.0
 46
0.0
 47
0.0
 48
0.0
140
0.18
141
0.09
142
0.0
143
25.3999999999999986
144
1.0
145
0.0
146
1.0
147
0.09
 71
     0
 72
     0
 73
     1
 74
     1
 75
     0
 76
     0
 77
     0
 78
     0
170
     0
171
     2
172
     0
173
     0
174
     0
175
     0
176
     0
177
     0
178
     0
  0
ENDTAB
  0
ENDSEC
  0
SECTION
  2
BLOCKS
  0
BLOCK
  8
0
  2
$MODEL_SPACE
 70
     0
 10
0.0
 20
0.0
 30
0.0
  3
$MODEL_SPACE
  1

  0
ENDBLK
  5
36
  8
0
  0
BLOCK
 67
     1
  8
0
  2
$PAPER_SPACE
 70
     0
 10
0.0
 20
0.0
 30
0.0
  3
$PAPER_SPACE
  1

  0
ENDBLK
  5
34
 67
     1
  8
0
  0
BLOCK
  8
0
  2
*S2
 70
     1
 10
0.0
 20
0.0
 30
0.0
  3
*S2
  1

  0
ENDBLK
  5
B3A
  8
0
  0
BLOCK
  8
0
  2
A$CE3503EED
 70
     0
 10
0.0
 20
0.0
 30
0.0
  3
A$CE3503EED
  1

  0
LINE
  5
1BF8
  8
0
 10
354.8242509129566997
 20
-54.9201603994529819
 30
0.0000000000000122
 11
265.8242509129566997
 21
-54.9201603994529393
 31
0.0000000000000122
210
0.0
220
1.0
230
-0.0000000000000002
  0
LINE
  5
1BF9
  8
0
 10
354.8242509129566997
 20
-52.9201603994529819
 30
0.0000000000000118
 11
265.8242509129566997
 21
-52.9201603994529535
 31
0.0000000000000118
210
0.0
220
1.0
230
-0.0000000000000002
  0
LINE
  5
1BFA
  8
0
 10
265.8242509129566997
 20
-54.9201603994529393
 30
0.0000000000000122
 11
265.8242509129566997
 21
-52.9201603994529535
 31
0.0000000000000118
210
0.0
220
1.0
230
-0.0000000000000002
  0
LINE
  5
1BFB
  8
0
 10
354.8242509129566997
 20
-54.9201603994529393
 30
0.0000000000000122
 11
354.8242509129566997
 21
-52.9201603994529535
 31
0.0000000000000118
210
0.0
220
1.0
230
-0.0000000000000002
  0
LINE
  5
1BFC
  8
0
 10
354.8242509129566997
 20
-52.9201603994529535
 30
0.0000000000000118
 11
265.824250912956586
 21
-52.9201603994529535
 31
0.0000000000000118
210
0.0
220
1.0
230
-0.0000000000000002
  0
LINE
  5
1BFD
  8
0
 10
360.7727174746823948
 20
4.4001745215836161
 30
-0.000000000000001
 11
259.8757843512310046
 21
4.4001745215836303
 31
-0.000000000000001
210
0.0
220
1.0
230
-0.0000000000000002
  0
LINE
  5
1BFE
  8
0
 10
265.8242509129566997
 20
-52.9201603994529535
 30
0.0000000000000118
 11
265.8242509129566997
 21
-11.6211819072671005
 31
0.0000000000000026
210
0.0
220
1.0
230
-0.0000000000000002
  0
LINE
  5
1BFF
  8
0
 10
354.8242509129566997
 20
-52.9201603994529535
 30
0.0000000000000118
 11
354.8242509129566997
 21
-11.6211819072671005
 31
0.0000000000000026
210
0.0
220
1.0
230
-0.0000000000000002
  0
ARC
  5
1C00
  8
0
 10
-369.8242509129572113
 20
-11.6211819072673705
 30
0.0
 40
15.0000000000005098
210
0.0
220
-0.0000000000000002
230
-1.0
 50
0.0000000000010178
 51
25.137414502514531
  0
ARC
  5
1C01
  8
0
 10
-250.8242509129561881
 20
-11.6211819072673705
 30
0.0
 40
15.00000000000054
210
0.0
220
-0.0000000000000002
230
-1.0
 50
154.8625854974854974
 51
179.9999999999988916
  0
LINE
  5
1C02
  8
0
 10
264.403624929135276
 20
-5.2493217919842694
 30
0.0000000000000012
 11
259.8757843512308909
 21
4.4001745215836419
 31
-0.000000000000001
210
0.0
220
1.0
230
-0.0000000000000002
  0
LINE
  5
1C03
  8
0
 10
356.2448768967781234
 20
-5.2493217919842694
 30
0.0000000000000012
 11
360.7727174746823948
 21
4.4001745215836188
 31
-0.000000000000001
210
0.0
220
1.0
230
-0.0000000000000002
  0
LINE
  5
1C04
  8
0
 10
359.3242509129566997
 20
5.0798396005471442
 30
-0.0000000000000011
 11
360.7727174746823948
 21
4.4001745215836383
 31
-0.000000000000001
210
0.0
220
1.0
230
-0.0000000000000002
  0
LINE
  5
1C05
  8
0
 10
261.3242509129566997
 20
5.0798396005471442
 30
-0.0000000000000011
 11
259.8757843512308909
 21
4.4001745215836161
 31
-0.000000000000001
210
0.0
220
1.0
230
-0.0000000000000002
  0
LINE
  5
1C06
  8
0
 10
336.211830268275321
 20
-82.9201603994505092
 30
0.0000000000000184
 11
284.4366715576380784
 21
-82.9201603994505092
 31
0.0000000000000184
210
0.0
220
1.0
230
-0.0000000000000002
  0
LINE
  5
1C07
  8
0
 10
284.4366715576380784
 20
-82.920160399450495
 30
0.0000000000000184
 11
283.848985375360428
 21
-76.2028765984051972
 31
0.0000000000000169
210
0.0
220
1.0
230
-0.0000000000000002
  0
LINE
  5
1C08
  8
0
 10
336.2118302682752073
 20
-82.9201603994505092
 30
0.0000000000000184
 11
336.7995164505530283
 21
-76.2028765984051972
 31
0.0000000000000169
210
0.0
220
1.0
230
-0.0000000000000002
  0
ARC
  5
1C09
  8
0
 10
-330.3242509129444215
 20
-75.636364270544675
 30
0.0
 40
6.5000000000122773
210
0.0
220
-0.0000000000000002
230
-1.0
 50
180.0000000000067928
 51
184.999999999996902
  0
ARC
  5
1C0A
  8
0
 10
-290.3242509129694895
 20
-75.6363642705446608
 30
0.0
 40
6.5000000000127889
210
0.0
220
-0.0000000000000002
230
-1.0
 50
355.0000000000031832
 51
359.9999999999928946
  0
LINE
  5
1C0B
  8
0
 10
283.8242509129566997
 20
-75.6363642705454566
 30
0.0000000000000168
 11
283.8242509129566997
 21
-54.9201603994529393
 31
0.0000000000000122
210
0.0
220
1.0
230
-0.0000000000000002
  0
LINE
  5
1C0C
  8
0
 10
336.8242509129568134
 20
-75.6363642705454708
 30
0.0000000000000168
 11
336.8242509129568134
 21
-54.9201603994529393
 31
0.0000000000000122
210
0.0
220
1.0
230
-0.0000000000000002
  0
LINE
  5
1C0D
  8
0
 10
259.3242509129566997
 20
85.0798396005471744
 30
-0.0000000000000189
 11
361.3242509129566997
 21
85.0798396005471744
 31
-0.0000000000000189
210
0.0
220
1.0
230
-0.0000000000000002
  0
LINE
  5
1C0E
  8
0
 10
259.3242509129566997
 20
5.079839600547146
 30
-0.0000000000000011
 11
361.3242509129566997
 21
5.079839600547146
 31
-0.0000000000000011
210
0.0
220
1.0
230
-0.0000000000000002
  0
LINE
  5
1C0F
  8
0
 10
361.3242509129566997
 20
85.0798396005471744
 30
-0.0000000000000189
 11
361.3242509129566997
 21
5.079839600547146
 31
-0.0000000000000011
210
0.0
220
1.0
230
-0.0000000000000002
  0
LINE
  5
1C10
  8
0
 10
259.3242509129566997
 20
85.0798396005471744
 30
-0.0000000000000189
 11
259.3242509129566997
 21
5.079839600547146
 31
-0.0000000000000011
210
0.0
220
1.0
230
-0.0000000000000002
  0
LINE
  5
1C11
  8
0
  6
VERDECKT
 62
     1
 10
353.224250912956677
 20
-36.9201603994530814
 30
0.0000000000000082
 11
267.4242509129566088
 21
-36.9201603994530529
 31
0.0000000000000082
210
0.0
220
1.0
230
-0.0000000000000002
  0
LINE
  5
1C12
  8
0
  6
VERDECKT
 62
     1
 10
340.8242509129566997
 20
-46.9201603994530529
 30
0.0000000000000104
 11
279.8242509129566997
 21
-46.9201603994530529
 31
0.0000000000000104
210
0.0
220
1.0
230
-0.0000000000000002
  0
LINE
  5
1C13
  8
0
  6
VERDECKT
 62
     1
 10
267.4242509129566088
 20
-52.9201603994529819
 30
0.0000000000000118
 11
267.4242509129566088
 21
-36.9201603994530529
 31
0.0000000000000082
210
0.0
220
1.0
230
-0.0000000000000002
  0
LINE
  5
1C14
  8
0
  6
VERDECKT
 62
     1
 10
353.224250912956677
 20
-52.9201603994529819
 30
0.0000000000000118
 11
353.224250912956677
 21
-36.9201603994530529
 31
0.0000000000000082
210
0.0
220
1.0
230
-0.0000000000000002
  0
LINE
  5
1C15
  8
0
  6
VERDECKT
 62
     1
 10
283.8242509129566997
 20
-46.9201603994530032
 30
0.0000000000000104
 11
283.8242509129566997
 21
-36.9201603994530529
 31
0.0000000000000082
210
0.0
220
1.0
230
-0.0000000000000002
  0
LINE
  5
1C16
  8
0
  6
VERDECKT
 62
     1
 10
336.8242509129566997
 20
-46.9201603994530032
 30
0.0000000000000104
 11
336.8242509129566997
 21
-36.9201603994530529
 31
0.0000000000000082
210
0.0
220
1.0
230
-0.0000000000000002
  0
LINE
  5
1C17
  8
0
  6
VERDECKT
 62
     1
 10
340.8242509129566997
 20
-46.9201603994530529
 30
0.0000000000000104
 11
344.2883525280944923
 21
-52.9201603994530601
 31
0.0000000000000118
210
0.0
220
1.0
230
-0.0000000000000002
  0
LINE
  5
1C18
  8
0
  6
VERDECKT
 62
     1
 10
279.8242509129566997
 20
-46.9201603994530529
 30
0.0000000000000104
 11
276.3601492978189071
 21
-52.9201603994530601
 31
0.0000000000000118
210
0.0
220
1.0
230
-0.0000000000000002
  0
LINE
  5
1C19
  8
0
  6
VERDECKT
 62
     1
 10
271.8242509129556765
 20
-54.9201603994531666
 30
0.0000000000000122
 11
271.8242509129556765
 21
-52.9201603994529535
 31
0.0000000000000118
210
0.0
220
1.0
230
-0.0000000000000002
  0
LINE
  5
1C1A
  8
0
  6
VERDECKT
 62
     1
 10
348.8242509129577229
 20
-54.9201603994531666
 30
0.0000000000000122
 11
348.8242509129577229
 21
-52.9201603994529535
 31
0.0000000000000118
210
0.0
220
1.0
230
-0.0000000000000002
  0
LINE
  5
1C1B
  8
0
  6
VERDECKT
 62
     1
 10
265.852091490861028
 20
-4.56965671302064
 30
0.000000000000001
 11
261.3242509129566997
 21
5.079839600547146
 31
-0.0000000000000011
210
0.0
220
1.0
230
-0.0000000000000002
  0
LINE
  5
1C1C
  8
0
  6
VERDECKT
 62
     1
 10
354.7964103350524283
 20
-4.56965671302064
 30
0.000000000000001
 11
359.3242509129566997
 21
5.079839600547146
 31
-0.0000000000000011
210
0.0
220
1.0
230
-0.0000000000000002
  0
ARC
  5
1C1D
  8
0
  6
VERDECKT
 62
     1
 10
-369.8242509129561881
 20
-11.6211819072669993
 30
0.0
 40
16.5999999999995111
210
0.0
220
-0.0000000000000002
230
-1.0
 50
0.0
 51
25.1374145025154583
  0
ARC
  5
1C1E
  8
0
  6
VERDECKT
 62
     1
 10
-250.8242509129570976
 20
-11.6211819072669993
 30
0.0
 40
16.5999999999995111
210
0.0
220
-0.0000000000000002
230
-1.0
 50
154.8625854974847869
 51
180.000000000000199
  0
LINE
  5
1C1F
  8
0
  6
VERDECKT
 62
     1
 10
267.4242509129566088
 20
-52.9201603994528824
 30
0.0000000000000118
 11
267.4242509129566088
 21
-11.6211819072670792
 31
0.0000000000000026
210
0.0
220
1.0
230
-0.0000000000000002
  0
LINE
  5
1C20
  8
0
  6
VERDECKT
 62
     1
 10
353.224250912956677
 20
-52.9201603994528824
 30
0.0000000000000118
 11
353.224250912956677
 21
-11.6211819072670792
 31
0.0000000000000026
210
0.0
220
1.0
230
-0.0000000000000002
  0
LINE
  5
1C21
  8
0
  6
VERDECKT
 62
     1
 10
334.7175382211377155
 20
-82.7894267853290273
 30
0.0000000000000184
 11
285.9309636047757976
 21
-82.7894267853290273
 31
0.0000000000000184
210
0.0
220
1.0
230
-0.0000000000000002
  0
LINE
  5
1C22
  8
0
  6
VERDECKT
 62
     1
 10
346.488840716331822
 20
19.4090192072995293
 30
-0.0000000000000043
 11
274.1596611095815774
 21
19.4090192072995293
 31
-0.0000000000000043
210
0.0
220
1.0
230
-0.0000000000000002
  0
ARC
  5
1C23
  8
0
  6
VERDECKT
 62
     1
 10
-330.3242509129648283
 20
-75.6363642705457266
 30
0.0
 40
4.9999999999919282
210
0.0
220
-0.0000000000000002
230
-1.0
 50
179.9999999999967031
 51
185.0000000000046043
  0
ARC
  5
1C24
  8
0
  6
VERDECKT
 62
     1
 10
-290.324250912948628
 20
-75.6363642705457266
 30
0.0
 40
4.9999999999919282
210
0.0
220
-0.0000000000000002
230
-1.0
 50
354.9999999999953957
 51
0.0000000000032569
  0
LINE
  5
1C25
  8
0
  6
VERDECKT
 62
     1
 10
285.9309636047757976
 20
-82.7894267853290131
 30
0.0000000000000184
 11
285.3432774224979767
 21
-76.0721429842837154
 31
0.0000000000000169
210
0.0
220
1.0
230
-0.0000000000000002
  0
LINE
  5
1C26
  8
0
  6
VERDECKT
 62
     1
 10
334.7175382211376018
 20
-82.7894267853290273
 30
0.0000000000000184
 11
335.3052244034154228
 21
-76.0721429842837154
 31
0.0000000000000169
210
0.0
220
1.0
230
-0.0000000000000002
  0
LINE
  5
1C27
  8
0
  6
VERDECKT
 62
     1
 10
334.7175382211377155
 20
-82.7894267853290273
 30
0.0000000000000184
 11
336.211830268275321
 21
-82.9201603994505092
 31
0.0000000000000184
210
0.0
220
1.0
230
-0.0000000000000002
  0
LINE
  5
1C28
  8
0
  6
VERDECKT
 62
     1
 10
285.9309636047757976
 20
-82.7894267853290273
 30
0.0000000000000184
 11
284.4366715576380784
 21
-82.9201603994505092
 31
0.0000000000000184
210
0.0
220
1.0
230
-0.0000000000000002
  0
ARC
  5
1C29
  8
0
  6
VERDECKT
 62
     1
 10
-352.8242509129560744
 20
-3.6972480394468352
 30
0.0
 40
17.4999999999993214
210
0.0
220
-0.0000000000000002
230
-1.0
 50
359.9999999999996021
 51
26.565051177079031
  0
ARC
  5
1C2A
  8
0
  6
VERDECKT
 62
     1
 10
-267.824250912957325
 20
-3.6972480394468281
 30
0.0
 40
17.4999999999993214
210
0.0
220
-0.0000000000000002
230
-1.0
 50
153.434948822921001
 51
180.0000000000003126
  0
LINE
  5
1C2B
  8
0
  6
VERDECKT
 62
     1
 10
283.4767267554549903
 20
4.1289898818024096
 30
-0.0000000000000009
 11
275.5013018960814861
 21
20.0798396005494517
 31
-0.0000000000000045
210
0.0
220
1.0
230
-0.0000000000000002
  0
LINE
  5
1C2C
  8
0
  6
VERDECKT
 62
     1
 10
337.1717750704584091
 20
4.1289898818024096
 30
-0.0000000000000009
 11
345.1471999298319133
 21
20.0798396005494517
 31
-0.0000000000000045
210
0.0
220
1.0
230
-0.0000000000000002
  0
LINE
  5
1C2D
  8
0
  6
VERDECKT
 62
     1
 10
345.1471999298319133
 20
20.0798396005494517
 30
-0.0000000000000045
 11
346.488840716331822
 21
19.4090192072995293
 31
-0.0000000000000043
210
0.0
220
1.0
230
-0.0000000000000002
  0
LINE
  5
1C2E
  8
0
  6
VERDECKT
 62
     1
 10
275.5013018960814861
 20
20.0798396005494517
 30
-0.0000000000000045
 11
274.1596611095815774
 21
19.4090192072995293
 31
-0.0000000000000043
210
0.0
220
1.0
230
-0.0000000000000002
  0
LINE
  5
1C2F
  8
0
  6
VERDECKT
 62
     1
 10
282.135085968955309
 20
3.4581694885523531
 30
-0.0000000000000008
 11
274.1596611095815774
 21
19.4090192072995187
 31
-0.0000000000000043
210
0.0
220
1.0
230
-0.0000000000000002
  0
LINE
  5
1C30
  8
0
  6
VERDECKT
 62
     1
 10
338.5134158569580904
 20
3.4581694885523531
 30
-0.0000000000000008
 11
346.488840716331822
 21
19.4090192072995187
 31
-0.0000000000000043
210
0.0
220
1.0
230
-0.0000000000000002
  0
ARC
  5
1C31
  8
0
  6
VERDECKT
 62
     1
 10
-352.8242509129564155
 20
-3.6972480394468499
 30
0.0
 40
15.9999999999996003
210
0.0
220
-0.0000000000000002
230
-1.0
 50
359.9999999999997726
 51
26.5650511770782316
  0
ARC
  5
1C32
  8
0
  6
VERDECKT
 62
     1
 10
-267.8242509129569839
 20
-3.697248039446845
 30
0.0
 40
15.9999999999996003
210
0.0
220
-0.0000000000000002
230
-1.0
 50
153.4349488229217116
 51
180.0000000000001137
  0
LINE
  5
1C33
  8
0
  6
VERDECKT
 62
     1
 10
283.8242509129566997
 20
-54.9201603994529393
 30
0.0000000000000122
 11
283.8242509129566997
 21
-3.6972480394468978
 31
0.0000000000000008
210
0.0
220
1.0
230
-0.0000000000000002
  0
LINE
  5
1C34
  8
0
  6
VERDECKT
 62
     1
 10
336.8242509129568134
 20
-54.9201603994529393
 30
0.0000000000000122
 11
336.8242509129568134
 21
-3.6972480394468978
 31
0.0000000000000008
210
0.0
220
1.0
230
-0.0000000000000002
  0
LINE
  5
1C35
  8
0
  6
VERDECKT
 62
     1
 10
285.324250912956586
 20
-75.6363642705454424
 30
0.0000000000000168
 11
285.324250912956586
 21
-3.6972480394469329
 31
0.0000000000000008
210
0.0
220
1.0
230
-0.0000000000000002
  0
LINE
  5
1C36
  8
0
  6
VERDECKT
 62
     1
 10
335.3242509129568134
 20
-75.6363642705454424
 30
0.0000000000000168
 11
335.3242509129568134
 21
-3.6972480394469329
 31
0.0000000000000008
210
0.0
220
1.0
230
-0.0000000000000002
  0
LINE
  5
1C37
  8
0
  6
VERDECKT
 62
     1
 10
359.3242509129566997
 20
85.0798396005471744
 30
-0.0000000000000189
 11
359.3242509129566997
 21
5.079839600547146
 31
-0.0000000000000011
210
0.0
220
1.0
230
-0.0000000000000002
  0
LINE
  5
1C38
  8
0
  6
VERDECKT
 62
     1
 10
261.3242509129566997
 20
85.0798396005471744
 30
-0.0000000000000189
 11
261.3242509129566997
 21
5.079839600547146
 31
-0.0000000000000011
210
0.0
220
1.0
230
-0.0000000000000002
  0
LINE
  5
1C39
  8
0
  6
VERDECKT
 62
     1
 10
353.224250912956677
 20
-36.9201603994530529
 30
0.0000000000000082
 11
267.4242509129566088
 21
-36.9201603994530529
 31
0.0000000000000082
210
0.0
220
1.0
230
-0.0000000000000002
  0
LINE
  5
1C3A
  8
0
  6
VERDECKT
 62
     1
 10
261.3242509129566997
 20
71.0798396005471176
 30
-0.0000000000000158
 11
359.3242509129566997
 21
71.0798396005471176
 31
-0.0000000000000158
210
0.0
220
1.0
230
-0.0000000000000002
  0
LINE
  5
1C3B
  8
0
  6
VERDECKT
 62
     1
 10
273.8242509129566997
 20
20.0798396005494411
 30
-0.0000000000000045
 11
346.8242509129566997
 21
20.0798396005494411
 31
-0.0000000000000045
210
0.0
220
1.0
230
-0.0000000000000002
  0
LINE
  5
1C3C
  8
0
  6
VERDECKT
 62
     1
 10
265.852091490861028
 20
-4.56965671302064
 30
0.000000000000001
 11
261.3242509129566997
 21
5.079839600547146
 31
-0.0000000000000011
210
0.0
220
1.0
230
-0.0000000000000002
  0
LINE
  5
1C3D
  8
0
  6
VERDECKT
 62
     1
 10
354.7964103350524283
 20
-4.56965671302064
 30
0.000000000000001
 11
359.3242509129566997
 21
5.0798396005471478
 31
-0.0000000000000011
210
0.0
220
1.0
230
-0.0000000000000002
  0
ARC
  5
1C3E
  8
0
  6
VERDECKT
 62
     1
 10
-369.8242509129561881
 20
-11.6211819072669993
 30
0.0
 40
16.5999999999995111
210
0.0
220
-0.0000000000000002
230
-1.0
 50
0.0
 51
25.1374145025154583
  0
ARC
  5
1C3F
  8
0
  6
VERDECKT
 62
     1
 10
-250.8242509129570976
 20
-11.6211819072669993
 30
0.0
 40
16.5999999999995111
210
0.0
220
-0.0000000000000002
230
-1.0
 50
154.8625854974847869
 51
180.000000000000199
  0
LINE
  5
1C40
  8
0
  6
VERDECKT
 62
     1
 10
267.4242509129566088
 20
-36.9201603994530529
 30
0.0000000000000082
 11
267.4242509129566088
 21
-11.6211819072670792
 31
0.0000000000000026
210
0.0
220
1.0
230
-0.0000000000000002
  0
LINE
  5
1C41
  8
0
  6
VERDECKT
 62
     1
 10
353.224250912956677
 20
-36.9201603994530529
 30
0.0000000000000082
 11
353.224250912956677
 21
-11.6211819072670792
 31
0.0000000000000026
210
0.0
220
1.0
230
-0.0000000000000002
  0
LINE
  5
1C42
  8
0
  6
VERDECKT
 62
     1
 10
352.4242509129551877
 20
71.0798396005471176
 30
-0.0000000000000158
 11
352.4242509129551877
 21
65.5181196487948654
 31
-0.0000000000000145
210
0.0
220
1.0
230
-0.0000000000000002
  0
LINE
  5
1C43
  8
0
  6
VERDECKT
 62
     1
 10
268.2242509129582118
 20
71.0798396005471176
 30
-0.0000000000000158
 11
268.2242509129582118
 21
65.5181196487948654
 31
-0.0000000000000145
210
0.0
220
1.0
230
-0.0000000000000002
  0
ARC
  5
1C44
  8
0
  6
VERDECKT
 62
     1
 10
-293.2242509129728205
 20
65.4498396005527923
 30
0.0
 40
25.0000932431405403
210
0.0
220
-0.0000000000000002
230
-1.0
 50
338.8168456069695935
 51
0.1564859544690123
  0
ARC
  5
1C45
  8
0
  6
VERDECKT
 62
     1
 10
-327.4242509129405221
 20
65.4498396005528065
 30
0.0
 40
25.0000932431406007
210
0.0
220
-0.0000000000000002
230
-1.0
 50
179.8435140455310091
 51
201.1831543930304917
  0
ARC
  5
1C46
  8
0
  6
VERDECKT
 62
     1
 10
-258.7242509129496852
 20
52.0798396005481408
 30
0.0
 40
12.0000000000084093
210
0.0
220
-0.0000000000000002
230
-1.0
 50
158.8168456069730041
 51
179.9999999999967031
  0
ARC
  5
1C47
  8
0
  6
VERDECKT
 62
     1
 10
-361.9242509129636005
 20
52.0798396005481408
 30
0.0
 40
12.0000000000084093
210
0.0
220
-0.0000000000000002
230
-1.0
 50
0.0000000000032569
 51
21.1831543930269817
  0
LINE
  5
1C48
  8
0
  6
VERDECKT
 62
     1
 10
349.9242509129551877
 20
52.0798396005488229
 30
-0.0000000000000116
 11
349.9242509129551877
 21
35.4685660179663671
 31
-0.0000000000000079
210
0.0
220
1.0
230
-0.0000000000000002
  0
LINE
  5
1C49
  8
0
  6
VERDECKT
 62
     1
 10
270.7242509129580981
 20
52.0798396005488229
 30
-0.0000000000000116
 11
270.7242509129580981
 21
35.4685660179663671
 31
-0.0000000000000079
210
0.0
220
1.0
230
-0.0000000000000002
  0
ARC
  5
1C4A
  8
0
  6
VERDECKT
 62
     1
 10
-282.7242509129559949
 20
35.4685660179639299
 30
0.0
 40
11.9999999999978293
210
0.0
220
-0.0000000000000002
230
-1.0
 50
327.6719358778457831
 51
0.0000000000116663
  0
ARC
  5
1C4B
  8
0
  6
VERDECKT
 62
     1
 10
-337.9242509129575183
 20
35.4685660179639299
 30
0.0
 40
11.9999999999977796
210
0.0
220
-0.0000000000000002
230
-1.0
 50
179.9999999999882903
 51
212.3280641221541885
  0
ARC
  5
1C4C
  8
0
  6
VERDECKT
 62
     1
 10
-265.8242509129541986
 20
24.7732399359806088
 30
0.0
 40
8.0000000000025029
210
0.0
220
-0.0000000000000002
230
-1.0
 50
147.6719358778458115
 51
179.9999999999982094
  0
ARC
  5
1C4D
  8
0
  6
VERDECKT
 62
     1
 10
-354.8242509129592008
 20
24.7732399359806017
 30
0.0
 40
8.0000000000025011
210
0.0
220
-0.0000000000000002
230
-1.0
 50
0.0000000000018574
 51
32.3280641221541671
  0
LINE
  5
1C4E
  8
0
  6
VERDECKT
 62
     1
 10
346.8242509129566997
 20
24.773239935980861
 30
-0.0000000000000055
 11
346.8242509129566997
 21
20.0798396005494411
 31
-0.0000000000000045
210
0.0
220
1.0
230
-0.0000000000000002
  0
LINE
  5
1C4F
  8
0
  6
VERDECKT
 62
     1
 10
273.8242509129566997
 20
24.773239935980861
 30
-0.0000000000000055
 11
273.8242509129566997
 21
20.0798396005494411
 31
-0.0000000000000045
210
0.0
220
1.0
230
-0.0000000000000002
  0
LINE
  5
1C50
  8
0
  6
VERDECKT
 62
     1
 10
282.1350859689562753
 20
3.4581694885523282
 30
-0.0000000000000008
 11
273.824250912958405
 21
20.0798396005503008
 31
-0.0000000000000045
210
0.0
220
1.0
230
-0.0000000000000002
  0
LINE
  5
1C51
  8
0
  6
VERDECKT
 62
     1
 10
338.5134158569571241
 20
3.4581694885523282
 30
-0.0000000000000008
 11
346.8242509129549944
 21
20.0798396005503008
 31
-0.0000000000000045
210
0.0
220
1.0
230
-0.0000000000000002
  0
ARC
  5
1C52
  8
0
  6
VERDECKT
 62
     1
 10
-267.8242509129511859
 20
-3.6972480394463361
 30
0.0
 40
16.0000000000055103
210
0.0
220
-0.0000000000000002
230
-1.0
 50
153.4349488229343876
 51
180.0000000000011084
  0
ARC
  5
1C53
  8
0
  6
VERDECKT
 62
     1
 10
-352.8242509129622135
 20
-3.6972480394463441
 30
0.0
 40
16.0000000000055103
210
0.0
220
-0.0000000000000002
230
-1.0
 50
0.0
 51
26.5650511770667599
  0
LINE
  5
1C54
  8
0
  6
VERDECKT
 62
     1
 10
336.8242509129566997
 20
-3.6972480394466918
 30
0.0000000000000008
 11
336.8242509129566997
 21
-36.9201603994530529
 31
0.0000000000000082
210
0.0
220
1.0
230
-0.0000000000000002
  0
LINE
  5
1C55
  8
0
  6
VERDECKT
 62
     1
 10
283.8242509129566997
 20
-3.6972480394466918
 30
0.0000000000000008
 11
283.8242509129566997
 21
-36.9201603994530529
 31
0.0000000000000082
210
0.0
220
1.0
230
-0.0000000000000002
  0
LINE
  5
1C56
  8
0
  6
VERDECKT
 62
     1
 10
261.3242509129566997
 20
5.079839600547146
 30
-0.0000000000000011
 11
261.3242509129566997
 21
71.0798396005471034
 31
-0.0000000000000158
210
0.0
220
1.0
230
-0.0000000000000002
  0
LINE
  5
1C57
  8
0
  6
VERDECKT
 62
     1
 10
359.3242509129566997
 20
5.079839600547146
 30
-0.0000000000000011
 11
359.3242509129566997
 21
71.0798396005471176
 31
-0.0000000000000158
210
0.0
220
1.0
230
-0.0000000000000002
  0
LINE
  5
1C58
  8
0
  6
VERDECKT
 62
     1
 10
261.3242509129566997
 20
71.0798396005471034
 30
-0.0000000000000158
 11
359.3242509129566997
 21
71.0798396005471034
 31
-0.0000000000000158
210
0.0
220
1.0
230
-0.0000000000000002
  0
LINE
  5
1C59
  8
0
  6
VERDECKT
 62
     1
 10
359.3242509129566997
 20
85.0798396005471744
 30
-0.0000000000000189
 11
359.3242509129566997
 21
71.0798396005471034
 31
-0.0000000000000158
210
0.0
220
1.0
230
-0.0000000000000002
  0
LINE
  5
1C5A
  8
0
  6
VERDECKT
 62
     1
 10
261.3242509129566997
 20
85.0798396005471744
 30
-0.0000000000000189
 11
261.3242509129566997
 21
71.0798396005471034
 31
-0.0000000000000158
210
0.0
220
1.0
230
-0.0000000000000002
  0
LINE
  5
1C5B
  8
0
  6
VERDECKT
 62
     1
 10
352.4242509129567225
 20
74.5309171934285217
 30
-0.0000000000000165
 11
352.4242509129567225
 21
71.0798396005471176
 31
-0.0000000000000158
210
0.0
220
1.0
230
-0.0000000000000002
  0
LINE
  5
1C5C
  8
0
  6
VERDECKT
 62
     1
 10
268.224250912956677
 20
74.5309171934285217
 30
-0.0000000000000165
 11
268.224250912956677
 21
71.0798396005471176
 31
-0.0000000000000158
210
0.0
220
1.0
230
-0.0000000000000002
  0
ARC
  5
1C5D
  8
0
  6
VERDECKT
 62
     1
 10
-293.2242509129558812
 20
74.530917193428678
 30
0.0
 40
24.999999999999261
210
0.0
220
-0.0000000000000002
230
-1.0
 50
359.9999999999996021
 51
24.9581963123098696
  0
ARC
  5
1C5E
  8
0
  6
VERDECKT
 62
     1
 10
-327.4242509129575183
 20
74.5309171934287065
 30
0.0
 40
24.999999999999261
210
0.0
220
-0.0000000000000002
230
-1.0
 50
155.0418036876901056
 51
180.0000000000003979
  0
LINE
  5
1C5F
  8
0
  6
VERDECKT
 62
     1
 10
346.8242509129566997
 20
20.0798396005494517
 30
-0.0000000000000045
 11
310.3242509129566997
 21
20.0798396005494517
 31
-0.0000000000000045
210
0.0
220
1.0
230
-0.0000000000000002
  0
LINE
  5
1C60
  8
0
  6
VERDECKT
 62
     1
 10
310.3242509129566997
 20
20.0798396005494517
 30
-0.0000000000000045
 11
273.8242509129566997
 21
20.0798396005494517
 31
-0.0000000000000045
210
0.0
220
1.0
230
-0.0000000000000002
  0
ARC
  5
1C61
  8
0
  6
VERDECKT
 62
     1
 10
-293.2242509129558812
 20
74.5309171934310228
 30
0.0
 40
24.999999999999261
210
0.0
220
-0.0000000000000002
230
-1.0
 50
0.0
 51
24.9581963123102888
  0
ARC
  5
1C62
  8
0
  6
VERDECKT
 62
     1
 10
-327.4242509129575183
 20
74.530917193431037
 30
0.0
 40
24.999999999999261
210
0.0
220
-0.0000000000000002
230
-1.0
 50
155.0418036876901056
 51
180.0000000000003979
  0
LINE
  5
1C63
  8
0
  6
VERDECKT
 62
     1
 10
352.4242509129566088
 20
74.5309171934308523
 30
-0.0000000000000165
 11
352.4242509129566088
 21
65.5181196487948938
 31
-0.0000000000000145
210
0.0
220
1.0
230
-0.0000000000000002
  0
LINE
  5
1C64
  8
0
  6
VERDECKT
 62
     1
 10
268.2242509129567907
 20
74.5309171934308381
 30
-0.0000000000000165
 11
268.2242509129567907
 21
65.5181196487948938
 31
-0.0000000000000145
210
0.0
220
1.0
230
-0.0000000000000002
  0
ARC
  5
1C65
  8
0
  6
VERDECKT
 62
     1
 10
-293.2242509129569044
 20
65.4498396005493248
 30
0.0
 40
25.0000932431258889
210
0.0
220
-0.0000000000000002
230
-1.0
 50
338.8168456069648755
 51
0.156485954477129
  0
ARC
  5
1C66
  8
0
  6
VERDECKT
 62
     1
 10
-327.4242509129566088
 20
65.4498396005493248
 30
0.0
 40
25.0000932431258214
210
0.0
220
-0.0000000000000002
230
-1.0
 50
179.8435140455227952
 51
201.1831543930350108
  0
ARC
  5
1C67
  8
0
  6
VERDECKT
 62
     1
 10
-258.7242509129551991
 20
52.0798396005491213
 30
0.0
 40
12.0000000000014797
210
0.0
220
-0.0000000000000002
230
-1.0
 50
158.8168456069651882
 51
179.9999999999982947
  0
ARC
  5
1C68
  8
0
  6
VERDECKT
 62
     1
 10
-361.9242509129583141
 20
52.0798396005491
 30
0.0
 40
12.0000000000015294
210
0.0
220
-0.0000000000000002
230
-1.0
 50
0.0000000000016666
 51
21.1831543930346484
  0
LINE
  5
1C69
  8
0
  6
VERDECKT
 62
     1
 10
349.9242509129567225
 20
52.0798396005494624
 30
-0.0000000000000116
 11
349.9242509129567225
 21
35.4685660179664382
 31
-0.0000000000000079
210
0.0
220
1.0
230
-0.0000000000000002
  0
LINE
  5
1C6A
  8
0
  6
VERDECKT
 62
     1
 10
270.724250912956677
 20
52.0798396005494624
 30
-0.0000000000000116
 11
270.724250912956677
 21
35.4685660179664382
 31
-0.0000000000000079
210
0.0
220
1.0
230
-0.0000000000000002
  0
ARC
  5
1C6B
  8
0
  6
VERDECKT
 62
     1
 10
-282.7242509129561086
 20
35.4685660179662818
 30
0.0
 40
11.9999999999993694
210
0.0
220
-0.0000000000000002
230
-1.0
 50
327.6719358778373135
 51
0.0000000000008002
  0
ARC
  5
1C6C
  8
0
  6
VERDECKT
 62
     1
 10
-337.9242509129574046
 20
35.4685660179662818
 30
0.0
 40
11.9999999999993694
210
0.0
220
-0.0000000000000002
230
-1.0
 50
179.9999999999992042
 51
212.3280641221626865
  0
ARC
  5
1C6D
  8
0
  6
VERDECKT
 62
     1
 10
-265.8242509129561881
 20
24.7732399359807509
 30
0.0
 40
8.0000000000004547
210
0.0
220
-0.0000000000000002
230
-1.0
 50
147.6719358778377966
 51
179.9999999999990905
  0
ARC
  5
1C6E
  8
0
  6
VERDECKT
 62
     1
 10
-354.8242509129570976
 20
24.7732399359807509
 30
0.0
 40
8.0000000000004547
210
0.0
220
-0.0000000000000002
230
-1.0
 50
0.0
 51
32.328064122161301
  0
LINE
  5
1C6F
  8
0
  6
VERDECKT
 62
     1
 10
346.8242509129566997
 20
24.7732399359808717
 30
-0.0000000000000055
 11
346.8242509129566997
 21
20.0798396005494517
 31
-0.0000000000000045
210
0.0
220
1.0
230
-0.0000000000000002
  0
LINE
  5
1C70
  8
0
  6
VERDECKT
 62
     1
 10
273.8242509129566997
 20
24.7732399359808717
 30
-0.0000000000000055
 11
273.8242509129566997
 21
20.0798396005494517
 31
-0.0000000000000045
210
0.0
220
1.0
230
-0.0000000000000002
  0
LINE
  5
1C71
  8
0
  6
VERDECKT
 62
     1
 10
345.2242509129567907
 20
24.7732399359809108
 30
-0.0000000000000055
 11
345.2242509129567907
 21
20.0798396005494517
 31
-0.0000000000000045
210
0.0
220
1.0
230
-0.0000000000000002
  0
LINE
  5
1C72
  8
0
  6
VERDECKT
 62
     1
 10
275.4242509129566088
 20
24.7732399359809108
 30
-0.0000000000000055
 11
275.4242509129566088
 21
20.0798396005494517
 31
-0.0000000000000045
210
0.0
220
1.0
230
-0.0000000000000002
  0
ARC
  5
1C73
  8
0
  6
VERDECKT
 62
     1
 10
-265.8242509129561881
 20
24.7732399359807083
 30
0.0
 40
9.6000000000003656
210
0.0
220
-0.0000000000000002
230
-1.0
 50
147.6719358778377114
 51
179.9999999999988916
  0
ARC
  5
1C74
  8
0
  6
VERDECKT
 62
     1
 10
-354.8242509129572113
 20
24.7732399359807083
 30
0.0
 40
9.6000000000004206
210
0.0
220
-0.0000000000000002
230
-1.0
 50
0.000000000001145
 51
32.3280641221621394
  0
ARC
  5
1C75
  8
0
  6
VERDECKT
 62
     1
 10
-282.7242509129574159
 20
35.4685660179664168
 30
0.0
 40
10.4000000000006594
210
0.0
220
-0.0000000000000002
230
-1.0
 50
327.6719358778403262
 51
0.0000000000001145
  0
ARC
  5
1C76
  8
0
  6
VERDECKT
 62
     1
 10
-337.9242509129559835
 20
35.4685660179664168
 30
0.0
 40
10.4000000000007091
210
0.0
220
-0.0000000000000002
230
-1.0
 50
179.9999999999998863
 51
212.3280641221595886
  0
LINE
  5
1C77
  8
0
  6
VERDECKT
 62
     1
 10
348.3242509129566997
 20
52.0798396005494624
 30
-0.0000000000000116
 11
348.3242509129566997
 21
35.4685660179664382
 31
-0.0000000000000079
210
0.0
220
1.0
230
-0.0000000000000002
  0
LINE
  5
1C78
  8
0
  6
VERDECKT
 62
     1
 10
272.3242509129566997
 20
52.0798396005494624
 30
-0.0000000000000116
 11
272.3242509129566997
 21
35.4685660179664382
 31
-0.0000000000000079
210
0.0
220
1.0
230
-0.0000000000000002
  0
ARC
  5
1C79
  8
0
  6
VERDECKT
 62
     1
 10
-258.7242509129573023
 20
52.079839600549569
 30
0.0
 40
13.5999999999993904
210
0.0
220
-0.0000000000000002
230
-1.0
 50
158.8168456069637955
 51
180.0000000000003979
  0
ARC
  5
1C7A
  8
0
  6
VERDECKT
 62
     1
 10
-361.9242509129559835
 20
52.0798396005495832
 30
0.0
 40
13.5999999999992802
210
0.0
220
-0.0000000000000002
230
-1.0
 50
359.9999999999994884
 51
21.1831543930363395
  0
ARC
  5
1C7B
  8
0
  6
VERDECKT
 62
     1
 10
-293.224250912955597
 20
65.4498396005492111
 30
0.0
 40
23.4000932431246298
210
0.0
220
-0.0000000000000002
230
-1.0
 50
338.8168456069640797
 51
0.161747431124253
  0
ARC
  5
1C7C
  8
0
  6
VERDECKT
 62
     1
 10
-327.4242509129576888
 20
65.4498396005492253
 30
0.0
 40
23.4000932431247399
210
0.0
220
-0.0000000000000002
230
-1.0
 50
179.8382525688757028
 51
201.1831543930358066
  0
LINE
  5
1C7D
  8
0
  6
VERDECKT
 62
     1
 10
350.8242509129568134
 20
74.5309171934308381
 30
-0.0000000000000165
 11
350.8242509129568134
 21
65.5158985664107405
 31
-0.0000000000000145
210
0.0
220
1.0
230
-0.0000000000000002
  0
LINE
  5
1C7E
  8
0
  6
VERDECKT
 62
     1
 10
269.824250912956586
 20
74.5309171934308381
 30
-0.0000000000000165
 11
269.824250912956586
 21
65.5158985664107405
 31
-0.0000000000000145
210
0.0
220
1.0
230
-0.0000000000000002
  0
ARC
  5
1C7F
  8
0
  6
VERDECKT
 62
     1
 10
-293.2242509129554833
 20
74.5309171934308239
 30
0.0
 40
23.3999999999989505
210
0.0
220
-0.0000000000000002
230
-1.0
 50
0.0000000000000382
 51
24.9999999999947988
  0
ARC
  5
1C80
  8
0
  6
VERDECKT
 62
     1
 10
-327.4242509129579162
 20
74.5309171934308097
 30
0.0
 40
23.3999999999989612
210
0.0
220
-0.0000000000000002
230
-1.0
 50
155.0000000000052012
 51
180.0
  0
LINE
  5
1C81
  8
0
  6
VERDECKT
 62
     1
 10
348.3242509129568134
 20
85.0798396005494766
 30
-0.0000000000000189
 11
348.6318531296154219
 21
84.4201845181607951
 31
-0.0000000000000187
210
0.0
220
1.0
230
-0.0000000000000002
  0
LINE
  5
1C82
  8
0
  6
VERDECKT
 62
     1
 10
272.324250912956586
 20
85.0798396005494766
 30
-0.0000000000000189
 11
272.0166486962979775
 21
84.4201845181607951
 31
-0.0000000000000187
210
0.0
220
1.0
230
-0.0000000000000002
  0
ENDBLK
  5
1C84
  8
0
  0
BLOCK
  8
0
  2
A$C95670705
 70
     0
 10
0.0
 20
0.0
 30
0.0
  3
A$C95670705
  1

  0
CIRCLE
  5
1C88
  8
0
 10
310.3242509129566997
 20
-39.8664434704120509
 30
0.0000000000000853
 40
24.3932873081809589
  0
CIRCLE
  5
1C89
  8
0
 10
310.3242509129566997
 20
-39.8664434704120367
 30
0.0000000000000786
 40
25.0000000000001101
  0
CIRCLE
  5
1C8A
  8
0
 10
310.3242509129566997
 20
-39.8664434704120367
 30
0.0000000000000782
 40
34.8229490168752065
  0
CIRCLE
  5
1C8B
  8
0
 10
310.3242509129566997
 20
-39.8664434704120367
 30
0.0000000000000853
 40
49.0
  0
CIRCLE
  5
1C8C
  8
0
 10
310.3242509129566997
 20
-39.8664434704120367
 30
0.0000000000000853
 40
51.0
  0
CIRCLE
  5
1C8D
  8
0
 10
310.3242509129566997
 20
-39.8664434704120367
 30
0.0000000000000853
 40
39.7653973282764426
  0
CIRCLE
  5
1C8E
  8
0
 10
310.3242509129566997
 20
-39.8664434704120367
 30
0.0000000000000853
 40
49.0
  0
CIRCLE
  5
1C8F
  8
0
 10
310.3242509129566997
 20
-39.8664434704120225
 30
0.0000000000000853
 40
39.7653973282764426
  0
CIRCLE
  5
1C90
  8
0
 10
310.3242509129566997
 20
-39.8664434704120225
 30
0.0000000000000782
 40
34.9000000000000909
  0
CIRCLE
  5
1C91
  8
0
 10
310.3242509129566997
 20
-39.8664434704120225
 30
0.0000000000000853
 40
38.0000000000001066
  0
CIRCLE
  5
1C92
  8
0
  6
VERDECKT
 62
     1
 10
310.3242509129566997
 20
-39.866443470412058
 30
0.0000000000000782
 40
30.5
  0
CIRCLE
  5
1C93
  8
0
  6
VERDECKT
 62
     1
 10
310.3242509129566997
 20
-39.866443470412058
 30
0.0000000000000782
 40
33.9641016151377997
  0
CIRCLE
  5
1C94
  8
0
  6
VERDECKT
 62
     1
 10
310.3242509129566997
 20
-39.866443470412058
 30
0.0000000000000782
 40
38.5000000000010303
  0
CIRCLE
  5
1C95
  8
0
  6
VERDECKT
 62
     1
 10
310.3242509129566997
 20
-39.8664434704120367
 30
0.0000000000000782
 40
42.9000000000000483
  0
CIRCLE
  5
1C96
  8
0
  6
VERDECKT
 62
     1
 10
310.3242509129566997
 20
-39.8664434704120367
 30
0.0000000000000782
 40
44.5
  0
CIRCLE
  5
1C97
  8
0
  6
VERDECKT
 62
     1
 10
310.3242509129566997
 20
-39.8664434704120367
 30
0.000000000000079
 40
50.4484665617257235
  0
CIRCLE
  5
1C98
  8
0
  6
VERDECKT
 62
     1
 10
310.3242509129566997
 20
-39.8664434704120509
 30
0.0000000000000853
 40
25.8875793553185716
  0
CIRCLE
  5
1C99
  8
0
  6
VERDECKT
 62
     1
 10
310.3242509129566997
 20
-39.8664434704120367
 30
0.0000000000000782
 40
36.1645898033750726
  0
CIRCLE
  5
1C9A
  8
0
  6
VERDECKT
 62
     1
 10
310.3242509129566997
 20
-39.8664434704120367
 30
0.0000000000000786
 40
26.5000000000001101
  0
CIRCLE
  5
1C9B
  8
0
  6
VERDECKT
 62
     1
 10
310.3242509129566997
 20
-39.8664434704120509
 30
0.0000000000000782
 40
42.9000000000000483
  0
CIRCLE
  5
1C9C
  8
0
  6
VERDECKT
 62
     1
 10
310.3242509129566997
 20
-39.8664434704120509
 30
0.0000000000000782
 40
39.5999999999985519
  0
CIRCLE
  5
1C9D
  8
0
  6
VERDECKT
 62
     1
 10
310.3242509129566997
 20
-39.8664434704120509
 30
0.0000000000000782
 40
36.5
  0
CIRCLE
  5
1C9E
  8
0
  6
VERDECKT
 62
     1
 10
310.3242509129566997
 20
-39.866443470412058
 30
0.0000000000000786
 40
26.5
  0
CIRCLE
  5
1C9F
  8
0
  6
VERDECKT
 62
     1
 10
310.3242509129566997
 20
-39.8664434704120367
 30
0.0000000000000853
 40
42.1000932431244195
  0
CIRCLE
  5
1CA0
  8
0
  6
VERDECKT
 62
     1
 10
310.3242509129566997
 20
-39.8664434704120509
 30
0.0000000000000853
 40
42.1000000000000227
  0
CIRCLE
  5
1CA1
  8
0
  6
VERDECKT
 62
     1
 10
310.3242509129566997
 20
-39.8664434704120225
 30
0.0000000000000853
 40
42.1000000000000227
  0
CIRCLE
  5
1CA2
  8
0
  6
VERDECKT
 62
     1
 10
310.3242509129566997
 20
-39.8664434704120225
 30
0.0000000000000782
 40
39.6000000000000227
  0
CIRCLE
  5
1CA3
  8
0
  6
VERDECKT
 62
     1
 10
310.3242509129566997
 20
-39.8664434704120225
 30
0.0000000000000782
 40
36.5
  0
CIRCLE
  5
1CA4
  8
0
  6
VERDECKT
 62
     1
 10
310.3242509129566997
 20
-39.8664434704120225
 30
0.0000000000000853
 40
40.5000000000001066
  0
CIRCLE
  5
1CA5
  8
0
  6
VERDECKT
 62
     1
 10
310.3242509129566997
 20
-39.8664434704120225
 30
0.0000000000000853
 40
42.1000932431257269
  0
CIRCLE
  5
1CA6
  8
0
  6
VERDECKT
 62
     1
 10
310.3242509129566997
 20
-39.8664434704120225
 30
0.0000000000000853
 40
40.5000932431257397
  0
ENDBLK
  5
1CA8
  8
0
  0
ENDSEC
  0
SECTION
  2
ENTITIES
  0
TEXT
  5
8F
  8
VOLL
 10
78.076754716981128
 20
31.025947764705851
 30
0.0
 40
1.8
  1

  7
GREEKS
  0
INSERT
  5
B3C
  8
ADSK_ASSOC_ENTITY_BACKUPS
  2
*S2
 10
0.0
 20
0.0
 30
0.0
  0
INSERT
  5
1C85
  8
STEMPEL
  2
A$CE3503EED
 10
169.0511862141190988
 20
-39.8664417266845703
 30
15.5956255809444109
  0
INSERT
  5
1CA9
  8
STEMPEL
  2
A$C95670705
 10
170.8167822181005135
 20
-161.6645278233525005
 30
15.5956255809443505
  0
VIEWPORT
  5
928
 67
     1
  8
0
 10
104.9325357368027056
 20
148.4488398705011889
 30
0.0
 40
533.9969448798291296
 41
299.1239570917758783
 68
     1
 69
     1
1001
ACAD
1000
MVIEW
1002
{
1070
    16
1010
0.0
1020
0.0
1030
0.0
1010
0.0
1020
0.0
1030
1.0
1040
0.0
1040
299.1239570917758783
1040
104.9325357368027056
1040
148.4488398705011889
1040
50.0
1040
0.0
1040
0.0
1070
     0
1070
  1500
1070
     1
1070
     1
1070
     0
1070
     0
1070
     0
1070
     0
1040
0.0
1040
0.0
1040
0.0
1040
10.0
1040
10.0
1040
10.0
1040
10.0
1070
     0
1002
{
1002
}
1002
}
  0
ENDSEC
  0
EOF
