  0
SECTION
  2
HEADER
  9
$ACADVER
  1
AC1009
  9
$INSBASE
 10
0.0
 20
0.0
 30
0.0
  9
$EXTMIN
 10
-44.4570065378858317
 20
-188.902179813468905
 30
69.0310904834804546
  9
$EXTMAX
 10
44.6939993843422982
 20
135.0159900762444067
 30
69.0310912692599032
  9
$LIMMIN
 10
0.0
 20
0.0
  9
$LIMMAX
 10
210.0
 20
297.0
  9
$ORTHOMODE
 70
     1
  9
$REGENMODE
 70
     1
  9
$FILLMODE
 70
     1
  9
$QTEXTMODE
 70
     0
  9
$MIRRTEXT
 70
     1
  9
$DRAGMODE
 70
     2
  9
$LTSCALE
 40
10.0
  9
$OSMODE
 70
  2559
  9
$ATTMODE
 70
     1
  9
$TEXTSIZE
 40
3.5
  9
$TRACEWID
 40
0.5
  9
$TEXTSTYLE
  7
STANDARD
  9
$CLAYER
  8
STEMPEL
  9
$CELTYPE
  6
BYLAYER
  9
$CECOLOR
 62
   256
  9
$DIMSCALE
 40
1.0
  9
$DIMASZ
 40
3.5
  9
$DIMEXO
 40
1.0
  9
$DIMDLI
 40
7.0
  9
$DIMRND
 40
0.0
  9
$DIMDLE
 40
0.0
  9
$DIMEXE
 40
1.0
  9
$DIMTP
 40
0.0
  9
$DIMTM
 40
0.0
  9
$DIMTXT
 40
3.5
  9
$DIMCEN
 40
1.5
  9
$DIMTSZ
 40
0.0
  9
$DIMTOL
 70
     0
  9
$DIMLIM
 70
     0
  9
$DIMTIH
 70
     0
  9
$DIMTOH
 70
     0
  9
$DIMSE1
 70
     0
  9
$DIMSE2
 70
     0
  9
$DIMTAD
 70
     1
  9
$DIMZIN
 70
     8
  9
$DIMBLK
  1

  9
$DIMASO
 70
     1
  9
$DIMSHO
 70
     0
  9
$DIMPOST
  1

  9
$DIMAPOST
  1

  9
$DIMALT
 70
     0
  9
$DIMALTD
 70
     2
  9
$DIMALTF
 40
25.3999999999999986
  9
$DIMLFAC
 40
1.0
  9
$DIMTOFL
 70
     1
  9
$DIMTVP
 40
0.0
  9
$DIMTIX
 70
     0
  9
$DIMSOXD
 70
     0
  9
$DIMSAH
 70
     0
  9
$DIMBLK1
  1

  9
$DIMBLK2
  1

  9
$DIMSTYLE
  2
STANDARD
  9
$DIMCLRD
 70
     0
  9
$DIMCLRE
 70
     0
  9
$DIMCLRT
 70
     1
  9
$DIMTFAC
 40
0.5
  9
$DIMGAP
 40
1.5
  9
$LUNITS
 70
     2
  9
$LUPREC
 70
     2
  9
$SKETCHINC
 40
1.0
  9
$FILLETRAD
 40
8.0
  9
$AUNITS
 70
     0
  9
$AUPREC
 70
     0
  9
$MENU
  1
ACAD
  9
$ELEVATION
 40
0.0
  9
$PELEVATION
 40
0.0
  9
$THICKNESS
 40
0.0
  9
$LIMCHECK
 70
     0
  9
$BLIPMODE
 70
     0
  9
$CHAMFERA
 40
0.0
  9
$CHAMFERB
 40
0.0
  9
$SKPOLY
 70
     0
  9
$TDCREATE
 40
2455397.8646990740671754
  9
$TDUPDATE
 40
2458374.3262037038803101
  9
$TDINDWG
 40
0.1272213426
  9
$TDUSRTIMER
 40
0.1272213426
  9
$USRTIMER
 70
     1
  9
$ANGBASE
 50
0.0
  9
$ANGDIR
 70
     0
  9
$PDMODE
 70
     0
  9
$PDSIZE
 40
0.0
  9
$PLINEWID
 40
0.0
  9
$COORDS
 70
     1
  9
$SPLFRAME
 70
     0
  9
$SPLINETYPE
 70
     6
  9
$SPLINESEGS
 70
     8
  9
$ATTDIA
 70
     1
  9
$ATTREQ
 70
     1
  9
$HANDLING
 70
     1
  9
$HANDSEED
  5
F1E
  9
$SURFTAB1
 70
     6
  9
$SURFTAB2
 70
     6
  9
$SURFTYPE
 70
     6
  9
$SURFU
 70
     6
  9
$SURFV
 70
     6
  9
$UCSNAME
  2

  9
$UCSORG
 10
0.0
 20
0.0
 30
0.0
  9
$UCSXDIR
 10
1.0
 20
0.0
 30
0.0
  9
$UCSYDIR
 10
0.0
 20
1.0
 30
0.0
  9
$PUCSNAME
  2

  9
$PUCSORG
 10
0.0
 20
0.0
 30
0.0
  9
$PUCSXDIR
 10
1.0
 20
0.0
 30
0.0
  9
$PUCSYDIR
 10
0.0
 20
1.0
 30
0.0
  9
$USERI1
 70
     0
  9
$USERI2
 70
     0
  9
$USERI3
 70
     0
  9
$USERI4
 70
     0
  9
$USERI5
 70
     0
  9
$USERR1
 40
0.0
  9
$USERR2
 40
0.0
  9
$USERR3
 40
0.0
  9
$USERR4
 40
0.0
  9
$USERR5
 40
0.0
  9
$WORLDVIEW
 70
     1
  9
$SHADEDGE
 70
     3
  9
$SHADEDIF
 70
    70
  9
$TILEMODE
 70
     1
  9
$MAXACTVP
 70
    16
  9
$PLIMCHECK
 70
     0
  9
$PEXTMIN
 10
-0.0158040410006493
 20
-0.0096085262915722
 30
-0.0015258207003583
  9
$PEXTMAX
 10
210.0064168103419036
 20
297.0090720421973174
 30
0.0000000349246037
  9
$PLIMMIN
 10
-0.2500002402958907
 20
-0.2499999962453767
  9
$PLIMMAX
 10
10.7499995194082203
 20
8.2499997634587334
  9
$UNITMODE
 70
     0
  9
$VISRETAIN
 70
     0
  9
$PLINEGEN
 70
     0
  9
$PSLTSCALE
 70
     0
  0
ENDSEC
  0
SECTION
  2
TABLES
  0
TABLE
  2
VPORT
 70
     1
  0
VPORT
  2
*ACTIVE
 70
     0
 10
0.0
 20
0.0
 11
1.0
 21
1.0
 12
0.1184964232282937
 22
-26.9430948686122598
 13
0.0
 23
0.0
 14
1.0
 24
1.0
 15
10.0
 25
10.0
 16
-0.0000000000001053
 26
0.0
 36
474.4158933400203182
 17
0.0
 27
0.0
 37
67.4999999999999858
 40
325.5694094983269906
 41
1.868197278911564
 42
50.0
 43
0.0
 44
0.0
 50
0.0
 51
0.0
 71
     0
 72
  1500
 73
     1
 74
     0
 75
     0
 76
     0
 77
     0
 78
     0
  0
ENDTAB
  0
TABLE
  2
LTYPE
 70
     2
  0
LTYPE
  2
CONTINUOUS
 70
     0
  3
Solid line
 72
    65
 73
     0
 40
0.0
  0
LTYPE
  2
STRICHPUNKT
 70
     0
  3
__ . __ . __ . __ . __ . __ . __ . __ . __ . __
 72
    65
 73
     4
 40
1.0
 49
0.5
 49
-0.25
 49
0.0
 49
-0.25
  0
ENDTAB
  0
TABLE
  2
LAYER
 70
     4
  0
LAYER
  2
0
 70
     0
 62
     7
  6
CONTINUOUS
  0
LAYER
  2
STEMPEL
 70
     0
 62
     3
  6
CONTINUOUS
  0
LAYER
  2
HILF
 70
     0
 62
     2
  6
CONTINUOUS
  0
LAYER
  2
DEFPOINTS
 70
     0
 62
     7
  6
CONTINUOUS
  0
ENDTAB
  0
TABLE
  2
STYLE
 70
     3
  0
STYLE
  2
STANDARD
 70
     0
 40
0.0
 41
0.8
 50
0.0
 71
     0
 42
3.5
  3
simplex.shx
  4

  0
STYLE
  2
ANNOTATIVE
 70
     0
 40
0.0
 41
1.0
 50
0.0
 71
     0
 42
0.2
  3
txt
  4

  0
STYLE
  2
GREEKS
 70
     0
 40
0.0
 41
0.8
 50
0.0
 71
     0
 42
2.5
  3
SIMPLEX.shx
  4

  0
ENDTAB
  0
TABLE
  2
VIEW
 70
     0
  0
ENDTAB
  0
TABLE
  2
UCS
 70
     0
  0
ENDTAB
  0
TABLE
  2
APPID
 70
    20
  0
APPID
  2
ACAD
 70
     0
  0
APPID
  2
ACADANNOTATIVE
 70
     0
  0
APPID
  2
MCAD_NO_VIS
 70
     0
  0
APPID
  2
ACAD_TEMP_GRAPHIC
 70
     0
  0
APPID
  2
AD_DRAW
 70
     0
  0
APPID
  2
ACATTRIBSERVICES
 70
     0
  0
APPID
  2
DESIGNERASSEMBLIES
 70
     0
  0
APPID
  2
ACADM_DIM_EDIT
 70
     0
  0
APPID
  2
AMDT_DM_ADJ
 70
     0
  0
APPID
  2
ACAD_EXEMPT_FROM_CAD_STANDARDS
 70
     0
  0
APPID
  2
ACAD_NAV_VCDISPLAY
 70
     0
  0
APPID
  2
ACAD_PSEXT
 70
     0
  0
APPID
  2
ACAD_MLEADERVER
 70
     0
  0
APPID
  2
ACAD_OBJECT_CHANGE_GUID
 70
     0
  0
APPID
  2
ACAECLAYERSTANDARD
 70
     0
  0
APPID
  2
ACCMTRANSPARENCY
 70
     0
  0
APPID
  2
ACADANNOMONITORALERTICONDI
 70
     0
  0
APPID
  2
ACAUTHENVIRON
 70
     0
  0
APPID
  2
ACDBDYNAMICBLOCKTRUENAME
 70
     0
  0
APPID
  2
ACDBDYNAMICBLOCKGUID
 70
     0
  0
ENDTAB
  0
TABLE
  2
DIMSTYLE
 70
     2
  0
DIMSTYLE
  2
STANDARD
 70
     0
  3

  4

  5

  6

  7

 40
1.0
 41
0.18
 42
0.0625
 43
0.38
 44
0.18
 45
0.0
 46
0.0
 47
0.0
 48
0.0
140
0.18
141
0.09
142
0.0
143
25.3999999999999986
144
1.0
145
0.0
146
1.0
147
0.09
 71
     0
 72
     0
 73
     1
 74
     1
 75
     0
 76
     0
 77
     0
 78
     0
170
     0
171
     2
172
     0
173
     0
174
     0
175
     0
176
     0
177
     0
178
     0
  0
DIMSTYLE
  2
ANNOTATIVE
 70
     0
  3

  4

  5

  6

  7

 40
1.0
 41
0.18
 42
0.0625
 43
0.38
 44
0.18
 45
0.0
 46
0.0
 47
0.0
 48
0.0
140
0.18
141
0.09
142
0.0
143
25.3999999999999986
144
1.0
145
0.0
146
1.0
147
0.09
 71
     0
 72
     0
 73
     1
 74
     1
 75
     0
 76
     0
 77
     0
 78
     0
170
     0
171
     2
172
     0
173
     0
174
     0
175
     0
176
     0
177
     0
178
     0
  0
ENDTAB
  0
ENDSEC
  0
SECTION
  2
BLOCKS
  0
BLOCK
  8
0
  2
$MODEL_SPACE
 70
     0
 10
0.0
 20
0.0
 30
0.0
  3
$MODEL_SPACE
  1

  0
ENDBLK
  5
E84
  8
0
  0
BLOCK
 67
     1
  8
0
  2
$PAPER_SPACE
 70
     0
 10
0.0
 20
0.0
 30
0.0
  3
$PAPER_SPACE
  1

  0
ENDBLK
  5
E80
 67
     1
  8
0
  0
BLOCK
  8
0
  2
A$C1AB45C51
 70
     0
 10
0.0
 20
0.0
 30
0.0
  3
A$C1AB45C51
  1

  0
LINE
  5
D7C
  8
0
  6
CONTINUOUS
 62
     3
 10
-41.0625566823700723
 20
134.999999999999801
 30
-0.00000000000003
 11
41.0625566823703068
 21
134.999999999999801
 31
-0.00000000000003
210
0.0
220
1.0
230
-0.0000000000000002
  0
LINE
  5
D7D
  8
0
  6
CONTINUOUS
 62
     3
 10
-44.0125566823702314
 20
0.0000000000000284
 30
0.0
 11
44.0125566823702314
 21
-0.0000000000000284
 31
0.0
210
0.0
220
1.0
230
-0.0000000000000002
  0
LINE
  5
D7E
  8
0
  6
CONTINUOUS
 62
     3
 10
41.0625566823703068
 20
135.0
 30
-0.00000000000003
 11
41.5
 21
129.9999999999994031
 31
-0.0000000000000289
210
0.0
220
1.0
230
-0.0000000000000002
  0
LINE
  5
D7F
  8
0
  6
CONTINUOUS
 62
     3
 10
-41.0625566823700723
 20
135.0
 30
-0.00000000000003
 11
-41.4999999999997726
 21
129.9999999999994031
 31
-0.0000000000000289
210
0.0
220
1.0
230
-0.0000000000000002
  0
LINE
  5
D80
  8
0
  6
CONTINUOUS
 62
     3
 10
41.5000000000001421
 20
129.9999999999994031
 30
-0.0000000000000289
 11
41.5000000000000995
 21
82.9689092897160378
 31
-0.0000000000000184
210
0.0
220
1.0
230
-0.0000000000000002
  0
LINE
  5
D81
  8
0
  6
CONTINUOUS
 62
     3
 10
-41.5000000000000782
 20
129.9999999999994031
 30
-0.0000000000000289
 11
-41.5000000000001421
 21
82.9689092897160947
 31
-0.0000000000000184
210
0.0
220
1.0
230
-0.0000000000000002
  0
ARC
  5
D82
  8
0
  6
CONTINUOUS
 62
     3
 10
49.5000000000073186
 20
82.9689092897168337
 30
0.0
 40
8.0000000000071481
210
0.0
220
-0.0000000000000002
230
-1.0
 50
180.0000000000050022
 51
193.8113347918520049
  0
ARC
  5
D83
  8
0
  6
CONTINUOUS
 62
     3
 10
-49.5000000000071267
 20
82.9689092897166773
 30
0.0
 40
8.0000000000069402
210
0.0
220
-0.0000000000000002
230
-1.0
 50
346.1886652081481088
 51
359.9999999999953957
  0
LINE
  5
D84
  8
0
  6
CONTINUOUS
 62
     3
 10
41.7313034242665566
 20
81.0591047148485444
 30
-0.000000000000018
 11
44.2186965757334605
 21
70.9408952851515693
 31
-0.0000000000000158
210
0.0
220
1.0
230
-0.0000000000000002
  0
LINE
  5
D85
  8
0
  6
CONTINUOUS
 62
     3
 10
-41.7313034242665495
 20
81.0591047148485728
 30
-0.000000000000018
 11
-44.2186965757334605
 21
70.9408952851516261
 31
-0.0000000000000158
210
0.0
220
1.0
230
-0.0000000000000002
  0
ARC
  5
D86
  8
0
  6
CONTINUOUS
 62
     3
 10
36.4500000000070372
 20
69.0310907102851843
 30
0.0
 40
7.9999999999927578
210
0.0
220
-0.0000000000000002
230
-1.0
 50
359.9999999999917009
 51
13.8113347918641995
  0
ARC
  5
D87
  8
0
  6
CONTINUOUS
 62
     3
 10
-36.4500000000070372
 20
69.0310907102851274
 30
0.0
 40
7.9999999999927578
210
0.0
220
-0.0000000000000002
230
-1.0
 50
166.1886652081358022
 51
180.0000000000079865
  0
LINE
  5
D88
  8
0
  6
CONTINUOUS
 62
     3
 10
44.4499999999998465
 20
69.0310907102839764
 30
-0.0000000000000153
 11
44.4499999999997826
 21
4.9999999999999707
 31
-0.0000000000000011
210
0.0
220
1.0
230
-0.0000000000000002
  0
LINE
  5
D89
  8
0
  6
CONTINUOUS
 62
     3
 10
-44.4499999999997826
 20
69.0310907102840332
 30
-0.0000000000000153
 11
-44.4499999999998465
 21
5.0000000000000284
 31
-0.0000000000000011
210
0.0
220
1.0
230
-0.0000000000000002
  0
LINE
  5
D8A
  8
0
  6
CONTINUOUS
 62
     3
 10
-44.0125566823703025
 20
0.0000000000000315
 30
0.0
 11
-44.4499999999998607
 21
5.0000000000000329
 31
-0.0000000000000011
210
0.0
220
1.0
230
-0.0000000000000002
  0
LINE
  5
D8B
  8
0
  6
CONTINUOUS
 62
     3
 10
44.0125566823703025
 20
-0.0000000000000338
 30
0.0
 11
44.4499999999998607
 21
4.9999999999999671
 31
-0.0000000000000011
210
0.0
220
1.0
230
-0.0000000000000002
  0
ARC
  5
D8C
  8
0
  6
STRICHPUNKT
 62
     1
 10
36.4500000000061704
 20
69.0310907102860511
 30
0.0
 40
6.7999999999935721
210
0.0
220
-0.0000000000000002
230
-1.0
 50
359.9999999999830038
 51
13.8113347918576004
  0
ARC
  5
D8D
  8
0
  6
STRICHPUNKT
 62
     1
 10
-36.4500000000061704
 20
69.0310907102860085
 30
0.0
 40
6.7999999999935747
210
0.0
220
-0.0000000000000002
230
-1.0
 50
166.1886652081423961
 51
180.0000000000169109
  0
LINE
  5
D8E
  8
0
  6
STRICHPUNKT
 62
     1
 10
40.5659989379066701
 20
80.7726340286182705
 30
-0.0000000000000179
 11
43.0533920893735669
 21
70.6544245989216364
 31
-0.0000000000000157
210
0.0
220
1.0
230
-0.0000000000000002
  0
LINE
  5
D8F
  8
0
  6
STRICHPUNKT
 62
     1
 10
-40.5659989379066701
 20
80.7726340286183131
 30
-0.0000000000000179
 11
-43.0533920893735669
 21
70.6544245989217075
 31
-0.0000000000000157
210
0.0
220
1.0
230
-0.0000000000000002
  0
ARC
  5
D90
  8
0
  6
STRICHPUNKT
 62
     1
 10
49.4999999999949267
 20
82.9689092897159384
 30
0.0
 40
9.1999999999947804
210
0.0
220
-0.0000000000000002
230
-1.0
 50
179.9999999999990905
 51
193.8113347918670968
  0
ARC
  5
D91
  8
0
  6
STRICHPUNKT
 62
     1
 10
-49.4999999999940385
 20
82.9689092897157394
 30
0.0
 40
9.1999999999938744
210
0.0
220
-0.0000000000000002
230
-1.0
 50
346.188665208132079
 51
0.0000000000016653
  0
LINE
  5
D92
  8
0
  6
STRICHPUNKT
 62
     1
 10
40.3000000000000966
 20
129.9476068685123096
 30
-0.0000000000000289
 11
40.3000000000000469
 21
82.9689092897160236
 31
-0.0000000000000184
210
0.0
220
1.0
230
-0.0000000000000002
  0
LINE
  5
D93
  8
0
  6
STRICHPUNKT
 62
     1
 10
-40.3000000000000327
 20
129.9476068685123948
 30
-0.0000000000000289
 11
-40.3000000000000682
 21
82.9689092897160805
 31
-0.0000000000000184
210
0.0
220
1.0
230
-0.0000000000000002
  0
LINE
  5
D94
  8
0
  6
STRICHPUNKT
 62
     1
 10
39.8579728773182111
 20
135.0
 30
-0.00000000000003
 11
40.2999999999998835
 21
129.9476068685123096
 31
-0.0000000000000289
210
0.0
220
1.0
230
-0.0000000000000002
  0
LINE
  5
D95
  8
0
  6
STRICHPUNKT
 62
     1
 10
-39.8579728773179909
 20
135.0
 30
-0.00000000000003
 11
-40.2999999999996703
 21
129.9476068685123948
 31
-0.0000000000000289
210
0.0
220
1.0
230
-0.0000000000000002
  0
LINE
  5
D96
  8
0
  6
STRICHPUNKT
 62
     1
 10
-42.8079728773183774
 20
0.0000000000000306
 30
0.0
 11
-43.2499999999998366
 21
5.0523931314890591
 31
-0.0000000000000011
210
0.0
220
1.0
230
-0.0000000000000002
  0
LINE
  5
D97
  8
0
  6
STRICHPUNKT
 62
     1
 10
42.8079728773183774
 20
-0.0000000000000338
 30
0.0
 11
43.2499999999998366
 21
5.0523931314889934
 31
-0.0000000000000011
210
0.0
220
1.0
230
-0.0000000000000002
  0
LINE
  5
D98
  8
0
  6
STRICHPUNKT
 62
     1
 10
43.249999999999801
 20
69.0310907102839764
 30
-0.0000000000000153
 11
43.24999999999973
 21
5.0523931314889969
 31
-0.0000000000000011
210
0.0
220
1.0
230
-0.0000000000000002
  0
LINE
  5
D99
  8
0
  6
STRICHPUNKT
 62
     1
 10
-43.24999999999973
 20
69.0310907102840332
 30
-0.0000000000000153
 11
-43.249999999999801
 21
5.0523931314890609
 31
-0.0000000000000011
210
0.0
220
1.0
230
-0.0000000000000002
  0
ENDBLK
  5
D76
  8
0
  0
BLOCK
  8
0
  2
A$C5C7A0390
 70
     0
 10
0.0
 20
0.0
 30
0.0
  3
A$C5C7A0390
  1

  0
CIRCLE
  5
DA4
  8
0
  6
CONTINUOUS
 62
     3
 10
0.0000000000001437
 20
0.0000000000000163
 30
0.0
 40
39.8579728773181969
  0
CIRCLE
  5
DA5
  8
0
  6
CONTINUOUS
 62
     3
 10
0.0000000000001437
 20
0.0000000000000163
 30
0.0
 40
41.0625566823702428
  0
CIRCLE
  5
DA6
  8
0
  6
CONTINUOUS
 62
     3
 10
0.0000000000001426
 20
0.000000000000016
 30
0.0
 40
41.4999999999999289
  0
CIRCLE
  5
DA7
  8
0
  6
CONTINUOUS
 62
     3
 10
0.0000000000000153
 20
0.0000000000000122
 30
0.0
 40
44.4499999999997826
  0
CIRCLE
  5
DA8
  8
0
  6
STRICHPUNKT
 62
     1
 10
0.0000000000000153
 20
0.0000000000000122
 30
0.0
 40
43.2499999999997513
  0
CIRCLE
  5
DA9
  8
0
  6
STRICHPUNKT
 62
     1
 10
0.0000000000001425
 20
0.000000000000016
 30
0.0
 40
40.2999999999998693
  0
CIRCLE
  5
DAA
  8
0
  6
STRICHPUNKT
 62
     1
 10
0.0
 20
0.000000000000008
 30
0.0
 40
44.0125566823702812
  0
CIRCLE
  5
DAB
  8
0
  6
STRICHPUNKT
 62
     1
 10
0.0
 20
0.000000000000008
 30
0.0
 40
42.8079728773183419
  0
ENDBLK
  5
DAD
  8
0
  0
BLOCK
  8
0
  2
*U4
 70
     1
 10
0.0
 20
0.0
 30
0.0
  3
*U4
  1

  0
TEXT
  5
DFF
  8
STEMPEL
 62
     1
 10
94.7113950914611848
 20
276.4166734650307831
 30
0.0
 40
3.5
  1
\U+220583
 41
0.8
  7
GREEKS
  0
TEXT
  5
E00
  8
STEMPEL
 62
     1
 10
102.5780617581278022
 20
278.4666734650309081
 30
0.0
 40
1.8
  1
+2
 41
0.8
  7
GREEKS
  0
TEXT
  5
E01
  8
STEMPEL
 62
     1
 10
102.5780617581278022
 20
276.0666734650308172
 30
0.0
 40
1.8
  1
-1
 41
0.8
  7
GREEKS
  0
ENDBLK
  5
E03
  8
0
  0
BLOCK
  8
0
  2
*U5
 70
     1
 10
0.0
 20
0.0
 30
0.0
  3
*U5
  1

  0
TEXT
  5
E05
  8
STEMPEL
 62
     1
 10
47.864285944734327
 20
236.8837001696628874
 30
0.0
 40
3.5
  1
53
 50
90.0
 41
0.8
  7
GREEKS
  0
ENDBLK
  5
E07
  8
0
  0
BLOCK
  8
0
  2
*U6
 70
     1
 10
0.0
 20
0.0
 30
0.0
  3
*U6
  1

  0
TEXT
  5
E09
  8
STEMPEL
 62
     1
 10
152.9661569962229919
 20
172.3096246447676947
 30
0.0
 40
3.5
  1
1.2
 41
0.8
  7
GREEKS
  0
ENDBLK
  5
E0B
  8
0
  0
BLOCK
  8
0
  2
*U7
 70
     1
 10
0.0
 20
0.0
 30
0.0
  3
*U7
  1

  0
TEXT
  5
E0D
  8
STEMPEL
 62
     1
 10
39.9490478313869204
 20
194.8170335029961109
 30
0.0
 40
3.5
  1
135
 50
90.0
 41
0.8
  7
GREEKS
  0
ENDBLK
  5
E0F
  8
0
  0
BLOCK
  8
0
  2
*U8
 70
     1
 10
0.0
 20
0.0
 30
0.0
  3
*U8
  1

  0
TEXT
  5
E11
  8
STEMPEL
 62
     1
 10
94.5494903295563205
 20
119.4848245220453009
 30
0.0
 40
3.5
  1
\U+220588.9
 41
0.8
  7
GREEKS
  0
ENDBLK
  5
E13
  8
0
  0
ENDSEC
  0
SECTION
  2
ENTITIES
  0
INSERT
  5
D78
  8
STEMPEL
  2
A$C1AB45C51
 10
0.0
 20
0.0000000000000122
 30
69.0310907102851274
  0
INSERT
  5
DAE
  8
STEMPEL
  2
A$C5C7A0390
 10
-0.000000000000018
 20
-144.4499999999997897
 30
69.0310907102851274
  0
VIEWPORT
  5
8AC
 67
     1
  8
0
 10
104.9985184615847942
 20
148.5042715858531039
 30
0.0
 40
526.8824134625257329
 41
299.1264697944620252
 68
     1
 69
     1
1001
ACAD
1000
MVIEW
1002
{
1070
    16
1010
0.0
1020
0.0
1030
0.0
1010
0.0
1020
0.0
1030
1.0
1040
0.0
1040
299.1264697944620252
1040
104.9985184615847942
1040
148.5042715858531039
1040
50.0
1040
0.0
1040
0.0
1070
     0
1070
  1500
1070
     1
1070
     1
1070
     0
1070
     0
1070
     0
1070
     0
1040
0.0
1040
0.0
1040
0.0
1040
10.0
1040
10.0
1040
10.0
1040
10.0
1070
     0
1002
{
1002
}
1002
}
  0
VIEWPORT
  5
8B1
 67
     1
  8
HILF
 10
104.9999999999999005
 20
148.5
 30
0.0
 40
209.9999999999998863
 41
297.0
 68
     2
 69
     2
1001
ACAD
1000
MVIEW
1002
{
1070
    16
1010
223.3571182337227015
1020
148.499999999999801
1030
67.5
1010
-0.0000000000002558
1020
0.0
1030
1121.2461340815459607
1040
0.0
1040
297.0
1040
-118.3571182337227015
1040
0.0000000000000568
1040
50.0
1040
0.0
1040
0.0
1070
     0
1070
  1500
1070
     1
1070
     0
1070
     0
1070
     0
1070
     0
1070
     0
1040
0.0
1040
0.0
1040
0.0
1040
1.0
1040
1.0
1040
10.0
1040
10.0
1070
     0
1002
{
1002
}
1002
}
  0
VIEWPORT
  5
8C5
 67
     1
  8
DEFPOINTS
 10
174.5333263002654007
 20
233.8929925915728063
 30
0.0
 40
42.052005899920907
 41
67.2060505004101287
 68
     3
 69
     3
1001
ACAD
1000
MVIEW
1002
{
1070
    16
1010
378.091834557808113
1020
202.3645884341073042
1030
167.3761635014961087
1010
-52.3838002669142497
1020
88.2173675975500657
1030
212.4724837038259864
1040
3.7667079156006431
1040
168.0151272829949107
1040
0.0
1040
0.0
1040
50.0
1040
0.0
1040
0.0
1070
     0
1070
  1500
1070
     1
1070
     0
1070
     0
1070
     0
1070
     0
1070
     0
1040
0.0
1040
0.0
1040
0.0
1040
1.0
1040
1.0
1040
10.0
1040
10.0
1070
     0
1002
{
1002
}
1002
}
  0
ENDSEC
  0
EOF
