  0
SECTION
  2
HEADER
  9
$ACADVER
  1
AC1009
  9
$INSBASE
 10
0.0
 20
0.0
 30
0.0
  9
$EXTMIN
 10
199.8326894784501064
 20
-8.9966954003352697
 30
-19.1929371926575705
  9
$EXTMAX
 10
277.3326894784505043
 20
210.8626301886667136
 30
-19.1929371926575492
  9
$LIMMIN
 10
0.0
 20
0.0
  9
$LIMMAX
 10
210.0
 20
297.0
  9
$ORTHOMODE
 70
     1
  9
$REGENMODE
 70
     1
  9
$FILLMODE
 70
     1
  9
$QTEXTMODE
 70
     0
  9
$MIRRTEXT
 70
     1
  9
$DRAGMODE
 70
     2
  9
$LTSCALE
 40
10.0
  9
$OSMODE
 70
  2495
  9
$ATTMODE
 70
     1
  9
$TEXTSIZE
 40
3.5
  9
$TRACEWID
 40
0.5
  9
$TEXTSTYLE
  7
STANDARD
  9
$CLAYER
  8
STEMPEL
  9
$CELTYPE
  6
BYLAYER
  9
$CECOLOR
 62
   256
  9
$DIMSCALE
 40
1.0
  9
$DIMASZ
 40
3.5
  9
$DIMEXO
 40
1.0
  9
$DIMDLI
 40
7.0
  9
$DIMRND
 40
0.0
  9
$DIMDLE
 40
0.0
  9
$DIMEXE
 40
1.0
  9
$DIMTP
 40
0.5
  9
$DIMTM
 40
0.7
  9
$DIMTXT
 40
3.5
  9
$DIMCEN
 40
1.5
  9
$DIMTSZ
 40
0.0
  9
$DIMTOL
 70
     0
  9
$DIMLIM
 70
     0
  9
$DIMTIH
 70
     0
  9
$DIMTOH
 70
     0
  9
$DIMSE1
 70
     0
  9
$DIMSE2
 70
     0
  9
$DIMTAD
 70
     1
  9
$DIMZIN
 70
     8
  9
$DIMBLK
  1

  9
$DIMASO
 70
     1
  9
$DIMSHO
 70
     0
  9
$DIMPOST
  1

  9
$DIMAPOST
  1

  9
$DIMALT
 70
     0
  9
$DIMALTD
 70
     2
  9
$DIMALTF
 40
25.3999999999999986
  9
$DIMLFAC
 40
1.0
  9
$DIMTOFL
 70
     1
  9
$DIMTVP
 40
0.0
  9
$DIMTIX
 70
     0
  9
$DIMSOXD
 70
     0
  9
$DIMSAH
 70
     0
  9
$DIMBLK1
  1

  9
$DIMBLK2
  1

  9
$DIMSTYLE
  2
STANDARD
  9
$DIMCLRD
 70
     0
  9
$DIMCLRE
 70
     0
  9
$DIMCLRT
 70
     1
  9
$DIMTFAC
 40
0.5
  9
$DIMGAP
 40
1.5
  9
$LUNITS
 70
     2
  9
$LUPREC
 70
     2
  9
$SKETCHINC
 40
1.0
  9
$FILLETRAD
 40
8.5
  9
$AUNITS
 70
     0
  9
$AUPREC
 70
     0
  9
$MENU
  1
ACAD
  9
$ELEVATION
 40
0.0
  9
$PELEVATION
 40
0.0
  9
$THICKNESS
 40
0.0
  9
$LIMCHECK
 70
     0
  9
$BLIPMODE
 70
     0
  9
$CHAMFERA
 40
0.0
  9
$CHAMFERB
 40
0.0
  9
$SKPOLY
 70
     0
  9
$TDCREATE
 40
2455397.8646990740671754
  9
$TDUPDATE
 40
2459388.3071759259328246
  9
$TDINDWG
 40
0.0687193519
  9
$TDUSRTIMER
 40
0.0687193519
  9
$USRTIMER
 70
     1
  9
$ANGBASE
 50
0.0
  9
$ANGDIR
 70
     0
  9
$PDMODE
 70
     0
  9
$PDSIZE
 40
0.0
  9
$PLINEWID
 40
0.0
  9
$COORDS
 70
     1
  9
$SPLFRAME
 70
     0
  9
$SPLINETYPE
 70
     6
  9
$SPLINESEGS
 70
     8
  9
$ATTDIA
 70
     1
  9
$ATTREQ
 70
     1
  9
$HANDLING
 70
     1
  9
$HANDSEED
  5
D08
  9
$SURFTAB1
 70
     6
  9
$SURFTAB2
 70
     6
  9
$SURFTYPE
 70
     6
  9
$SURFU
 70
     6
  9
$SURFV
 70
     6
  9
$UCSNAME
  2

  9
$UCSORG
 10
0.0
 20
0.0
 30
0.0
  9
$UCSXDIR
 10
1.0
 20
0.0
 30
0.0
  9
$UCSYDIR
 10
0.0
 20
1.0
 30
0.0
  9
$PUCSNAME
  2

  9
$PUCSORG
 10
0.0
 20
0.0
 30
0.0
  9
$PUCSXDIR
 10
1.0
 20
0.0
 30
0.0
  9
$PUCSYDIR
 10
0.0
 20
1.0
 30
0.0
  9
$USERI1
 70
     0
  9
$USERI2
 70
     0
  9
$USERI3
 70
     0
  9
$USERI4
 70
     0
  9
$USERI5
 70
     0
  9
$USERR1
 40
0.0
  9
$USERR2
 40
0.0
  9
$USERR3
 40
0.0
  9
$USERR4
 40
0.0
  9
$USERR5
 40
0.0
  9
$WORLDVIEW
 70
     1
  9
$SHADEDGE
 70
     3
  9
$SHADEDIF
 70
    70
  9
$TILEMODE
 70
     1
  9
$MAXACTVP
 70
    16
  9
$PLIMCHECK
 70
     0
  9
$PEXTMIN
 10
1.0000000000000000E+20
 20
1.0000000000000000E+20
 30
1.0000000000000000E+20
  9
$PEXTMAX
 10
-1.0000000000000000E+20
 20
-1.0000000000000000E+20
 30
-1.0000000000000000E+20
  9
$PLIMMIN
 10
-0.069270693404107
 20
-0.1267046466679886
  9
$PLIMMAX
 10
209.9307293065959072
 20
296.8732953533320256
  9
$UNITMODE
 70
     0
  9
$VISRETAIN
 70
     0
  9
$PLINEGEN
 70
     0
  9
$PSLTSCALE
 70
     0
  0
ENDSEC
  0
SECTION
  2
TABLES
  0
TABLE
  2
VPORT
 70
     1
  0
VPORT
  2
*ACTIVE
 70
     0
 10
0.0
 20
0.0
 11
1.0
 21
1.0
 12
1.7439786075163961
 22
-55.9296627945008709
 13
0.0
 23
0.0
 14
1.0
 24
1.0
 15
10.0
 25
10.0
 16
-0.0000000000000853
 26
0.0
 36
339.0681172738613895
 17
236.8387108709339088
 27
156.8626301886664862
 37
-9.5964685963287746
 40
221.4316211236074992
 41
1.7852028639618129
 42
50.0
 43
0.0
 44
0.0
 50
0.0
 51
0.0
 71
     0
 72
  1500
 73
     1
 74
     0
 75
     0
 76
     0
 77
     0
 78
     0
  0
ENDTAB
  0
TABLE
  2
LTYPE
 70
     5
  0
LTYPE
  2
CONTINUOUS
 70
     0
  3
Solid line
 72
    65
 73
     0
 40
0.0
  0
LTYPE
  2
PHANTOM2
 70
     0
  3
Phantom (.5x) ___ _ _ ___ _ _ ___ _ _ ___ _ _
 72
    65
 73
     6
 40
1.25
 49
0.625
 49
-0.125
 49
0.125
 49
-0.125
 49
0.125
 49
-0.125
  0
LTYPE
  2
VERDECKT
 70
     0
  3
Verdeckt __ __ __ __ __ __ __ __ __ __ __ __ __
 72
    65
 73
     2
 40
0.375
 49
0.25
 49
-0.125
  0
ENDTAB
  0
TABLE
  2
LAYER
 70
    11
  0
LAYER
  2
0
 70
     0
 62
     7
  6
CONTINUOUS
  0
LAYER
  2
VOLL
 70
     0
 62
     1
  6
CONTINUOUS
  0
LAYER
  2
STEMPEL
 70
     0
 62
     3
  6
CONTINUOUS
  0
LAYER
  2
ADSK_ASSOC_ENTITY_BACKUPS
 70
     1
 62
    -7
  6
CONTINUOUS
  0
LAYER
  2
DEFPOINTS
 70
     0
 62
     7
  6
CONTINUOUS
  0
ENDTAB
  0
TABLE
  2
STYLE
 70
     4
  0
STYLE
  2
STANDARD
 70
     0
 40
0.0
 41
0.8
 50
0.0
 71
     0
 42
3.5
  3
simplex.shx
  4

  0
STYLE
  2
GREEKS
 70
     0
 40
0.0
 41
0.8
 50
0.0
 71
     0
 42
2.5
  3
SIMPLEX.shx
  4

  0
ENDTAB
  0
TABLE
  2
VIEW
 70
     3
  0
ENDTAB
  0
TABLE
  2
UCS
 70
     0
  0
ENDTAB
  0
TABLE
  2
APPID
 70
    15
  0
APPID
  2
ACAD
 70
     0
  0
APPID
  2
ACAD_NAV_VCDISPLAY
 70
     0
  0
APPID
  2
ACAD_MLEADERVER
 70
     0
  0
APPID
  2
ACAD_EXEMPT_FROM_CAD_STANDARDS
 70
     0
  0
APPID
  2
ACAD_PSEXT
 70
     0
  0
APPID
  2
ACAECLAYERSTANDARD
 70
     0
  0
APPID
  2
ACAUTHENVIRON
 70
     0
  0
APPID
  2
ACCMTRANSPARENCY
 70
     0
  0
APPID
  2
ACSYNERGY
 70
     0
  0
APPID
  2
SYNERGY_BODY_TBR_ID
 70
     0
  0
APPID
  2
ACAD_VIEW_EDGE_ID
 70
     0
  0
APPID
  2
ACAD_DSTYLE_DIMJAG
 70
     0
  0
APPID
  2
ACAD_DSTYLE_DIMTALN
 70
     0
  0
APPID
  2
ACADANNOMONITORALERTICONDI
 70
     0
  0
APPID
  2
AcDbAttr
 70
     0
  0
ENDTAB
  0
TABLE
  2
DIMSTYLE
 70
     2
  0
DIMSTYLE
  2
STANDARD
 70
     0
  3

  4

  5

  6

  7

 40
1.0
 41
0.18
 42
0.0625
 43
0.38
 44
0.18
 45
0.0
 46
0.0
 47
0.0
 48
0.0
140
0.18
141
0.09
142
0.0
143
25.3999999999999986
144
1.0
145
0.0
146
1.0
147
0.09
 71
     0
 72
     0
 73
     1
 74
     1
 75
     0
 76
     0
 77
     0
 78
     0
170
     0
171
     2
172
     0
173
     0
174
     0
175
     0
176
     0
177
     0
178
     0
  0
ENDTAB
  0
ENDSEC
  0
SECTION
  2
BLOCKS
  0
BLOCK
  8
0
  2
$MODEL_SPACE
 70
     0
 10
0.0
 20
0.0
 30
0.0
  3
$MODEL_SPACE
  1

  0
ENDBLK
  5
36
  8
0
  0
BLOCK
 67
     1
  8
0
  2
$PAPER_SPACE
 70
     0
 10
0.0
 20
0.0
 30
0.0
  3
$PAPER_SPACE
  1

  0
ENDBLK
  5
34
 67
     1
  8
0
  0
BLOCK
  8
0
  2
*S4
 70
     1
 10
0.0
 20
0.0
 30
0.0
  3
*S4
  1

  0
ENDBLK
  5
A2F
  8
0
  0
BLOCK
  8
0
  2
A$C2325CF13
 70
     0
 10
0.0
 20
0.0
 30
0.0
  3
A$C2325CF13
  1

  0
CIRCLE
  5
C8B
  8
0
 10
112.5012528773633989
 20
162.3457461849403956
 30
0.0000000000000284
 40
38.7499999999999929
  0
CIRCLE
  5
C8C
  8
0
 10
112.5012528773631004
 20
162.3457461849403956
 30
0.0000000000000284
 40
34.5994640489809484
  0
CIRCLE
  5
C8D
  8
0
 10
112.5012528773632994
 20
162.3457461849403956
 30
0.0000000000000249
 40
35.0
  0
CIRCLE
  5
C8E
  8
0
 10
112.5012528773633989
 20
162.3457461849403956
 30
0.0000000000000284
 40
37.2499999999999929
  0
CIRCLE
  5
C8F
  8
0
  6
VERDECKT
 62
     1
 10
112.5012528773632994
 20
162.3457461849403956
 30
0.0000000000000249
 40
36.4999999999999929
  0
CIRCLE
  5
C90
  8
0
  6
VERDECKT
 62
     1
 10
112.5012528773631004
 20
162.3457461849403956
 30
0.0000000000000284
 40
36.0937560961185682
  0
ENDBLK
  5
C92
  8
0
  0
BLOCK
  8
0
  2
A$C6323A9DF
 70
     0
 10
0.0
 20
0.0
 30
0.0
  3
A$C6323A9DF
  1

  0
LINE
  5
C96
  8
0
 10
73.7512528773634131
 20
54.0000000000000995
 30
-0.000000000000012
 11
151.2512528773634131
 21
53.9999999999998721
 31
-0.000000000000012
210
0.0
220
1.0
230
-0.0000000000000002
  0
LINE
  5
C97
  8
0
 10
76.4074967812445038
 20
-53.9999999999999005
 30
0.000000000000012
 11
148.5950089734816117
 21
-54.0000000000001208
 31
0.000000000000012
210
0.0
220
1.0
230
-0.0000000000000002
  0
LINE
  5
C98
  8
0
 10
151.2512528773634131
 20
53.9999999999998721
 30
-0.000000000000012
 11
151.2512528773632994
 21
18.9999999999998508
 31
-0.0000000000000042
210
0.0
220
1.0
230
-0.0000000000000002
  0
LINE
  5
C99
  8
0
 10
73.7512528773634415
 20
54.0000000000000995
 30
-0.000000000000012
 11
73.7512528773633278
 21
19.0000000000000888
 31
-0.0000000000000042
210
0.0
220
1.0
230
-0.0000000000000002
  0
ARC
  5
C9A
  8
0
 10
-85.7512528773635694
 20
19.0000000000000604
 30
0.0
 40
12.0000000000002292
210
0.0
220
-0.0000000000000002
230
-1.0
 50
332.5607598493194246
 51
0.0000000000001145
  0
ARC
  5
C9B
  8
0
 10
-139.2512528773623899
 20
19.0000000000000995
 30
0.0
 40
12.0000000000009095
210
0.0
220
-0.0000000000000002
230
-1.0
 50
180.0000000000011084
 51
207.4392401506802059
  0
ARC
  5
C9C
  8
0
 10
-68.0012528773634415
 20
9.7838457044167537
 30
0.0
 40
7.999999999999857
210
0.0
220
-0.0000000000000002
230
-1.0
 50
152.5607598493189982
 51
180.0000000000005116
  0
ARC
  5
C9D
  8
0
 10
-157.0012528773625888
 20
9.7838457044165867
 30
0.0
 40
7.9999999999993738
210
0.0
220
-0.0000000000000002
230
-1.0
 50
359.9999999999989768
 51
27.4392401506822985
  0
LINE
  5
C9E
  8
0
 10
149.0012528773632141
 20
9.7838457044164517
 30
-0.0000000000000022
 11
149.0012528773631004
 21
-48.9854929162355219
 31
0.0000000000000109
210
0.0
220
1.0
230
-0.0000000000000002
  0
LINE
  5
C9F
  8
0
 10
76.0012528773632994
 20
9.7838457044166791
 30
-0.0000000000000022
 11
76.0012528773631288
 21
-48.9854929162353017
 31
0.0000000000000109
210
0.0
220
1.0
230
-0.0000000000000002
  0
ARC
  5
CA0
  8
0
 10
-84.5012528773567624
 20
-48.9854929162356569
 30
0.0
 40
8.4999999999936335
210
0.0
220
-0.0000000000000002
230
-1.0
 50
354.9999999999982947
 51
0.0000000000023918
  0
ARC
  5
CA1
  8
0
 10
-140.50125287736941
 20
-48.9854929162358914
 30
0.0
 40
8.4999999999936335
210
0.0
220
-0.0000000000000002
230
-1.0
 50
179.9999999999974989
 51
185.0000000000015064
  0
LINE
  5
CA2
  8
0
 10
76.407496781244518
 20
-53.9999999999999005
 30
0.000000000000012
 11
76.0335979435832883
 21
-49.7263167295904296
 31
0.000000000000011
210
0.0
220
1.0
230
-0.0000000000000002
  0
LINE
  5
CA3
  8
0
 10
148.5950089734816117
 20
-54.0000000000001208
 30
0.000000000000012
 11
148.9689078111429126
 21
-49.726316729590657
 31
0.000000000000011
210
0.0
220
1.0
230
-0.0000000000000002
  0
LINE
  5
CA4
  8
0
  6
VERDECKT
 62
     1
 10
77.9017888283821378
 20
-53.8692663858784186
 30
0.000000000000012
 11
147.1007169263440062
 21
-53.8692663858786531
 31
0.000000000000012
210
0.0
220
1.0
230
-0.0000000000000002
  0
LINE
  5
CA5
  8
0
  6
VERDECKT
 62
     1
 10
147.1007169263440062
 20
-53.8692663858786389
 30
0.000000000000012
 11
148.5950089734816117
 21
-54.0000000000001279
 31
0.000000000000012
210
0.0
220
1.0
230
-0.0000000000000002
  0
LINE
  5
CA6
  8
0
  6
VERDECKT
 62
     1
 10
77.9017888283821378
 20
-53.8692663858784186
 30
0.000000000000012
 11
76.407496781244518
 21
-53.9999999999999005
 31
0.000000000000012
210
0.0
220
1.0
230
-0.0000000000000002
  0
LINE
  5
CA7
  8
0
  6
VERDECKT
 62
     1
 10
77.9017888283821378
 20
-53.8692663858784186
 30
0.000000000000012
 11
77.527889990720908
 21
-49.5955831154689619
 31
0.000000000000011
210
0.0
220
1.0
230
-0.0000000000000002
  0
LINE
  5
CA8
  8
0
  6
VERDECKT
 62
     1
 10
147.1007169263440062
 20
-53.8692663858786389
 30
0.000000000000012
 11
147.474615764005307
 21
-49.595583115469168
 31
0.000000000000011
210
0.0
220
1.0
230
-0.0000000000000002
  0
ARC
  5
CA9
  8
0
  6
VERDECKT
 62
     1
 10
-84.5012528773569613
 20
-48.9854929162356427
 30
0.0
 40
6.9999999999938307
210
0.0
220
-0.0000000000000002
230
-1.0
 50
354.9999999999980105
 51
0.0000000000025572
  0
ARC
  5
CAA
  8
0
  6
VERDECKT
 62
     1
 10
-140.501252877361793
 20
-48.9854929162356996
 30
0.0
 40
7.0000000000012781
210
0.0
220
-0.0000000000000002
230
-1.0
 50
179.9999999999988063
 51
184.9999999999978968
  0
LINE
  5
CAB
  8
0
  6
VERDECKT
 62
     1
 10
147.5012528773632141
 20
9.7838457044164553
 30
-0.0000000000000022
 11
147.5012528773631004
 21
-48.9854929162355575
 31
0.0000000000000109
210
0.0
220
1.0
230
-0.0000000000000002
  0
LINE
  5
CAC
  8
0
  6
VERDECKT
 62
     1
 10
77.5012528773632994
 20
9.7838457044166791
 30
-0.0000000000000022
 11
77.5012528773631288
 21
-48.9854929162353301
 31
0.0000000000000109
210
0.0
220
1.0
230
-0.0000000000000002
  0
ARC
  5
CAD
  8
0
  6
VERDECKT
 62
     1
 10
-68.0012528773629583
 20
9.7838457044166312
 30
0.0
 40
9.5000000000003411
210
0.0
220
-0.0000000000000002
230
-1.0
 50
152.5607598493195951
 51
179.9999999999996874
  0
ARC
  5
CAE
  8
0
  6
VERDECKT
 62
     1
 10
-157.0012528773632994
 20
9.7838457044164429
 30
0.0
 40
9.5000000000000284
210
0.0
220
-0.0000000000000002
230
-1.0
 50
0.0
 51
27.4392401506809485
  0
ARC
  5
CAF
  8
0
  6
VERDECKT
 62
     1
 10
-85.7512528773635267
 20
19.0000000000000711
 30
0.0
 40
10.5000000000002007
210
0.0
220
-0.0000000000000002
230
-1.0
 50
332.5607598493194246
 51
0.0000000000001272
  0
ARC
  5
CB0
  8
0
  6
VERDECKT
 62
     1
 10
-139.2512528773634983
 20
18.9999999999997691
 30
0.0
 40
10.4999999999997407
210
0.0
220
-0.0000000000000002
230
-1.0
 50
179.9999999999994884
 51
207.4392401506813997
  0
LINE
  5
CB1
  8
0
  6
VERDECKT
 62
     1
 10
149.7512528773634131
 20
53.9999999999998721
 30
-0.000000000000012
 11
149.7512528773632994
 21
18.9999999999998614
 31
-0.0000000000000042
210
0.0
220
1.0
230
-0.0000000000000002
  0
LINE
  5
CB2
  8
0
  6
VERDECKT
 62
     1
 10
75.2512528773634415
 20
54.0000000000000995
 30
-0.000000000000012
 11
75.2512528773633278
 21
19.0000000000000888
 31
-0.0000000000000042
210
0.0
220
1.0
230
-0.0000000000000002
  0
ENDBLK
  5
CB4
  8
0
  0
ENDSEC
  0
SECTION
  2
ENTITIES
  0
TEXT
  5
8F
  8
VOLL
 10
78.076754716981128
 20
31.025947764705851
 30
0.0
 40
1.8
  1

  7
GREEKS
  0
INSERT
  5
A31
  8
ADSK_ASSOC_ENTITY_BACKUPS
  2
*S4
 10
0.0
 20
0.0
 30
0.0
  0
INSERT
  5
C93
  8
STEMPEL
  2
A$C2325CF13
 10
126.0814366010866934
 20
-132.5924415852755942
 30
-19.1929371926575811
  0
INSERT
  5
CB5
  8
STEMPEL
  2
A$C6323A9DF
 10
126.0814366010871055
 20
156.8626301886664862
 30
-19.1929371926575705
  0
VIEWPORT
  5
928
 67
     1
  8
0
 10
104.930729306595893
 20
148.3732953533319971
 30
0.0
 40
533.9969448798290159
 41
299.1239570917758783
 68
     1
 69
     1
1001
ACAD
1000
MVIEW
1002
{
1070
    16
1010
0.0
1020
0.0
1030
0.0
1010
0.0
1020
0.0
1030
1.0
1040
0.0
1040
299.1239570917758783
1040
104.930729306595893
1040
148.3732953533319971
1040
50.0
1040
0.0
1040
0.0
1070
     0
1070
  1500
1070
     1
1070
     1
1070
     0
1070
     0
1070
     0
1070
     0
1040
0.0
1040
0.0
1040
0.0
1040
10.0
1040
10.0
1040
10.0
1040
10.0
1070
     0
1002
{
1002
}
1002
}
  0
ENDSEC
  0
EOF
