  0
SECTION
  2
HEADER
  9
$ACADVER
  1
AC1009
  9
$INSBASE
 10
0.0
 20
0.0
 30
0.0
  9
$EXTMIN
 10
625.64648018144931
 20
109.4378054654519
 30
-204.99999999999901
  9
$EXTMAX
 10
996.61309569489993
 20
1067.4181878536251
 30
0.00000001
  9
$LIMMIN
 10
0.0
 20
0.0
  9
$LIMMAX
 10
419.99999999999989
 20
594.0
  9
$ORTHOMODE
 70
     1
  9
$REGENMODE
 70
     1
  9
$FILLMODE
 70
     1
  9
$QTEXTMODE
 70
     0
  9
$MIRRTEXT
 70
     1
  9
$DRAGMODE
 70
     2
  9
$LTSCALE
 40
20.0
  9
$OSMODE
 70
   311
  9
$ATTMODE
 70
     1
  9
$TEXTSIZE
 40
3.5
  9
$TRACEWID
 40
0.5
  9
$TEXTSTYLE
  7
STANDARD
  9
$CLAYER
  8
RAHMEN
  9
$CELTYPE
  6
BYLAYER
  9
$CECOLOR
 62
   256
  9
$DIMSCALE
 40
2.0
  9
$DIMASZ
 40
3.5
  9
$DIMEXO
 40
1.0
  9
$DIMDLI
 40
7.0
  9
$DIMRND
 40
0.0
  9
$DIMDLE
 40
0.0
  9
$DIMEXE
 40
1.0
  9
$DIMTP
 40
0.3
  9
$DIMTM
 40
0.8
  9
$DIMTXT
 40
3.5
  9
$DIMCEN
 40
1.5
  9
$DIMTSZ
 40
0.0
  9
$DIMTOL
 70
     1
  9
$DIMLIM
 70
     0
  9
$DIMTIH
 70
     0
  9
$DIMTOH
 70
     0
  9
$DIMSE1
 70
     0
  9
$DIMSE2
 70
     0
  9
$DIMTAD
 70
     1
  9
$DIMZIN
 70
     8
  9
$DIMBLK
  1

  9
$DIMASO
 70
     1
  9
$DIMSHO
 70
     0
  9
$DIMPOST
  1

  9
$DIMAPOST
  1

  9
$DIMALT
 70
     0
  9
$DIMALTD
 70
     2
  9
$DIMALTF
 40
25.399999999999999
  9
$DIMLFAC
 40
1.0
  9
$DIMTOFL
 70
     1
  9
$DIMTVP
 40
0.0
  9
$DIMTIX
 70
     0
  9
$DIMSOXD
 70
     0
  9
$DIMSAH
 70
     0
  9
$DIMBLK1
  1

  9
$DIMBLK2
  1

  9
$DIMSTYLE
  2
STANDARD
  9
$DIMCLRD
 70
     0
  9
$DIMCLRE
 70
     0
  9
$DIMCLRT
 70
     1
  9
$DIMTFAC
 40
0.5
  9
$DIMGAP
 40
1.5
  9
$LUNITS
 70
     2
  9
$LUPREC
 70
     2
  9
$SKETCHINC
 40
1.0
  9
$FILLETRAD
 40
0.0
  9
$AUNITS
 70
     0
  9
$AUPREC
 70
     0
  9
$MENU
  1
ACAD
  9
$ELEVATION
 40
0.0
  9
$PELEVATION
 40
0.0
  9
$THICKNESS
 40
0.0
  9
$LIMCHECK
 70
     0
  9
$BLIPMODE
 70
     0
  9
$CHAMFERA
 40
0.0
  9
$CHAMFERB
 40
0.0
  9
$SKPOLY
 70
     0
  9
$TDCREATE
 40
2455397.864709028
  9
$TDUPDATE
 40
2458408.4933506711
  9
$TDINDWG
 40
0.1713366667
  9
$TDUSRTIMER
 40
0.1713366667
  9
$USRTIMER
 70
     1
  9
$ANGBASE
 50
0.0
  9
$ANGDIR
 70
     0
  9
$PDMODE
 70
     0
  9
$PDSIZE
 40
0.0
  9
$PLINEWID
 40
0.0
  9
$COORDS
 70
     1
  9
$SPLFRAME
 70
     0
  9
$SPLINETYPE
 70
     6
  9
$SPLINESEGS
 70
     8
  9
$ATTDIA
 70
     0
  9
$ATTREQ
 70
     0
  9
$HANDLING
 70
     1
  9
$HANDSEED
  5
1F0A
  9
$SURFTAB1
 70
     6
  9
$SURFTAB2
 70
     6
  9
$SURFTYPE
 70
     6
  9
$SURFU
 70
     6
  9
$SURFV
 70
     6
  9
$UCSNAME
  2

  9
$UCSORG
 10
0.0
 20
0.0
 30
0.0
  9
$UCSXDIR
 10
-1.0
 20
0.0
 30
0.0
  9
$UCSYDIR
 10
0.0
 20
1.0
 30
0.0
  9
$PUCSNAME
  2

  9
$PUCSORG
 10
0.0
 20
0.0
 30
0.0
  9
$PUCSXDIR
 10
1.0
 20
0.0
 30
0.0
  9
$PUCSYDIR
 10
0.0
 20
1.0
 30
0.0
  9
$USERI1
 70
     0
  9
$USERI2
 70
     0
  9
$USERI3
 70
     0
  9
$USERI4
 70
     0
  9
$USERI5
 70
     0
  9
$USERR1
 40
0.0
  9
$USERR2
 40
0.0
  9
$USERR3
 40
0.0
  9
$USERR4
 40
0.0
  9
$USERR5
 40
0.0
  9
$WORLDVIEW
 70
     1
  9
$SHADEDGE
 70
     3
  9
$SHADEDIF
 70
    70
  9
$TILEMODE
 70
     1
  9
$MAXACTVP
 70
    16
  9
$PLIMCHECK
 70
     0
  9
$PEXTMIN
 10
1.0000000000000000E+020
 20
1.0000000000000000E+020
 30
1.0000000000000000E+020
  9
$PEXTMAX
 10
-1.0000000000000000E+020
 20
-1.0000000000000000E+020
 30
-1.0000000000000000E+020
  9
$PLIMMIN
 10
-0.2500002402958907
 20
-0.2499999962453767
  9
$PLIMMAX
 10
10.74999951940822
 20
8.2499997634587334
  9
$UNITMODE
 70
     0
  9
$VISRETAIN
 70
     0
  9
$PLINEGEN
 70
     0
  9
$PSLTSCALE
 70
     0
  0
ENDSEC
  0
SECTION
  2
TABLES
  0
TABLE
  2
VPORT
 70
     1
  0
VPORT
  2
*ACTIVE
 70
     0
 10
0.0
 20
0.0
 11
1.0
 21
1.0
 12
-430.14381497444742
 22
1657.860236466184
 13
0.0
 23
0.0
 14
1.0
 24
1.0
 15
10.0
 25
10.0
 16
0.0
 26
0.0
 36
-1.0
 17
367.65017615637862
 27
-784.57519131486993
 37
114.5957495684827
 40
531.07343396460749
 41
2.1217510259917911
 42
50.0
 43
0.0
 44
0.0
 50
0.0
 51
0.0
 71
     0
 72
  1500
 73
     1
 74
     1
 75
     0
 76
     0
 77
     0
 78
     0
  0
ENDTAB
  0
TABLE
  2
LTYPE
 70
     5
  0
LTYPE
  2
CONTINUOUS
 70
     0
  3
Solid line
 72
    65
 73
     0
 40
0.0
  0
LTYPE
  2
AUSGEZOGEN
 70
     0
  3
Ausgezogene Linie
 72
    65
 73
     0
 40
0.0
  0
LTYPE
  2
PHANTOM2
 70
     0
  3
Phantom (.5x) ___ _ _ ___ _ _ ___ _ _ ___ _ _
 72
    65
 73
     6
 40
1.25
 49
0.625
 49
-0.125
 49
0.125
 49
-0.125
 49
0.125
 49
-0.125
  0
LTYPE
  2
VERDECKT
 70
     0
  3
Verdeckt __ __ __ __ __ __ __ __ __ __ __ __ __
 72
    65
 73
     2
 40
0.375
 49
0.25
 49
-0.125
  0
ENDTAB
  0
TABLE
  2
LAYER
 70
    11
  0
LAYER
  2
0
 70
     0
 62
     7
  6
CONTINUOUS
  0
LAYER
  2
VOLL
 70
     0
 62
     1
  6
CONTINUOUS
  0
LAYER
  2
TEXT
 70
     0
 62
     7
  6
CONTINUOUS
  0
LAYER
  2
DEFPOINTS
 70
     0
 62
     7
  6
AUSGEZOGEN
  0
LAYER
  2
RAHMEN
 70
     0
 62
     1
  6
CONTINUOUS
  0
ENDTAB
  0
TABLE
  2
STYLE
 70
     4
  0
STYLE
  2
STANDARD
 70
     0
 40
0.0
 41
0.8
 50
0.0
 71
     0
 42
3.5
  3
simplex.shx
  4

  0
STYLE
  2
GREEKS
 70
     0
 40
0.0
 41
0.8
 50
0.0
 71
     0
 42
2.5
  3
SIMPLEX.shx
  4

  0
ENDTAB
  0
TABLE
  2
VIEW
 70
     7
  0
ENDTAB
  0
TABLE
  2
UCS
 70
     0
  0
ENDTAB
  0
TABLE
  2
APPID
 70
     8
  0
APPID
  2
ACAD
 70
     0
  0
APPID
  2
ACAECLAYERSTANDARD
 70
     0
  0
APPID
  2
ACCMTRANSPARENCY
 70
     0
  0
APPID
  2
ACAD_NAV_VCDISPLAY
 70
     0
  0
APPID
  2
ACAD_PSEXT
 70
     0
  0
APPID
  2
ACAD_EXEMPT_FROM_CAD_STANDARDS
 70
     0
  0
APPID
  2
ACAD_MLEADERVER
 70
     0
  0
APPID
  2
ACAD_OBJECT_CHANGE_GUID
 70
     0
  0
ENDTAB
  0
TABLE
  2
DIMSTYLE
 70
     2
  0
DIMSTYLE
  2
STANDARD
 70
     0
  3

  4

  5

  6

  7

 40
1.0
 41
0.18
 42
0.0625
 43
0.38
 44
0.18
 45
0.0
 46
0.0
 47
0.0
 48
0.0
140
0.18
141
0.09
142
0.0
143
25.399999999999999
144
1.0
145
0.0
146
1.0
147
0.09
 71
     0
 72
     0
 73
     1
 74
     1
 75
     0
 76
     0
 77
     0
 78
     0
170
     0
171
     2
172
     0
173
     0
174
     0
175
     0
176
     0
177
     0
178
     0
  0
ENDTAB
  0
ENDSEC
  0
SECTION
  2
BLOCKS
  0
BLOCK
  8
0
  2
$MODEL_SPACE
 70
     0
 10
0.0
 20
0.0
 30
0.0
  3
$MODEL_SPACE
  1

  0
ENDBLK
  5
36
  8
0
  0
BLOCK
 67
     1
  8
0
  2
$PAPER_SPACE
 70
     0
 10
0.0
 20
0.0
 30
0.0
  3
$PAPER_SPACE
  1

  0
ENDBLK
  5
34
 67
     1
  8
0
  0
BLOCK
  8
0
  2
A$C33561582
 70
     0
 10
0.0
 20
0.0
 30
0.0
  3
A$C33561582
  1

  0
CIRCLE
  5
1E56
  8
0
  6
CONTINUOUS
 62
     3
 10
-784.95446258061259
 20
562.29709960591038
 30
0.0
 40
68.900000000000091
210
0.0
220
0.0
230
-1.0
  0
CIRCLE
  5
1E57
  8
0
  6
CONTINUOUS
 62
     3
 10
-784.95446258061259
 20
562.29709960591038
 30
0.0
 40
69.900000000000091
210
0.0
220
0.0
230
-1.0
  0
CIRCLE
  5
1E58
  8
0
  6
CONTINUOUS
 62
     3
 10
-784.95446258061259
 20
562.29709960591038
 30
0.0
 40
71.605057868054473
210
0.0
220
0.0
230
-1.0
  0
CIRCLE
  5
1E59
  8
0
  6
CONTINUOUS
 62
     3
 10
-784.95446258061259
 20
562.29709960591038
 30
0.0
 40
74.899999999999864
210
0.0
220
0.0
230
-1.0
  0
CIRCLE
  5
1E5A
  8
0
  6
CONTINUOUS
 62
     3
 10
-784.95446258061259
 20
562.29709960591038
 30
0.0
 40
59.671912659822617
210
0.0
220
0.0
230
-1.0
  0
CIRCLE
  5
1E5B
  8
0
  6
CONTINUOUS
 62
     3
 10
-784.95446258061259
 20
562.29709960591038
 30
0.0
 40
61.0
210
0.0
220
0.0
230
-1.0
  0
CIRCLE
  5
1E5C
  8
0
  6
CONTINUOUS
 62
     3
 10
-784.95446258061259
 20
562.29709960591038
 30
0.0
 40
65.0
210
0.0
220
0.0
230
-1.0
  0
CIRCLE
  5
1E5D
  8
0
  6
VERDECKT
 62
     1
 10
-784.95446258061259
 20
562.29709960591038
 30
0.0
 40
73.399999999999864
210
0.0
220
0.0
230
-1.0
  0
CIRCLE
  5
1E5E
  8
0
  6
VERDECKT
 62
     1
 10
-784.95446258061259
 20
562.29709960591038
 30
0.0
 40
70.400000000000091
210
0.0
220
0.0
230
-1.0
  0
CIRCLE
  5
1E5F
  8
0
  6
VERDECKT
 62
     1
 10
-784.95446258061259
 20
562.29709960591038
 30
0.0
 40
66.5
210
0.0
220
0.0
230
-1.0
  0
CIRCLE
  5
1E60
  8
0
  6
VERDECKT
 62
     1
 10
-784.95446258061259
 20
562.29709960591038
 30
0.0
 40
62.499999999999893
210
0.0
220
0.0
230
-1.0
  0
CIRCLE
  5
1E61
  8
0
  6
VERDECKT
 62
     1
 10
-784.95446258061259
 20
562.29709960591038
 30
0.0
 40
61.187670047111162
210
0.0
220
0.0
230
-1.0
  0
ENDBLK
  5
1E63
  8
0
  0
BLOCK
  8
0
  2
A$C09231887
 70
     0
 10
0.0
 20
0.0
 30
0.0
  3
A$C09231887
  1

  0
LINE
  5
1E78
  8
0
  6
CONTINUOUS
 62
     3
 10
547.33113124184115
 20
710.44360115251425
 30
0.0
 11
690.54124697794998
 21
710.44360115251425
 31
0.0
210
0.0000000000000001
220
1.0
230
0.0000000000000002
  0
LINE
  5
1E79
  8
0
  6
CONTINUOUS
 62
     3
 10
557.74851906278445
 20
505.44360115251533
 30
-0.0000000000000455
 11
680.12385915700679
 21
505.44360115251538
 31
-0.0000000000000455
210
0.0000000000000001
220
1.0
230
0.0000000000000002
  0
ARC
  5
1E7A
  8
0
  6
CONTINUOUS
 62
     3
 10
-573.03618910989439
 20
697.01787957041836
 30
0.0000000000001578
 40
28.999999999998629
210
0.0
220
0.0000000000000002
230
-1.0
 50
0.0
 51
27.578012501097579
  0
ARC
  5
1E7B
  8
0
  6
CONTINUOUS
 62
     3
 10
-664.83618910989685
 20
697.01787957041836
 30
0.0000000000001578
 40
28.999999999998629
210
0.0
220
0.0000000000000002
230
-1.0
 50
152.42198749890241
 51
180.0
  0
LINE
  5
1E7C
  8
0
  6
CONTINUOUS
 62
     3
 10
693.83618910989549
 20
697.01787957041779
 30
-0.000000000000003
 11
693.83618910989549
 21
687.73360115251535
 31
-0.000000000000005
210
0.0000000000000001
220
1.0
230
0.0000000000000002
  0
LINE
  5
1E7D
  8
0
  6
CONTINUOUS
 62
     3
 10
544.03618910989564
 20
697.01787957041779
 30
-0.000000000000003
 11
544.03618910989564
 21
687.73360115251535
 31
-0.000000000000005
210
0.0000000000000001
220
1.0
230
0.0000000000000002
  0
ARC
  5
1E7E
  8
0
  6
CONTINUOUS
 62
     3
 10
-573.03618910989485
 20
687.73360115251455
 30
0.0000000000001578
 40
28.999999999999091
210
0.0
220
0.0000000000000002
230
-1.0
 50
334.72317308343469
 51
0.0
  0
ARC
  5
1E7F
  8
0
  6
CONTINUOUS
 62
     3
 10
-664.83618910989628
 20
687.73360115251467
 30
0.0000000000001578
 40
28.999999999999201
210
0.0
220
0.0000000000000002
230
-1.0
 50
180.0
 51
205.2768269165652
  0
ARC
  5
1E80
  8
0
  6
CONTINUOUS
 62
     3
 10
-530.53618910989258
 20
667.66496891212523
 30
0.0000000000001578
 40
18.000000000002949
210
0.0
220
0.0000000000000002
230
-1.0
 50
154.72317308343469
 51
180.0
  0
ARC
  5
1E81
  8
0
  6
CONTINUOUS
 62
     3
 10
-707.33618910989856
 20
667.66496891212523
 30
0.0000000000001578
 40
18.000000000002949
210
0.0
220
0.0000000000000002
230
-1.0
 50
0.0
 51
25.276826916565231
  0
LINE
  5
1E82
  8
0
  6
CONTINUOUS
 62
     3
 10
689.3361891098956
 20
667.66496891212614
 30
-0.0000000000000095
 11
689.3361891098956
 21
643.74289011538121
 31
-0.0000000000000148
210
0.0000000000000001
220
1.0
230
0.0000000000000002
  0
LINE
  5
1E83
  8
0
  6
CONTINUOUS
 62
     3
 10
548.53618910989553
 20
667.66496891212614
 30
-0.0000000000000095
 11
548.53618910989553
 21
643.74289011538121
 31
-0.0000000000000148
210
0.0000000000000001
220
1.0
230
0.0000000000000002
  0
ARC
  5
1E84
  8
0
  6
CONTINUOUS
 62
     3
 10
-565.53618910989462
 20
643.74289011538087
 30
0.0000000000001578
 40
16.99999999999897
210
0.0
220
0.0000000000000002
230
-1.0
 50
328.82116446134552
 51
0.0
  0
ARC
  5
1E85
  8
0
  6
CONTINUOUS
 62
     3
 10
-672.33618910989662
 20
643.74289011538087
 30
0.0000000000001578
 40
16.99999999999898
210
0.0
220
0.0000000000000002
230
-1.0
 50
180.0
 51
211.1788355386546
  0
ARC
  5
1E86
  8
0
  6
CONTINUOUS
 62
     3
 10
-542.43618910989665
 20
629.7646928067154
 30
0.0000000000001578
 40
9.9999999999988631
210
0.0
220
0.0000000000000002
230
-1.0
 50
148.8211644613454
 51
180.0
  0
ARC
  5
1E87
  8
0
  6
CONTINUOUS
 62
     3
 10
-695.43618910989471
 20
629.7646928067154
 30
0.0000000000001578
 40
9.9999999999989768
210
0.0
220
0.0000000000000002
230
-1.0
 50
0.0
 51
31.178835538654589
  0
LINE
  5
1E88
  8
0
  6
CONTINUOUS
 62
     3
 10
685.43618910989562
 20
629.76469280671517
 30
-0.0000000000000179
 11
685.43618910989562
 21
604.86580625437114
 31
-0.0000000000000234
210
0.0000000000000001
220
1.0
230
0.0000000000000002
  0
LINE
  5
1E89
  8
0
  6
CONTINUOUS
 62
     3
 10
552.43618910989562
 20
629.76469280671495
 30
-0.0000000000000179
 11
552.43618910989562
 21
604.86580625437114
 31
-0.0000000000000234
210
0.0000000000000001
220
1.0
230
0.0000000000000002
  0
ARC
  5
1E8A
  8
0
  6
CONTINUOUS
 62
     3
 10
-570.43618910989551
 20
604.86580625437125
 30
0.0000000000001578
 40
17.999999999999869
210
0.0
220
0.0000000000000002
230
-1.0
 50
328.99728086612851
 51
0.0
  0
ARC
  5
1E8B
  8
0
  6
CONTINUOUS
 62
     3
 10
-667.43618910989562
 20
604.86580625437125
 30
0.0000000000001578
 40
18.0
210
0.0
220
0.0000000000000002
230
-1.0
 50
180.0
 51
211.00271913387149
  0
ARC
  5
1E8C
  8
0
  6
CONTINUOUS
 62
     3
 10
-546.43618910989608
 20
590.44360115251516
 30
0.0000000000001578
 40
9.9999999999995417
210
0.0
220
0.0000000000000002
230
-1.0
 50
148.99728086612851
 51
180.0
  0
ARC
  5
1E8D
  8
0
  6
CONTINUOUS
 62
     3
 10
-691.43618910989494
 20
590.44360115251527
 30
0.0000000000001578
 40
9.9999999999994316
210
0.0
220
0.0000000000000002
230
-1.0
 50
0.0
 51
31.002719133871469
  0
LINE
  5
1E8E
  8
0
  6
CONTINUOUS
 62
     3
 10
681.43618910989551
 20
590.44360115251527
 30
-0.0000000000000266
 11
681.43618910989551
 21
514.47373100747996
 31
-0.0000000000000435
210
0.0000000000000001
220
1.0
230
0.0000000000000002
  0
LINE
  5
1E8F
  8
0
  6
CONTINUOUS
 62
     3
 10
556.43618910989574
 20
590.44360115251516
 30
-0.0000000000000266
 11
556.43618910989574
 21
514.47373100747996
 31
-0.0000000000000435
210
0.0000000000000001
220
1.0
230
0.0000000000000002
  0
LINE
  5
1E90
  8
0
  6
CONTINUOUS
 62
     3
 10
557.74851906278445
 20
505.44360115251533
 30
-0.0000000000000455
 11
556.43618910989562
 21
514.47373100747996
 31
-0.0000000000000435
210
0.0000000000000001
220
1.0
230
0.0000000000000002
  0
LINE
  5
1E91
  8
0
  6
CONTINUOUS
 62
     3
 10
680.12385915700679
 20
505.44360115251538
 30
-0.0000000000000455
 11
681.43618910989562
 21
514.47373100747996
 31
-0.0000000000000435
210
0.0000000000000001
220
1.0
230
0.0000000000000002
  0
ARC
  5
1E92
  8
0
  6
VERDECKT
 62
     1
 10
-530.53618910989655
 20
667.66496891212626
 30
0.0000000000001578
 40
19.499999999999101
210
0.0
220
0.0000000000000002
230
-1.0
 50
154.72317308343469
 51
180.0
  0
ARC
  5
1E93
  8
0
  6
VERDECKT
 62
     1
 10
-707.33618910989662
 20
667.66496891212614
 30
0.0000000000001578
 40
19.50000000000114
210
0.0
220
0.0000000000000002
230
-1.0
 50
0.0
 51
25.276826916565231
  0
ARC
  5
1E94
  8
0
  6
VERDECKT
 62
     1
 10
-573.03618910989292
 20
687.73360115251455
 30
0.0000000000001578
 40
27.499999999997151
210
0.0
220
0.0000000000000002
230
-1.0
 50
334.72317308343469
 51
0.0
  0
ARC
  5
1E95
  8
0
  6
VERDECKT
 62
     1
 10
-664.83618910989833
 20
687.73360115251455
 30
0.0000000000001578
 40
27.499999999997161
210
0.0
220
0.0000000000000002
230
-1.0
 50
180.0
 51
205.2768269165652
  0
LINE
  5
1E96
  8
0
  6
VERDECKT
 62
     1
 10
692.33618910989549
 20
697.01787957041779
 30
-0.000000000000003
 11
692.33618910989549
 21
687.73360115251535
 31
-0.000000000000005
210
0.0000000000000001
220
1.0
230
0.0000000000000002
  0
LINE
  5
1E97
  8
0
  6
VERDECKT
 62
     1
 10
545.53618910989576
 20
697.01787957041779
 30
-0.000000000000003
 11
545.53618910989576
 21
687.73360115251535
 31
-0.000000000000005
210
0.0000000000000001
220
1.0
230
0.0000000000000002
  0
ARC
  5
1E98
  8
0
  6
VERDECKT
 62
     1
 10
-573.03618910989496
 20
697.01787957041802
 30
0.0000000000001578
 40
27.499999999999432
210
0.0
220
0.0000000000000002
230
-1.0
 50
0.0
 51
29.222870294306951
  0
ARC
  5
1E99
  8
0
  6
VERDECKT
 62
     1
 10
-664.83618910989469
 20
697.01787957041768
 30
0.0000000000001578
 40
27.500000000000909
210
0.0
220
0.0000000000000002
230
-1.0
 50
150.77712970570511
 51
180.0
  0
LINE
  5
1E9A
  8
0
  6
VERDECKT
 62
     1
 10
559.26427645007288
 20
505.44360115251533
 30
-0.0000000000000455
 11
557.93618910989574
 21
514.58215743871017
 31
-0.0000000000000435
210
0.0000000000000001
220
1.0
230
0.0000000000000002
  0
LINE
  5
1E9B
  8
0
  6
VERDECKT
 62
     1
 10
678.60810176971825
 20
505.44360115251538
 30
-0.0000000000000455
 11
679.93618910989539
 21
514.58215743871017
 31
-0.0000000000000435
210
0.0000000000000001
220
1.0
230
0.0000000000000002
  0
LINE
  5
1E9C
  8
0
  6
VERDECKT
 62
     1
 10
679.93618910989539
 20
590.44360115251527
 30
-0.0000000000000266
 11
679.93618910989539
 21
514.58215743871017
 31
-0.0000000000000435
210
0.0000000000000001
220
1.0
230
0.0000000000000002
  0
LINE
  5
1E9D
  8
0
  6
VERDECKT
 62
     1
 10
557.93618910989574
 20
590.44360115251516
 30
-0.0000000000000266
 11
557.93618910989574
 21
514.58215743871017
 31
-0.0000000000000435
210
0.0000000000000001
220
1.0
230
0.0000000000000002
  0
ARC
  5
1E9E
  8
0
  6
VERDECKT
 62
     1
 10
-546.43618910989449
 20
590.44360115251504
 30
0.0000000000001578
 40
11.500000000001039
210
0.0
220
0.0000000000000002
230
-1.0
 50
148.99728086612851
 51
180.0
  0
ARC
  5
1E9F
  8
0
  6
VERDECKT
 62
     1
 10
-691.43618910989665
 20
590.44360115251504
 30
0.0000000000001578
 40
11.50000000000102
210
0.0
220
0.0000000000000002
230
-1.0
 50
0.0
 51
31.002719133871469
  0
ARC
  5
1EA0
  8
0
  6
VERDECKT
 62
     1
 10
-570.43618910989528
 20
604.86580625437125
 30
0.0000000000001578
 40
16.49999999999978
210
0.0
220
0.0000000000000002
230
-1.0
 50
328.99728086612851
 51
0.0
  0
ARC
  5
1EA1
  8
0
  6
VERDECKT
 62
     1
 10
-667.43618910989585
 20
604.86580625437125
 30
0.0000000000001578
 40
16.499999999999879
210
0.0
220
0.0000000000000002
230
-1.0
 50
180.0
 51
211.00271913387149
  0
LINE
  5
1EA2
  8
0
  6
VERDECKT
 62
     1
 10
683.93618910989562
 20
629.76469280671517
 30
-0.0000000000000179
 11
683.93618910989562
 21
604.86580625437114
 31
-0.0000000000000234
210
0.0000000000000001
220
1.0
230
0.0000000000000002
  0
LINE
  5
1EA3
  8
0
  6
VERDECKT
 62
     1
 10
553.93618910989551
 20
629.76469280671495
 30
-0.0000000000000179
 11
553.93618910989551
 21
604.86580625437114
 31
-0.0000000000000234
210
0.0000000000000001
220
1.0
230
0.0000000000000002
  0
ARC
  5
1EA4
  8
0
  6
VERDECKT
 62
     1
 10
-542.43618910989767
 20
629.7646928067154
 30
0.0000000000001578
 40
11.49999999999773
210
0.0
220
0.0000000000000002
230
-1.0
 50
148.8211644613454
 51
180.0
  0
ARC
  5
1EA5
  8
0
  6
VERDECKT
 62
     1
 10
-695.43618910989335
 20
629.76469280671563
 30
0.0000000000001578
 40
11.499999999997611
210
0.0
220
0.0000000000000002
230
-1.0
 50
0.0
 51
31.178835538654589
  0
ARC
  5
1EA6
  8
0
  6
VERDECKT
 62
     1
 10
-565.53618910989474
 20
643.74289011538087
 30
0.0000000000001578
 40
15.49999999999921
210
0.0
220
0.0000000000000002
230
-1.0
 50
328.82116446134552
 51
0.0
  0
ARC
  5
1EA7
  8
0
  6
VERDECKT
 62
     1
 10
-672.33618910989628
 20
643.74289011538087
 30
0.0000000000001578
 40
15.49999999999943
210
0.0
220
0.0000000000000002
230
-1.0
 50
180.0
 51
211.1788355386546
  0
LINE
  5
1EA8
  8
0
  6
VERDECKT
 62
     1
 10
687.83618910989571
 20
667.66496891212614
 30
-0.0000000000000095
 11
687.83618910989571
 21
643.74289011538133
 31
-0.0000000000000148
210
0.0000000000000001
220
1.0
230
0.0000000000000002
  0
LINE
  5
1EA9
  8
0
  6
VERDECKT
 62
     1
 10
550.03618910989553
 20
667.66496891212603
 30
-0.0000000000000095
 11
550.03618910989553
 21
643.74289011538121
 31
-0.0000000000000148
210
0.0000000000000001
220
1.0
230
0.0000000000000002
  0
ENDBLK
  5
1EAB
  8
0
  0
ENDSEC
  0
SECTION
  2
ENTITIES
  0
TEXT
  5
8F
  8
VOLL
 10
78.076754716981128
 20
31.025947764705851
 30
0.0
 40
1.8
  1

  7
GREEKS
  0
TEXT
  5
3EF
  8
TEXT
 62
     1
 10
369.48383743544412
 20
62.526393744057707
 30
0.0
 40
7.0
  1

 41
0.8
  7
GREEKS
 72
     1
 11
369.48383743544412
 21
62.526393744057707
 31
0.0
  0
TEXT
  5
3F7
  8
TEXT
 62
     1
 10
234.60576589464679
 20
129.07834657454831
 30
0.0
 40
7.0
  1

 41
0.8
  7
GREEKS
  0
INSERT
  5
1E64
  8
RAHMEN
  2
A$C33561582
 10
122.2266536948477
 20
172.49346561889169
 30
0.0
  0
INSERT
  5
1EAC
  8
RAHMEN
  2
A$C09231887
 10
288.24492716556477
 20
356.9745866911075
 30
0.0
  0
VIEWPORT
  5
1CD3
 67
     1
  8
0
 10
5.3989638816964263
 20
3.7361347563570502
 30
0.0
 40
21.906597076605269
 41
10.32477270341615
 68
     1
 69
     1
1001
ACAD
1000
MVIEW
1002
{
1070
    16
1010
0.0
1020
0.0
1030
0.0
1010
0.0
1020
0.0
1030
1.0
1040
0.0
1040
10.32477270341615
1040
5.3989638816964263
1040
3.7361347563570502
1040
50.0
1040
0.0
1040
0.0
1070
     0
1070
  1500
1070
     1
1070
     1
1070
     0
1070
     0
1070
     0
1070
     0
1040
0.0
1040
0.0
1040
0.0
1040
10.0
1040
10.0
1040
10.0
1040
10.0
1070
     0
1002
{
1002
}
1002
}
  0
ENDSEC
  0
EOF
