  0
SECTION
  2
HEADER
  9
$ACADVER
  1
AC1009
  9
$INSBASE
 10
0.0
 20
0.0
 30
0.0
  9
$EXTMIN
 10
-44.450000010000188
 20
-119.6467347923692
 30
-5.0000000000002842
  9
$EXTMAX
 10
44.450000010000117
 20
180.0032929043299
 30
180.0032929043299
  9
$LIMMIN
 10
0.0
 20
0.0
  9
$LIMMAX
 10
210.0
 20
297.0
  9
$ORTHOMODE
 70
     1
  9
$REGENMODE
 70
     1
  9
$FILLMODE
 70
     1
  9
$QTEXTMODE
 70
     0
  9
$MIRRTEXT
 70
     1
  9
$DRAGMODE
 70
     2
  9
$LTSCALE
 40
10.0
  9
$OSMODE
 70
   311
  9
$ATTMODE
 70
     1
  9
$TEXTSIZE
 40
3.5
  9
$TRACEWID
 40
0.5
  9
$TEXTSTYLE
  7
STANDARD
  9
$CLAYER
  8
0
  9
$CELTYPE
  6
BYLAYER
  9
$CECOLOR
 62
   256
  9
$DIMSCALE
 40
1.0
  9
$DIMASZ
 40
3.5
  9
$DIMEXO
 40
1.0
  9
$DIMDLI
 40
7.0
  9
$DIMRND
 40
0.0
  9
$DIMDLE
 40
0.0
  9
$DIMEXE
 40
1.0
  9
$DIMTP
 40
0.0
  9
$DIMTM
 40
0.0
  9
$DIMTXT
 40
3.5
  9
$DIMCEN
 40
1.5
  9
$DIMTSZ
 40
0.0
  9
$DIMTOL
 70
     0
  9
$DIMLIM
 70
     0
  9
$DIMTIH
 70
     0
  9
$DIMTOH
 70
     0
  9
$DIMSE1
 70
     0
  9
$DIMSE2
 70
     0
  9
$DIMTAD
 70
     1
  9
$DIMZIN
 70
     8
  9
$DIMBLK
  1

  9
$DIMASO
 70
     1
  9
$DIMSHO
 70
     0
  9
$DIMPOST
  1

  9
$DIMAPOST
  1

  9
$DIMALT
 70
     0
  9
$DIMALTD
 70
     2
  9
$DIMALTF
 40
25.399999999999999
  9
$DIMLFAC
 40
1.0
  9
$DIMTOFL
 70
     1
  9
$DIMTVP
 40
0.0
  9
$DIMTIX
 70
     0
  9
$DIMSOXD
 70
     0
  9
$DIMSAH
 70
     0
  9
$DIMBLK1
  1

  9
$DIMBLK2
  1

  9
$DIMSTYLE
  2
STANDARD
  9
$DIMCLRD
 70
     0
  9
$DIMCLRE
 70
     0
  9
$DIMCLRT
 70
     1
  9
$DIMTFAC
 40
0.5142857142857144
  9
$DIMGAP
 40
1.5
  9
$LUNITS
 70
     2
  9
$LUPREC
 70
     2
  9
$SKETCHINC
 40
1.0
  9
$FILLETRAD
 40
12.0
  9
$AUNITS
 70
     1
  9
$AUPREC
 70
     3
  9
$MENU
  1
ACAD
  9
$ELEVATION
 40
0.0
  9
$PELEVATION
 40
0.0
  9
$THICKNESS
 40
0.0
  9
$LIMCHECK
 70
     0
  9
$BLIPMODE
 70
     0
  9
$CHAMFERA
 40
0.0
  9
$CHAMFERB
 40
0.0
  9
$SKPOLY
 70
     0
  9
$TDCREATE
 40
2452040.637099653
  9
$TDUPDATE
 40
2458401.4238081248
  9
$TDINDWG
 40
0.3121663657
  9
$TDUSRTIMER
 40
0.3121663657
  9
$USRTIMER
 70
     1
  9
$ANGBASE
 50
0.0
  9
$ANGDIR
 70
     0
  9
$PDMODE
 70
     0
  9
$PDSIZE
 40
0.0
  9
$PLINEWID
 40
0.0
  9
$COORDS
 70
     1
  9
$SPLFRAME
 70
     0
  9
$SPLINETYPE
 70
     6
  9
$SPLINESEGS
 70
     8
  9
$ATTDIA
 70
     0
  9
$ATTREQ
 70
     0
  9
$HANDLING
 70
     1
  9
$HANDSEED
  5
16C7
  9
$SURFTAB1
 70
     6
  9
$SURFTAB2
 70
     6
  9
$SURFTYPE
 70
     6
  9
$SURFU
 70
     6
  9
$SURFV
 70
     6
  9
$UCSNAME
  2

  9
$UCSORG
 10
0.0
 20
0.0
 30
0.0
  9
$UCSXDIR
 10
1.0
 20
0.0
 30
0.0
  9
$UCSYDIR
 10
0.0
 20
1.0
 30
0.0
  9
$PUCSNAME
  2

  9
$PUCSORG
 10
0.0
 20
0.0
 30
0.0
  9
$PUCSXDIR
 10
1.0
 20
0.0
 30
0.0
  9
$PUCSYDIR
 10
0.0
 20
1.0
 30
0.0
  9
$USERI1
 70
     0
  9
$USERI2
 70
     0
  9
$USERI3
 70
     0
  9
$USERI4
 70
     0
  9
$USERI5
 70
     0
  9
$USERR1
 40
0.0
  9
$USERR2
 40
0.0
  9
$USERR3
 40
0.0
  9
$USERR4
 40
0.0
  9
$USERR5
 40
0.0
  9
$WORLDVIEW
 70
     1
  9
$SHADEDGE
 70
     3
  9
$SHADEDIF
 70
    70
  9
$TILEMODE
 70
     1
  9
$MAXACTVP
 70
    16
  9
$PLIMCHECK
 70
     0
  9
$PEXTMIN
 10
1.0000000000000000E+020
 20
1.0000000000000000E+020
 30
1.0000000000000000E+020
  9
$PEXTMAX
 10
-1.0000000000000000E+020
 20
-1.0000000000000000E+020
 30
-1.0000000000000000E+020
  9
$PLIMMIN
 10
-0.2500002402958907
 20
-0.2499999962453767
  9
$PLIMMAX
 10
10.74999951940822
 20
8.2499997634587334
  9
$UNITMODE
 70
     0
  9
$VISRETAIN
 70
     0
  9
$PLINEGEN
 70
     0
  9
$PSLTSCALE
 70
     0
  0
ENDSEC
  0
SECTION
  2
TABLES
  0
TABLE
  2
VPORT
 70
     1
  0
VPORT
  2
*ACTIVE
 70
     0
 10
0.0
 20
0.0
 11
1.0
 21
1.0
 12
0.0
 22
0.0
 13
0.0
 23
0.0
 14
1.0
 24
1.0
 15
10.0
 25
10.0
 16
0.0
 26
0.0
 36
1027.1516876804581
 17
48.692827906998311
 27
38.511828396298732
 37
-36.053701898707537
 40
371.04785869175811
 41
2.1108071135430908
 42
50.0
 43
0.0
 44
0.0
 50
0.0
 51
0.0
 71
     0
 72
  1500
 73
     1
 74
     1
 75
     0
 76
     0
 77
     0
 78
     0
  0
ENDTAB
  0
TABLE
  2
LTYPE
 70
     3
  0
LTYPE
  2
CONTINUOUS
 70
     0
  3
Solid line
 72
    65
 73
     0
 40
0.0
  0
LTYPE
  2
PHANTOM2
 70
     0
  3
Phantom (.5x) ___ _ _ ___ _ _ ___ _ _ ___ _ _
 72
    65
 73
     6
 40
1.25
 49
0.625
 49
-0.125
 49
0.125
 49
-0.125
 49
0.125
 49
-0.125
  0
LTYPE
  2
VERDECKT
 70
     0
  3
Verdeckt __ __ __ __ __ __ __ __ __ __ __ __ __
 72
    65
 73
     2
 40
0.375
 49
0.25
 49
-0.125
  0
ENDTAB
  0
TABLE
  2
LAYER
 70
     2
  0
LAYER
  2
0
 70
     0
 62
     7
  6
CONTINUOUS
  0
LAYER
  2
DEFPOINTS
 70
     0
 62
     7
  6
CONTINUOUS
  0
ENDTAB
  0
TABLE
  2
STYLE
 70
     1
  0
STYLE
  2
STANDARD
 70
     0
 40
0.0
 41
0.8
 50
0.0
 71
     0
 42
3.5
  3
simplex.shx
  4

  0
ENDTAB
  0
TABLE
  2
VIEW
 70
     0
  0
ENDTAB
  0
TABLE
  2
UCS
 70
     0
  0
ENDTAB
  0
TABLE
  2
APPID
 70
    12
  0
APPID
  2
ACAD
 70
     0
  0
APPID
  2
ACAD_NAV_VCDISPLAY
 70
     0
  0
APPID
  2
ACAD_DSTYLE_DIMJAG
 70
     0
  0
APPID
  2
ACAD_DSTYLE_DIMTALN
 70
     0
  0
APPID
  2
GRADIENTCOLOR1ACI
 70
     0
  0
APPID
  2
GRADIENTCOLOR2ACI
 70
     0
  0
APPID
  2
ACAD_EXEMPT_FROM_CAD_STANDARDS
 70
     0
  0
APPID
  2
ACAECLAYERSTANDARD
 70
     0
  0
APPID
  2
ACCMTRANSPARENCY
 70
     0
  0
APPID
  2
ACAD_PSEXT
 70
     0
  0
APPID
  2
ACAD_MLEADERVER
 70
     0
  0
APPID
  2
ACAD_OBJECT_CHANGE_GUID
 70
     0
  0
ENDTAB
  0
TABLE
  2
DIMSTYLE
 70
     1
  0
DIMSTYLE
  2
STANDARD
 70
     0
  3

  4

  5

  6

  7

 40
1.0
 41
0.18
 42
0.0625
 43
0.38
 44
0.18
 45
0.0
 46
0.0
 47
0.0
 48
0.0
140
0.18
141
0.09
142
0.0
143
25.399999999999999
144
1.0
145
0.0
146
1.0
147
0.09
 71
     0
 72
     0
 73
     1
 74
     1
 75
     0
 76
     0
 77
     0
 78
     0
170
     0
171
     2
172
     0
173
     0
174
     0
175
     0
176
     0
177
     0
178
     0
  0
ENDTAB
  0
ENDSEC
  0
SECTION
  2
BLOCKS
  0
BLOCK
  8
0
  2
$MODEL_SPACE
 70
     0
 10
0.0
 20
0.0
 30
0.0
  3
$MODEL_SPACE
  1

  0
ENDBLK
  5
44
  8
0
  0
BLOCK
 67
     1
  8
0
  2
$PAPER_SPACE
 70
     0
 10
0.0
 20
0.0
 30
0.0
  3
$PAPER_SPACE
  1

  0
ENDBLK
  5
42
 67
     1
  8
0
  0
BLOCK
  8
0
  2
A$C49B073D5
 70
     0
 10
0.0
 20
0.0
 30
0.0
  3
A$C49B073D5
  1

  0
LINE
  5
160F
  8
0
  6
CONTINUOUS
 62
     3
 10
-39.290637888580541
 20
180.0032929043299
 30
0.00000000000004
 11
39.290637888580193
 21
180.0032929043299
 31
0.00000000000004
210
0.0
220
1.0
230
0.0000000000000002
  0
ARC
  5
1610
  8
0
  6
CONTINUOUS
 62
     3
 10
17.11470028346276
 20
169.50525863527531
 30
0.0
 40
24.53529971653737
210
0.0
220
0.0000000000000002
230
-1.0
 50
0.0
 51
25.33275937105071
  0
ARC
  5
1611
  8
0
  6
CONTINUOUS
 62
     3
 10
-17.114700283461929
 20
169.5052586352752
 30
0.0
 40
24.535299716537871
210
0.0
220
0.0000000000000002
230
-1.0
 50
154.66724062894971
 51
179.9999999999998
  0
LINE
  5
1612
  8
0
  6
CONTINUOUS
 62
     3
 10
41.6499999999998
 20
169.50525863527531
 30
0.0000000000000376
 11
41.6499999999998
 21
160.44331439067969
 31
0.0000000000000356
210
0.0
220
1.0
230
0.0000000000000002
  0
LINE
  5
1613
  8
0
  6
CONTINUOUS
 62
     3
 10
-41.650000000000148
 20
169.5052586352752
 30
0.0000000000000376
 11
-41.650000000000148
 21
160.44331439067969
 31
0.0000000000000356
210
0.0
220
1.0
230
0.0000000000000002
  0
ARC
  5
1614
  8
0
  6
CONTINUOUS
 62
     3
 10
16.999999999995872
 20
160.37551398660591
 30
0.0
 40
24.650093243130058
210
0.0
220
0.0000000000000002
230
-1.0
 50
338.81684560696561
 51
0.1575929901175603
  0
ARC
  5
1615
  8
0
  6
CONTINUOUS
 62
     3
 10
-16.999999999996021
 20
160.3755139866058
 30
0.0
 40
24.650093243129572
210
0.0
220
0.0000000000000002
230
-1.0
 50
179.84240700988221
 51
201.18315439303441
  0
ARC
  5
1616
  8
0
  6
CONTINUOUS
 62
     3
 10
51.499999999999837
 20
147.00551398660519
 30
0.0
 40
12.349999999999669
210
0.0
220
0.0000000000000002
230
-1.0
 50
158.8168456069657
 51
180.0
  0
ARC
  5
1617
  8
0
  6
CONTINUOUS
 62
     3
 10
-51.499999999999872
 20
147.00551398660519
 30
0.0
 40
12.35000000000003
210
0.0
220
0.0000000000000002
230
-1.0
 50
0.0000000000001399
 51
21.18315439303392
  0
LINE
  5
1618
  8
0
  6
CONTINUOUS
 62
     3
 10
39.149999999999807
 20
147.00551398660531
 30
0.0000000000000326
 11
39.149999999999807
 21
130.2148238339031
 31
0.0000000000000289
210
0.0
220
1.0
230
0.0000000000000002
  0
LINE
  5
1619
  8
0
  6
CONTINUOUS
 62
     3
 10
-39.150000000000148
 20
147.00551398660519
 30
0.0000000000000326
 11
-39.150000000000148
 21
130.21482383390301
 31
0.0000000000000289
210
0.0
220
1.0
230
0.0000000000000002
  0
ARC
  5
161A
  8
0
  6
CONTINUOUS
 62
     3
 10
27.499999999997112
 20
130.21482383390381
 30
0.0
 40
11.65000000000293
210
0.0
220
0.0000000000000002
230
-1.0
 50
329.89868945320171
 51
359.99999999999619
  0
ARC
  5
161B
  8
0
  6
CONTINUOUS
 62
     3
 10
-27.499999999996842
 20
130.21482383390381
 30
0.0
 40
11.650000000003081
210
0.0
220
0.0000000000000002
230
-1.0
 50
180.00000000000369
 51
210.101310546798
  0
ARC
  5
161C
  8
0
  6
CONTINUOUS
 62
     3
 10
44.500000000000362
 20
120.35974899907799
 30
0.0
 40
8.0000000000002718
210
0.0
220
0.0000000000000002
230
-1.0
 50
149.89868945320131
 51
180.0
  0
ARC
  5
161D
  8
0
  6
CONTINUOUS
 62
     3
 10
-44.500000000000277
 20
120.35974899907799
 30
0.0
 40
8.0000000000003126
210
0.0
220
0.0000000000000002
230
-1.0
 50
0.0000000000001018
 51
30.101310546798601
  0
LINE
  5
161E
  8
0
  6
CONTINUOUS
 62
     3
 10
36.5
 20
120.35974899907811
 30
0.0000000000000267
 11
36.5
 21
111.8885438199982
 31
0.0000000000000248
210
0.0
220
1.0
230
0.0000000000000002
  0
LINE
  5
161F
  8
0
  6
CONTINUOUS
 62
     3
 10
-36.500000000000107
 20
120.35974899907799
 30
0.0000000000000267
 11
-36.500000000000107
 21
111.8885438199982
 31
0.0000000000000248
210
0.0
220
1.0
230
0.0000000000000002
  0
ARC
  5
1620
  8
0
  6
CONTINUOUS
 62
     3
 10
44.499999999999872
 20
111.88854381999801
 30
0.0
 40
7.999999999999801
210
0.0
220
0.0000000000000002
230
-1.0
 50
179.99999999999861
 51
206.56505117707769
  0
ARC
  5
1621
  8
0
  6
CONTINUOUS
 62
     3
 10
-44.499999999999943
 20
111.88854381999811
 30
0.0
 40
7.9999999999999938
210
0.0
220
0.0000000000000002
230
-1.0
 50
333.43494882292242
 51
0.0000000000010305
  0
LINE
  5
1622
  8
0
  6
CONTINUOUS
 62
     3
 10
37.344582472000639
 20
108.3108350559985
 30
0.000000000000024
 11
38.999999999999893
 21
104.9999999999999
 31
0.0000000000000233
210
0.0
220
1.0
230
0.0000000000000002
  0
LINE
  5
1623
  8
0
  6
CONTINUOUS
 62
     3
 10
-37.344582472000752
 20
108.3108350559984
 30
0.000000000000024
 11
-39.0
 21
104.9999999999999
 31
0.0000000000000233
210
0.0
220
1.0
230
0.0000000000000002
  0
LINE
  5
1624
  8
0
  6
CONTINUOUS
 62
     3
 10
-39.99999999999995
 20
104.9999999999999
 30
0.0000000000000233
 11
39.999999999999829
 21
104.9999999999999
 31
0.0000000000000233
210
0.0
220
1.0
230
0.0000000000000002
  0
LINE
  5
1625
  8
0
  6
CONTINUOUS
 62
     3
 10
-44.01255668237053
 20
-5.000000000000246
 30
-0.0000000000000011
 11
44.01255668237053
 21
-5.0000000000002078
 31
-0.0000000000000011
210
0.0
220
1.0
230
0.0000000000000002
  0
LINE
  5
1626
  8
0
  6
CONTINUOUS
 62
     3
 10
39.999999999999829
 20
104.9999999999999
 30
0.0000000000000233
 11
43.41571609822433
 21
97.314734315313927
 31
0.0000000000000216
210
0.0
220
1.0
230
0.0000000000000002
  0
LINE
  5
1627
  8
0
  6
CONTINUOUS
 62
     3
 10
-39.99999999999995
 20
104.9999999999999
 30
0.0000000000000233
 11
-43.415716098224443
 21
97.314734315313913
 31
0.0000000000000216
210
0.0
220
1.0
230
0.0000000000000002
  0
ARC
  5
1628
  8
0
  6
CONTINUOUS
 62
     3
 10
32.450000000000173
 20
92.441022131244509
 30
0.0
 40
12.00000000000005
210
0.0
220
0.0000000000000002
230
-1.0
 50
0.0000000000004071
 51
23.962753314116672
  0
ARC
  5
1629
  8
0
  6
CONTINUOUS
 62
     3
 10
-32.449999999999918
 20
92.441022131244509
 30
0.0
 40
12.00000000000019
210
0.0
220
0.0000000000000002
230
-1.0
 50
156.0372466858835
 51
179.99999999999949
  0
LINE
  5
162A
  8
0
  6
CONTINUOUS
 62
     3
 10
44.450000000000259
 20
92.441022131244608
 30
0.0000000000000205
 11
44.45000000000028
 21
0.0000000000000142
 31
0.0
210
0.0
220
1.0
230
0.0000000000000002
  0
LINE
  5
162B
  8
0
  6
CONTINUOUS
 62
     3
 10
-44.450000000000173
 20
92.441022131244594
 30
0.0000000000000205
 11
-44.450000000000138
 21
-0.0000000000000284
 31
0.0
210
0.0
220
1.0
230
0.0000000000000002
  0
LINE
  5
162C
  8
0
  6
CONTINUOUS
 62
     3
 10
-44.012556682370551
 20
-5.0000000000002531
 30
-0.0000000000000011
 11
-44.45000000000018
 21
-0.0000000000000258
 31
0.0
210
0.0
220
1.0
230
0.0000000000000002
  0
LINE
  5
162D
  8
0
  6
CONTINUOUS
 62
     3
 10
44.012556682370551
 20
-5.0000000000002141
 30
-0.0000000000000011
 11
44.45000000000018
 21
0.0000000000000124
 31
0.0
210
0.0
220
1.0
230
0.0000000000000002
  0
LINE
  5
162E
  8
0
  6
VERDECKT
 62
     1
 10
36.271269842800571
 20
107.7741787413988
 30
0.0000000000000239
 11
37.658359213500091
 21
104.9999999999999
 31
0.0000000000000233
210
0.0
220
1.0
230
0.0000000000000002
  0
LINE
  5
162F
  8
0
  6
VERDECKT
 62
     1
 10
-36.27126984280067
 20
107.7741787413988
 30
0.0000000000000239
 11
-37.658359213500198
 21
104.9999999999999
 31
0.0000000000000233
210
0.0
220
1.0
230
0.0000000000000002
  0
ARC
  5
1630
  8
0
  6
VERDECKT
 62
     1
 10
44.499999999996987
 20
111.8885438199972
 30
0.0
 40
9.1999999999969102
210
0.0
220
0.0000000000000002
230
-1.0
 50
179.99999999999369
 51
206.56505117707931
  0
ARC
  5
1631
  8
0
  6
VERDECKT
 62
     1
 10
-44.499999999996831
 20
111.8885438199972
 30
0.0
 40
9.1999999999968551
210
0.0
220
0.0000000000000002
230
-1.0
 50
333.43494882292038
 51
0.0000000000062848
  0
LINE
  5
1632
  8
0
  6
VERDECKT
 62
     1
 10
35.300000000000011
 20
120.35974899907811
 30
0.0000000000000267
 11
35.300000000000011
 21
111.8885438199982
 31
0.0000000000000248
210
0.0
220
1.0
230
0.0000000000000002
  0
LINE
  5
1633
  8
0
  6
VERDECKT
 62
     1
 10
-35.300000000000132
 20
120.35974899907799
 30
0.0000000000000267
 11
-35.300000000000132
 21
111.8885438199982
 31
0.0000000000000248
210
0.0
220
1.0
230
0.0000000000000002
  0
ARC
  5
1634
  8
0
  6
VERDECKT
 62
     1
 10
44.500000000000568
 20
120.35974899907799
 30
0.0
 40
9.2000000000004931
210
0.0
220
0.0000000000000002
230
-1.0
 50
149.89868945320021
 51
179.99999999999969
  0
ARC
  5
1635
  8
0
  6
VERDECKT
 62
     1
 10
-44.500000000000412
 20
120.35974899907799
 30
0.0
 40
9.2000000000004505
210
0.0
220
0.0000000000000002
230
-1.0
 50
0.0000000000000891
 51
30.101310546799581
  0
ARC
  5
1636
  8
0
  6
VERDECKT
 62
     1
 10
27.49999999999855
 20
130.21482383390349
 30
0.0
 40
10.45000000000155
210
0.0
220
0.0000000000000002
230
-1.0
 50
329.89868945320029
 51
359.99999999999761
  0
ARC
  5
1637
  8
0
  6
VERDECKT
 62
     1
 10
-27.499999999998291
 20
130.21482383390349
 30
0.0
 40
10.45000000000169
210
0.0
220
0.0000000000000002
230
-1.0
 50
180.0000000000023
 51
210.1013105467994
  0
LINE
  5
1638
  8
0
  6
VERDECKT
 62
     1
 10
37.949999999999818
 20
147.00551398660531
 30
0.0000000000000326
 11
37.949999999999818
 21
130.2148238339031
 31
0.0000000000000289
210
0.0
220
1.0
230
0.0000000000000002
  0
LINE
  5
1639
  8
0
  6
VERDECKT
 62
     1
 10
-37.950000000000159
 20
147.00551398660519
 30
0.0000000000000326
 11
-37.950000000000159
 21
130.2148238339031
 31
0.0000000000000289
210
0.0
220
1.0
230
0.0000000000000002
  0
ARC
  5
163A
  8
0
  6
VERDECKT
 62
     1
 10
51.499999999999652
 20
147.00551398660531
 30
0.0
 40
13.5499999999995
210
0.0
220
0.0000000000000002
230
-1.0
 50
158.8168456069611
 51
180.00000000000011
  0
ARC
  5
163B
  8
0
  6
VERDECKT
 62
     1
 10
-51.499999999999837
 20
147.00551398660519
 30
0.0
 40
13.55000000000002
210
0.0
220
0.0000000000000002
230
-1.0
 50
0.0000000000002417
 51
21.18315439303851
  0
ARC
  5
163C
  8
0
  6
VERDECKT
 62
     1
 10
17.000000000010719
 20
160.37551398660321
 30
0.0
 40
23.450093243115148
210
0.0
220
0.0000000000000002
230
-1.0
 50
338.81684560696129
 51
0.1615749012136855
  0
ARC
  5
163D
  8
0
  6
VERDECKT
 62
     1
 10
-17.00000000001091
 20
160.3755139866031
 30
0.0
 40
23.450093243114601
210
0.0
220
0.0000000000000002
230
-1.0
 50
179.8384250987859
 51
201.18315439303879
  0
LINE
  5
163E
  8
0
  6
VERDECKT
 62
     1
 10
40.449999999999818
 20
169.5045966065662
 30
0.0000000000000376
 11
40.449999999999818
 21
160.44164349054731
 31
0.0000000000000356
210
0.0
220
1.0
230
0.0000000000000002
  0
LINE
  5
163F
  8
0
  6
VERDECKT
 62
     1
 10
-40.450000000000152
 20
169.5045966065662
 30
0.0000000000000376
 11
-40.450000000000152
 21
160.44164349054731
 31
0.0000000000000356
210
0.0
220
1.0
230
0.0000000000000002
  0
ARC
  5
1640
  8
0
  6
VERDECKT
 62
     1
 10
17.105727205624991
 20
169.5045966065662
 30
0.0
 40
23.34427279437519
210
0.0
220
0.0000000000000002
230
-1.0
 50
0.0000000000000763
 51
26.72657255417565
  0
ARC
  5
1641
  8
0
  6
VERDECKT
 62
     1
 10
-17.10572720562482
 20
169.5045966065662
 30
0.0
 40
23.344272794375019
210
0.0
220
0.0000000000000002
230
-1.0
 50
153.27342744582421
 51
179.99999999999989
  0
LINE
  5
1642
  8
0
  6
VERDECKT
 62
     1
 10
-42.807972877318349
 20
-5.0000000000002478
 30
-0.0000000000000011
 11
-43.250000000000192
 21
0.0523931314900565
 31
0.0
210
0.0
220
1.0
230
0.0000000000000002
  0
LINE
  5
1643
  8
0
  6
VERDECKT
 62
     1
 10
42.807972877318349
 20
-5.0000000000002096
 30
-0.0000000000000011
 11
43.250000000000192
 21
0.0523931314900947
 31
0.0
210
0.0
220
1.0
230
0.0000000000000002
  0
LINE
  5
1644
  8
0
  6
VERDECKT
 62
     1
 10
43.250000000000263
 20
92.441022131244608
 30
0.0000000000000205
 11
43.250000000000298
 21
0.0523931314900921
 31
0.0
210
0.0
220
1.0
230
0.0000000000000002
  0
LINE
  5
1645
  8
0
  6
VERDECKT
 62
     1
 10
-43.250000000000178
 20
92.441022131244594
 30
0.0000000000000205
 11
-43.250000000000163
 21
0.0523931314900494
 31
0.0
210
0.0
220
1.0
230
0.0000000000000002
  0
ARC
  5
1646
  8
0
  6
VERDECKT
 62
     1
 10
32.450000000000259
 20
92.441022131244608
 30
0.0
 40
10.79999999999994
210
0.0
220
0.0000000000000002
230
-1.0
 50
359.99999999999977
 51
23.96275331411622
  0
ARC
  5
1647
  8
0
  6
VERDECKT
 62
     1
 10
-32.450000000000088
 20
92.441022131244608
 30
0.0
 40
10.800000000000001
210
0.0
220
0.0000000000000002
230
-1.0
 50
156.03724668588379
 51
180.0
  0
LINE
  5
1648
  8
0
  6
VERDECKT
 62
     1
 10
38.686816267080467
 20
104.9999999999999
 30
0.0000000000000233
 11
42.319144488401953
 21
96.827363096906993
 31
0.0000000000000215
210
0.0
220
1.0
230
0.0000000000000002
  0
LINE
  5
1649
  8
0
  6
VERDECKT
 62
     1
 10
-38.68681626708058
 20
104.9999999999999
 30
0.0000000000000233
 11
-42.319144488402053
 21
96.827363096906979
 31
0.0000000000000215
210
0.0
220
1.0
230
0.0000000000000002
  0
ENDBLK
  5
164B
  8
0
  0
BLOCK
  8
0
  2
A$C0D0C26DB
 70
     0
 10
0.0
 20
0.0
 30
0.0
  3
A$C0D0C26DB
  1

  0
CIRCLE
  5
164F
  8
0
  6
CONTINUOUS
 62
     3
 10
0.0000000000001306
 20
-0.0000000000000673
 30
0.0
 40
39.290637888580363
210
0.0000000000000002
220
0.0
230
-1.0
  0
CIRCLE
  5
1650
  8
0
  6
CONTINUOUS
 62
     3
 10
0.0000000000001306
 20
-0.0000000000000673
 30
0.0
 40
37.955965773697073
210
0.0000000000000002
220
0.0
230
-1.0
  0
CIRCLE
  5
1651
  8
0
  6
CONTINUOUS
 62
     3
 10
0.0000000000001329
 20
-0.0000000000000637
 30
0.0
 40
41.649999999999977
210
0.0000000000000002
220
0.0
230
-1.0
  0
CIRCLE
  5
1652
  8
0
  6
CONTINUOUS
 62
     3
 10
0.0000000000000301
 20
-0.0000000000000468
 30
0.0
 40
35.300000000000068
210
0.0000000000000002
220
0.0
230
-1.0
  0
CIRCLE
  5
1653
  8
0
  6
CONTINUOUS
 62
     3
 10
0.0000000000001379
 20
-0.000000000000056
 30
0.0
 40
37.949999999999989
210
0.0000000000000002
220
0.0
230
-1.0
  0
CIRCLE
  5
1654
  8
0
  6
CONTINUOUS
 62
     3
 10
0.0000000000001349
 20
-0.0000000000000606
 30
0.0
 40
41.650093243125752
210
0.0000000000000002
220
0.0
230
-1.0
  0
CIRCLE
  5
1655
  8
0
  6
CONTINUOUS
 62
     3
 10
0.0000000000000363
 20
-0.0000000000000372
 30
0.0
 40
44.450000000000159
210
0.0000000000000002
220
0.0
230
-1.0
  0
CIRCLE
  5
1656
  8
0
  6
VERDECKT
 62
     1
 10
0.0000000000001379
 20
-0.000000000000056
 30
0.0
 40
39.149999999999977
210
0.0000000000000002
220
0.0
230
-1.0
  0
CIRCLE
  5
1657
  8
0
  6
VERDECKT
 62
     1
 10
0.0000000000000301
 20
-0.0000000000000468
 30
0.0
 40
36.500000000000057
210
0.0000000000000002
220
0.0
230
-1.0
  0
CIRCLE
  5
1658
  8
0
  6
VERDECKT
 62
     1
 10
0.0000000000000335
 20
-0.0000000000000415
 30
0.0
 40
38.99999999999995
210
0.0000000000000002
220
0.0
230
-1.0
  0
CIRCLE
  5
1659
  8
0
  6
VERDECKT
 62
     1
 10
0.0000000000000335
 20
-0.0000000000000415
 30
0.0
 40
37.658359213500148
210
0.0000000000000002
220
0.0
230
-1.0
  0
CIRCLE
  5
165A
  8
0
  6
VERDECKT
 62
     1
 10
0.0000000000001329
 20
-0.0000000000000637
 30
0.0
 40
40.449999999999989
210
0.0000000000000002
220
0.0
230
-1.0
  0
CIRCLE
  5
165B
  8
0
  6
VERDECKT
 62
     1
 10
0.0000000000001349
 20
-0.0000000000000606
 30
0.0
 40
40.450093243125693
210
0.0000000000000002
220
0.0
230
-1.0
  0
CIRCLE
  5
165C
  8
0
  6
VERDECKT
 62
     1
 10
0.0000000000000335
 20
-0.0000000000000415
 30
0.0
 40
39.999999999999893
210
0.0000000000000002
220
0.0
230
-1.0
  0
CIRCLE
  5
165D
  8
0
  6
VERDECKT
 62
     1
 10
0.0000000000000011
 20
-0.0000000000000036
 30
0.0
 40
44.01255668237053
210
0.0000000000000002
220
0.0
230
-1.0
  0
CIRCLE
  5
165E
  8
0
  6
VERDECKT
 62
     1
 10
0.0000000000000011
 20
-0.0000000000000036
 30
0.0
 40
42.807972877318377
210
0.0000000000000002
220
0.0
230
-1.0
  0
CIRCLE
  5
165F
  8
0
  6
VERDECKT
 62
     1
 10
0.0000000000000363
 20
-0.0000000000000372
 30
0.0
 40
43.250000000000171
210
0.0000000000000002
220
0.0
230
-1.0
  0
CIRCLE
  5
1660
  8
0
  6
VERDECKT
 62
     1
 10
0.0000000000000335
 20
-0.0000000000000415
 30
0.0
 40
38.68681626708053
210
0.0000000000000002
220
0.0
230
-1.0
  0
ENDBLK
  5
1662
  8
0
  0
ENDSEC
  0
SECTION
  2
ENTITIES
  0
INSERT
  5
164C
  8
0
  2
A$C49B073D5
 10
0.0
 20
0.0
 30
0.0
  0
INSERT
  5
1663
  8
0
  2
A$C0D0C26DB
 10
0.0
 20
-75.196734782369063
 30
0.0
  0
VIEWPORT
  5
13A4
 67
     1
  8
0
 10
5.016064349290601
 20
4.6660688079343373
 30
0.0
 40
24.470262868506278
 41
11.533051036027141
 68
     1
 69
     1
1001
ACAD
1000
MVIEW
1002
{
1070
    16
1010
0.0
1020
0.0
1030
0.0
1010
0.0
1020
0.0
1030
1.0
1040
0.0
1040
11.533051036027141
1040
5.016064349290601
1040
4.6660688079343373
1040
50.0
1040
0.0
1040
0.0
1070
     0
1070
  1500
1070
     1
1070
     1
1070
     0
1070
     0
1070
     0
1070
     0
1040
0.0
1040
0.0
1040
0.0
1040
10.0
1040
10.0
1040
10.0
1040
10.0
1070
     0
1002
{
1002
}
1002
}
  0
ENDSEC
  0
EOF
