  0
SECTION
  2
HEADER
  9
$ACADVER
  1
AC1009
  9
$INSBASE
 10
0.0
 20
0.0
 30
0.0
  9
$EXTMIN
 10
755.0868724352030767
 20
-164.9234614145516105
 30
-0.0026611359823505
  9
$EXTMAX
 10
1102.8043889002669857
 20
80.929962598171528
 30
0.0058443210406836
  9
$LIMMIN
 10
0.0
 20
0.0
  9
$LIMMAX
 10
420.0
 20
297.0
  9
$ORTHOMODE
 70
     1
  9
$REGENMODE
 70
     1
  9
$FILLMODE
 70
     1
  9
$QTEXTMODE
 70
     0
  9
$MIRRTEXT
 70
     1
  9
$DRAGMODE
 70
     2
  9
$LTSCALE
 40
10.0
  9
$OSMODE
 70
  2495
  9
$ATTMODE
 70
     1
  9
$TEXTSIZE
 40
3.5
  9
$TRACEWID
 40
1.0
  9
$TEXTSTYLE
  7
STANDARD
  9
$CLAYER
  8
STEMPEL
  9
$CELTYPE
  6
BYLAYER
  9
$CECOLOR
 62
   256
  9
$DIMSCALE
 40
1.0
  9
$DIMASZ
 40
3.5
  9
$DIMEXO
 40
1.0
  9
$DIMDLI
 40
7.0
  9
$DIMRND
 40
0.0
  9
$DIMDLE
 40
0.0
  9
$DIMEXE
 40
1.0
  9
$DIMTP
 40
0.0
  9
$DIMTM
 40
0.0
  9
$DIMTXT
 40
3.5
  9
$DIMCEN
 40
1.5
  9
$DIMTSZ
 40
0.0
  9
$DIMTOL
 70
     0
  9
$DIMLIM
 70
     0
  9
$DIMTIH
 70
     0
  9
$DIMTOH
 70
     0
  9
$DIMSE1
 70
     0
  9
$DIMSE2
 70
     0
  9
$DIMTAD
 70
     1
  9
$DIMZIN
 70
     8
  9
$DIMBLK
  1

  9
$DIMASO
 70
     1
  9
$DIMSHO
 70
     0
  9
$DIMPOST
  1

  9
$DIMAPOST
  1

  9
$DIMALT
 70
     0
  9
$DIMALTD
 70
     2
  9
$DIMALTF
 40
25.3999999999999986
  9
$DIMLFAC
 40
1.0
  9
$DIMTOFL
 70
     1
  9
$DIMTVP
 40
0.0
  9
$DIMTIX
 70
     0
  9
$DIMSOXD
 70
     0
  9
$DIMSAH
 70
     0
  9
$DIMBLK1
  1

  9
$DIMBLK2
  1

  9
$DIMSTYLE
  2
STANDARD
  9
$DIMCLRD
 70
     0
  9
$DIMCLRE
 70
     0
  9
$DIMCLRT
 70
     1
  9
$DIMTFAC
 40
0.5142857142857143
  9
$DIMGAP
 40
1.5
  9
$LUNITS
 70
     2
  9
$LUPREC
 70
     2
  9
$SKETCHINC
 40
1.0
  9
$FILLETRAD
 40
0.0
  9
$AUNITS
 70
     0
  9
$AUPREC
 70
     0
  9
$MENU
  1
ACAD
  9
$ELEVATION
 40
0.0
  9
$PELEVATION
 40
0.0
  9
$THICKNESS
 40
0.0
  9
$LIMCHECK
 70
     0
  9
$BLIPMODE
 70
     0
  9
$CHAMFERA
 40
0.0
  9
$CHAMFERB
 40
0.0
  9
$SKPOLY
 70
     0
  9
$TDCREATE
 40
2455397.867048610933125
  9
$TDUPDATE
 40
2459396.6000925931148231
  9
$TDINDWG
 40
0.9857066551
  9
$TDUSRTIMER
 40
0.9857066551
  9
$USRTIMER
 70
     1
  9
$ANGBASE
 50
0.0
  9
$ANGDIR
 70
     0
  9
$PDMODE
 70
     0
  9
$PDSIZE
 40
0.0
  9
$PLINEWID
 40
0.0
  9
$COORDS
 70
     1
  9
$SPLFRAME
 70
     0
  9
$SPLINETYPE
 70
     6
  9
$SPLINESEGS
 70
     8
  9
$ATTDIA
 70
     1
  9
$ATTREQ
 70
     1
  9
$HANDLING
 70
     1
  9
$HANDSEED
  5
509A
  9
$SURFTAB1
 70
     6
  9
$SURFTAB2
 70
     6
  9
$SURFTYPE
 70
     6
  9
$SURFU
 70
     6
  9
$SURFV
 70
     6
  9
$UCSNAME
  2

  9
$UCSORG
 10
0.0
 20
0.0
 30
0.0
  9
$UCSXDIR
 10
1.0
 20
0.0
 30
0.0
  9
$UCSYDIR
 10
0.0
 20
1.0
 30
0.0
  9
$PUCSNAME
  2

  9
$PUCSORG
 10
0.0
 20
0.0
 30
0.0
  9
$PUCSXDIR
 10
1.0
 20
0.0
 30
0.0
  9
$PUCSYDIR
 10
0.0
 20
1.0
 30
0.0
  9
$USERI1
 70
     0
  9
$USERI2
 70
     0
  9
$USERI3
 70
     0
  9
$USERI4
 70
     0
  9
$USERI5
 70
     0
  9
$USERR1
 40
0.0
  9
$USERR2
 40
0.0
  9
$USERR3
 40
0.0
  9
$USERR4
 40
0.0
  9
$USERR5
 40
0.0
  9
$WORLDVIEW
 70
     1
  9
$SHADEDGE
 70
     3
  9
$SHADEDIF
 70
    70
  9
$TILEMODE
 70
     1
  9
$MAXACTVP
 70
    16
  9
$PLIMCHECK
 70
     0
  9
$PEXTMIN
 10
1.0000000000000000E+20
 20
1.0000000000000000E+20
 30
1.0000000000000000E+20
  9
$PEXTMAX
 10
-1.0000000000000000E+20
 20
-1.0000000000000000E+20
 30
-1.0000000000000000E+20
  9
$PLIMMIN
 10
-4.0650256042351884
 20
-3.1821131943611358
  9
$PLIMMAX
 10
415.9349743957648116
 20
293.8178868056389206
  9
$UNITMODE
 70
     0
  9
$VISRETAIN
 70
     0
  9
$PLINEGEN
 70
     0
  9
$PSLTSCALE
 70
     0
  0
ENDSEC
  0
SECTION
  2
TABLES
  0
TABLE
  2
VPORT
 70
     1
  0
VPORT
  2
*ACTIVE
 70
     0
 10
0.0
 20
0.0
 11
1.0
 21
1.0
 12
258.3587401357116846
 22
-240.573814138560806
 13
0.0
 23
0.0
 14
1.0
 24
1.0
 15
10.0
 25
10.0
 16
0.0000000000002274
 26
0.0
 36
1249.3587135309969653
 17
670.5868905320231761
 27
198.5770647303706937
 37
7.6693778403549926
 40
247.611612980632998
 41
1.7852028639618129
 42
50.0
 43
0.0
 44
0.0
 50
0.0
 51
0.0
 71
     0
 72
  1500
 73
     1
 74
     0
 75
     0
 76
     0
 77
     0
 78
     0
  0
ENDTAB
  0
TABLE
  2
LTYPE
 70
     3
  0
LTYPE
  2
CONTINUOUS
 70
     0
  3
Solid line
 72
    65
 73
     0
 40
0.0
  0
LTYPE
  2
PHANTOM2
 70
     0
  3
Phantom (.5x) ___ _ _ ___ _ _ ___ _ _ ___ _ _
 72
    65
 73
     6
 40
1.25
 49
0.625
 49
-0.125
 49
0.125
 49
-0.125
 49
0.125
 49
-0.125
  0
LTYPE
  2
VERDECKT
 70
     0
  3
Verdeckt __ __ __ __ __ __ __ __ __ __ __ __ __
 72
    65
 73
     2
 40
0.375
 49
0.25
 49
-0.125
  0
ENDTAB
  0
TABLE
  2
LAYER
 70
     7
  0
LAYER
  2
0
 70
     0
 62
     7
  6
CONTINUOUS
  0
LAYER
  2
VOLL
 70
     0
 62
     1
  6
CONTINUOUS
  0
LAYER
  2
BEM
 70
     0
 62
     7
  6
CONTINUOUS
  0
LAYER
  2
STEMPEL
 70
     0
 62
     3
  6
CONTINUOUS
  0
LAYER
  2
DEFPOINTS
 70
     0
 62
     7
  6
CONTINUOUS
  0
LAYER
  2
ADSK_ASSOC_ENTITY_BACKUPS
 70
     1
 62
    -7
  6
CONTINUOUS
  0
ENDTAB
  0
TABLE
  2
STYLE
 70
     3
  0
STYLE
  2
STANDARD
 70
     0
 40
0.0
 41
0.8
 50
0.0
 71
     0
 42
3.5
  3
simplex.shx
  4

  0
STYLE
  2
GREEKS
 70
     0
 40
0.0
 41
0.8
 50
0.0
 71
     0
 42
2.5
  3
SIMPLEX.shx
  4

  0
ENDTAB
  0
TABLE
  2
VIEW
 70
     0
  0
ENDTAB
  0
TABLE
  2
UCS
 70
     0
  0
ENDTAB
  0
TABLE
  2
APPID
 70
    26
  0
APPID
  2
ACAD
 70
     0
  0
APPID
  2
ACADANNOMONITORALERTICONDI
 70
     0
  0
APPID
  2
ACAD_EXEMPT_FROM_CAD_STANDARDS
 70
     0
  0
APPID
  2
ACAD_NAV_VCDISPLAY
 70
     0
  0
APPID
  2
ACAD_MLEADERVER
 70
     0
  0
APPID
  2
ACAECLAYERSTANDARD
 70
     0
  0
APPID
  2
ACCMTRANSPARENCY
 70
     0
  0
APPID
  2
ACAD_PSEXT
 70
     0
  0
APPID
  2
ACAD_OBJECT_CHANGE_GUID
 70
     0
  0
APPID
  2
ACAD_DSTYLE_DIMRADIAL_EXTENSION
 70
     0
  0
APPID
  2
ACAD_STEPID
 70
     0
  0
APPID
  2
ACSYNERGY
 70
     0
  0
APPID
  2
SYNERGY_BODY_TBR_ID
 70
     0
  0
APPID
  2
ACAD_VIEW_EDGE_ID
 70
     0
  0
APPID
  2
ACAD_DIMASSOC_CALC_DIMLFAC
 70
     0
  0
APPID
  2
ACAD_DIMASSOC_DIMLFAC
 70
     0
  0
APPID
  2
ACAD_DIMASSOC_OVERRIDDEN_D
 70
     0
  0
APPID
  2
ACADANNOTATIVE
 70
     0
  0
APPID
  2
ACAD_DSTYLE_DIMJAG
 70
     0
  0
APPID
  2
ACAD_DSTYLE_DIMTALN
 70
     0
  0
APPID
  2
ACDBDYNAMICBLOCKGUID
 70
     0
  0
APPID
  2
ACADANNOPO
 70
     0
  0
APPID
  2
GRADIENTCOLOR1ACI
 70
     0
  0
APPID
  2
GRADIENTCOLOR2ACI
 70
     0
  0
APPID
  2
ACADANNOAV
 70
     0
  0
APPID
  2
ACAD_DSTYLE_DIMBREAK
 70
     0
  0
ENDTAB
  0
TABLE
  2
DIMSTYLE
 70
     1
  0
DIMSTYLE
  2
STANDARD
 70
     0
  3

  4

  5

  6

  7

 40
1.0
 41
0.18
 42
0.0625
 43
0.38
 44
0.18
 45
0.0
 46
0.0
 47
0.0
 48
0.0
140
0.18
141
0.09
142
0.0
143
25.3999999999999986
144
1.0
145
0.0
146
1.0
147
0.09
 71
     0
 72
     0
 73
     1
 74
     1
 75
     0
 76
     0
 77
     0
 78
     0
170
     0
171
     2
172
     0
173
     0
174
     0
175
     0
176
     0
177
     0
178
     0
  0
ENDTAB
  0
ENDSEC
  0
SECTION
  2
BLOCKS
  0
BLOCK
  8
0
  2
$MODEL_SPACE
 70
     0
 10
0.0
 20
0.0
 30
0.0
  3
$MODEL_SPACE
  1

  0
ENDBLK
  5
38
  8
0
  0
BLOCK
 67
     1
  8
0
  2
$PAPER_SPACE
 70
     0
 10
0.0
 20
0.0
 30
0.0
  3
$PAPER_SPACE
  1

  0
ENDBLK
  5
36
 67
     1
  8
0
  0
BLOCK
  8
0
  2
*S0
 70
     1
 10
0.0
 20
0.0
 30
0.0
  3
*S0
  1

  0
ENDBLK
  5
26F9
  8
0
  0
BLOCK
  8
0
  2
_NONE
 70
     0
 10
0.0
 20
0.0
 30
0.0
  3
_NONE
  1

  0
ENDBLK
  5
39F6
  8
0
  0
BLOCK
  8
0
  2
A$CADDE01B2
 70
     0
 10
0.0
 20
0.0
 30
0.0
  3
A$CADDE01B2
  1

  0
CIRCLE
  5
496B
  8
0
 10
599.6639215073813602
 20
129.145114837199003
 30
0.0000000000001176
 40
3.2400000000000011
  0
CIRCLE
  5
496C
  8
0
 10
599.6639215073813602
 20
129.145114837199003
 30
0.0000000000001177
 40
5.200000000000002
  0
ARC
  5
496D
  8
0
 10
615.6639215073813602
 20
199.1451148371988893
 30
0.0000000000001208
 40
88.0000000000000711
 50
230.4788036413578993
 51
129.5211963586421007
  0
LINE
  5
496E
  8
0
 10
559.6639215073813602
 20
267.0273658311074882
 30
0.0000000000001097
 11
559.6639215073813602
 21
131.2628638432902903
 31
0.0000000000001097
  0
LINE
  5
496F
  8
0
  6
VERDECKT
 62
     1
 10
673.2089964303117995
 20
152.2066416320666917
 30
0.000000000000132
 11
662.6023947125136146
 21
141.6000399142685069
 31
0.0000000000001299
  0
LINE
  5
4970
  8
0
  6
VERDECKT
 62
     1
 10
662.6023947125136146
 20
141.6000399142685069
 30
0.0000000000001299
 11
663.8271395839052502
 21
140.3752950428768997
 31
0.0000000000001301
  0
LINE
  5
4971
  8
0
  6
VERDECKT
 62
     1
 10
674.4337413017034351
 20
150.981896760675113
 30
0.0000000000001322
 11
663.8271395839052502
 21
140.3752950428768997
 31
0.0000000000001301
  0
LINE
  5
4972
  8
0
  6
VERDECKT
 62
     1
 10
674.4337413017034351
 20
150.981896760675113
 30
0.0000000000001322
 11
673.2089964303117995
 21
152.2066416320666917
 31
0.000000000000132
  0
LINE
  5
4973
  8
0
  6
VERDECKT
 62
     1
 10
663.8271395839052502
 20
140.3752950428767861
 30
0.0000000000001301
 11
668.5187930770779303
 21
135.683641549704106
 31
0.0000000000001319
  0
LINE
  5
4974
  8
0
  6
VERDECKT
 62
     1
 10
679.1253947948762288
 20
146.2902432675022908
 30
0.0000000000001332
 11
674.4337413017035487
 21
150.9818967606749993
 31
0.0000000000001315
  0
LINE
  5
4975
  8
0
  6
VERDECKT
 62
     1
 10
668.8029961135501935
 20
135.3994385132318996
 30
0.0000000000001315
 11
668.518793077078044
 21
135.683641549704106
 31
0.0000000000001315
  0
LINE
  5
4976
  8
0
  6
VERDECKT
 62
     1
 10
679.1253947948763425
 20
146.2902432675022908
 30
0.0000000000001332
 11
679.4095978313483783
 21
146.0060402310299992
 31
0.0000000000001332
  0
LINE
  5
4977
  8
0
  6
VERDECKT
 62
     1
 10
676.201508254669875
 20
149.2141298077085878
 30
0.0000000000001315
 11
665.5949065368716902
 21
138.6075280899104882
 31
0.0000000000001294
  0
LINE
  5
4978
  8
0
  6
VERDECKT
 62
     1
 10
674.9767633832782394
 20
150.4388746791003086
 30
0.0000000000001315
 11
664.3701616654800546
 21
139.8322729613020954
 31
0.0000000000001294
  0
LINE
  5
4979
  8
0
  6
VERDECKT
 62
     1
 10
679.4095978313483783
 20
146.0060402310299992
 30
0.0000000000001332
 11
668.8029961135501935
 21
135.3994385132318996
 31
0.0000000000001311
  0
LINE
  5
497A
  8
0
  6
VERDECKT
 62
     1
 10
677.9953842689753856
 20
147.4202537934031909
 30
0.0000000000001332
 11
667.3887825511772007
 21
136.8136520756050061
 31
0.0000000000001311
  0
LINE
  5
497B
  8
0
  6
VERDECKT
 62
     1
 10
662.6023947125136146
 20
256.6901897601297264
 30
0.0000000000001299
 11
673.2089964303117995
 21
246.0835880423315132
 31
0.000000000000132
  0
LINE
  5
497C
  8
0
  6
VERDECKT
 62
     1
 10
673.2089964303117995
 20
246.0835880423315132
 30
0.000000000000132
 11
674.4337413017034351
 21
247.3083329137230919
 31
0.0000000000001322
  0
LINE
  5
497D
  8
0
  6
VERDECKT
 62
     1
 10
663.8271395839052502
 20
257.9149346315213052
 30
0.0000000000001301
 11
674.4337413017034351
 21
247.3083329137230066
 31
0.0000000000001322
  0
LINE
  5
497E
  8
0
  6
VERDECKT
 62
     1
 10
663.8271395839052502
 20
257.9149346315213052
 30
0.0000000000001301
 11
662.6023947125136146
 21
256.6901897601296128
 31
0.0000000000001299
  0
LINE
  5
497F
  8
0
  6
VERDECKT
 62
     1
 10
674.4337413017035487
 20
247.3083329137230919
 30
0.0000000000001322
 11
679.1253947948762288
 21
251.9999864068958004
 31
0.000000000000134
  0
LINE
  5
4980
  8
0
  6
VERDECKT
 62
     1
 10
668.518793077078044
 20
262.6065881246939853
 30
0.0000000000001315
 11
663.8271395839052502
 21
257.9149346315213052
 31
0.0000000000001297
  0
LINE
  5
4981
  8
0
  6
VERDECKT
 62
     1
 10
679.4095978313483783
 20
252.284189443368092
 30
0.0000000000001332
 11
679.1253947948762288
 21
251.9999864068958004
 31
0.0000000000001332
  0
LINE
  5
4982
  8
0
  6
VERDECKT
 62
     1
 10
668.518793077078044
 20
262.606588124694099
 30
0.0000000000001315
 11
668.8029961135501935
 21
262.8907911611663053
 31
0.0000000000001315
  0
LINE
  5
4983
  8
0
  6
VERDECKT
 62
     1
 10
665.5949065368716902
 20
259.6827015844876883
 30
0.0000000000001315
 11
676.201508254669875
 21
249.0760998666895034
 31
0.0000000000001335
  0
LINE
  5
4984
  8
0
  6
VERDECKT
 62
     1
 10
664.3701616654800546
 20
258.4579567130959958
 30
0.0000000000001315
 11
674.9767633832782394
 21
247.851354995297811
 31
0.0000000000001335
  0
LINE
  5
4985
  8
0
  6
VERDECKT
 62
     1
 10
668.8029961135501935
 20
262.8907911611663053
 30
0.0000000000001315
 11
679.4095978313483783
 21
252.284189443368092
 31
0.0000000000001335
  0
LINE
  5
4986
  8
0
  6
VERDECKT
 62
     1
 10
667.3887825511772007
 20
261.4765775987930851
 30
0.0000000000001315
 11
677.9953842689753856
 21
250.8699758809949003
 31
0.0000000000001335
  0
LINE
  5
4987
  8
0
  6
VERDECKT
 62
     1
 10
568.9387535784670717
 20
265.0754796822650974
 30
0.0000000000001116
 11
567.6887535784670717
 21
267.2405431917260898
 31
0.0000000000001113
  0
LINE
  5
4988
  8
0
  6
VERDECKT
 62
     1
 10
581.9291346352338223
 20
272.5754796822649837
 30
0.0000000000001141
 11
568.9387535784670717
 21
265.0754796822650974
 31
0.0000000000001116
  0
LINE
  5
4989
  8
0
  6
VERDECKT
 62
     1
 10
580.6791346352338223
 20
274.7405431917262035
 30
0.0000000000001138
 11
581.9291346352338223
 21
272.5754796822649837
 31
0.000000000000114
  0
LINE
  5
498A
  8
0
  6
VERDECKT
 62
     1
 10
567.6887535784670717
 20
267.2405431917260898
 30
0.0000000000001112
 11
580.6791346352338223
 21
274.7405431917262035
 31
0.0000000000001138
  0
LINE
  5
498B
  8
0
  6
VERDECKT
 62
     1
 10
568.9387535784675265
 20
133.2147499921327949
 30
0.0000000000001116
 11
567.6887535784675265
 21
131.0496864826716887
 31
0.0000000000001113
  0
LINE
  5
498C
  8
0
  6
VERDECKT
 62
     1
 10
567.6887535784675265
 20
131.0496864826716887
 30
0.0000000000001112
 11
580.6791346352340497
 21
123.5496864826717029
 31
0.0000000000001138
  0
LINE
  5
498D
  8
0
  6
VERDECKT
 62
     1
 10
580.6791346352340497
 20
123.5496864826717029
 30
0.0000000000001138
 11
581.9291346352341634
 21
125.7147499921327949
 31
0.000000000000114
  0
LINE
  5
498E
  8
0
  6
VERDECKT
 62
     1
 10
581.9291346352341634
 20
125.7147499921327949
 30
0.0000000000001141
 11
568.9387535784676402
 21
133.2147499921327949
 31
0.0000000000001116
  0
ENDBLK
  5
4990
  8
0
  0
BLOCK
  8
0
  2
A$CBE4F9D1E
 70
     0
 10
0.0
 20
0.0
 30
0.0
  3
A$CBE4F9D1E
  1

  0
LINE
  5
4994
  8
0
 10
667.2940482056864084
 20
-11.5780565413618906
 30
0.0000000000000026
 11
662.6023947125137283
 21
-0.085899433142231
 31
0.0
210
0.0
220
1.0
230
-0.0000000000000002
  0
LINE
  5
4995
  8
0
 10
662.6023947125136146
 20
-0.085899433142231
 30
0.0
 11
663.8244976766760601
 21
0.9119434586380922
 31
-0.0000000000000002
210
0.0
220
1.0
230
-0.0000000000000002
  0
LINE
  5
4996
  8
0
 10
663.8280202196482378
 20
0.9119434586381204
 30
-0.0000000000000002
 11
668.5187930770779303
 21
-10.5780565413619208
 31
0.0000000000000023
210
0.0
220
1.0
230
-0.0000000000000002
  0
LINE
  5
4997
  8
0
 10
679.1253947948762288
 20
-10.5780565413619208
 30
0.0000000000000023
 11
674.4346219374465363
 21
0.911943458638092
 31
-0.0000000000000002
210
0.0
220
1.0
230
-0.0000000000000002
  0
POLYLINE
  5
4998
  8
0
 10
668.518793077078044
 20
-10.5780565413618088
 30
0.0000000000000023
 66
     1
 70
     8
  0
VERTEX
  8
0
  5
4A82
 10
668.519
 20
-10.5781
 30
2.35000e-15
  70
    32
  0
VERTEX
  8
0
  5
4A83
 10
668.527
 20
-10.5994
 30
2.35497e-15
  70
    32
  0
VERTEX
  8
0
  5
4A84
 10
668.536
 20
-10.6208
 30
2.35997e-15
  70
    32
  0
VERTEX
  8
0
  5
4A85
 10
668.544
 20
-10.6423
 30
2.36498e-15
  70
    32
  0
VERTEX
  8
0
  5
4A86
 10
668.553
 20
-10.6639
 30
2.37002e-15
  70
    32
  0
VERTEX
  8
0
  5
4A87
 10
668.561
 20
-10.6856
 30
2.37508e-15
  70
    32
  0
VERTEX
  8
0
  5
4A88
 10
668.569
 20
-10.7073
 30
2.38017e-15
  70
    32
  0
VERTEX
  8
0
  5
4A89
 10
668.576
 20
-10.7292
 30
2.38527e-15
  70
    32
  0
VERTEX
  8
0
  5
4A8A
 10
668.584
 20
-10.7512
 30
2.39040e-15
  70
    32
  0
VERTEX
  8
0
  5
4A8B
 10
668.592
 20
-10.7732
 30
2.39554e-15
  70
    32
  0
VERTEX
  8
0
  5
4A8C
 10
668.599
 20
-10.7954
 30
2.40071e-15
  70
    32
  0
VERTEX
  8
0
  5
4A8D
 10
668.607
 20
-10.8176
 30
2.40590e-15
  70
    32
  0
VERTEX
  8
0
  5
4A8E
 10
668.614
 20
-10.8399
 30
2.41111e-15
  70
    32
  0
VERTEX
  8
0
  5
4A8F
 10
668.621
 20
-10.8623
 30
2.41633e-15
  70
    32
  0
VERTEX
  8
0
  5
4A90
 10
668.628
 20
-10.8848
 30
2.42158e-15
  70
    32
  0
VERTEX
  8
0
  5
4A91
 10
668.635
 20
-10.9074
 30
2.42684e-15
  70
    32
  0
VERTEX
  8
0
  5
4A92
 10
668.642
 20
-10.9300
 30
2.43212e-15
  70
    32
  0
VERTEX
  8
0
  5
4A93
 10
668.648
 20
-10.9527
 30
2.43742e-15
  70
    32
  0
VERTEX
  8
0
  5
4A94
 10
668.655
 20
-10.9755
 30
2.44274e-15
  70
    32
  0
VERTEX
  8
0
  5
4A95
 10
668.661
 20
-10.9984
 30
2.44807e-15
  70
    32
  0
VERTEX
  8
0
  5
4A96
 10
668.667
 20
-11.0213
 30
2.45342e-15
  70
    32
  0
VERTEX
  8
0
  5
4A97
 10
668.673
 20
-11.0443
 30
2.45879e-15
  70
    32
  0
VERTEX
  8
0
  5
4A98
 10
668.679
 20
-11.0674
 30
2.46418e-15
  70
    32
  0
VERTEX
  8
0
  5
4A99
 10
668.685
 20
-11.0905
 30
2.46958e-15
  70
    32
  0
VERTEX
  8
0
  5
4A9A
 10
668.690
 20
-11.1137
 30
2.47499e-15
  70
    32
  0
VERTEX
  8
0
  5
4A9B
 10
668.696
 20
-11.1370
 30
2.48042e-15
  70
    32
  0
VERTEX
  8
0
  5
4A9C
 10
668.701
 20
-11.1603
 30
2.48587e-15
  70
    32
  0
VERTEX
  8
0
  5
4A9D
 10
668.707
 20
-11.1837
 30
2.49133e-15
  70
    32
  0
VERTEX
  8
0
  5
4A9E
 10
668.712
 20
-11.2072
 30
2.49680e-15
  70
    32
  0
VERTEX
  8
0
  5
4A9F
 10
668.717
 20
-11.2307
 30
2.50229e-15
  70
    32
  0
VERTEX
  8
0
  5
4AA0
 10
668.721
 20
-11.2543
 30
2.50779e-15
  70
    32
  0
VERTEX
  8
0
  5
4AA1
 10
668.726
 20
-11.2779
 30
2.51330e-15
  70
    32
  0
VERTEX
  8
0
  5
4AA2
 10
668.731
 20
-11.3016
 30
2.51883e-15
  70
    32
  0
VERTEX
  8
0
  5
4AA3
 10
668.735
 20
-11.3253
 30
2.52436e-15
  70
    32
  0
VERTEX
  8
0
  5
4AA4
 10
668.739
 20
-11.3491
 30
2.52991e-15
  70
    32
  0
VERTEX
  8
0
  5
4AA5
 10
668.744
 20
-11.3729
 30
2.53547e-15
  70
    32
  0
VERTEX
  8
0
  5
4AA6
 10
668.748
 20
-11.3968
 30
2.54105e-15
  70
    32
  0
VERTEX
  8
0
  5
4AA7
 10
668.751
 20
-11.4208
 30
2.54663e-15
  70
    32
  0
VERTEX
  8
0
  5
4AA8
 10
668.755
 20
-11.4447
 30
2.55222e-15
  70
    32
  0
VERTEX
  8
0
  5
4AA9
 10
668.759
 20
-11.4687
 30
2.55782e-15
  70
    32
  0
VERTEX
  8
0
  5
4AAA
 10
668.762
 20
-11.4928
 30
2.56344e-15
  70
    32
  0
VERTEX
  8
0
  5
4AAB
 10
668.766
 20
-11.5169
 30
2.56906e-15
  70
    32
  0
VERTEX
  8
0
  5
4AAC
 10
668.769
 20
-11.5410
 30
2.57469e-15
  70
    32
  0
VERTEX
  8
0
  5
4AAD
 10
668.772
 20
-11.5652
 30
2.58033e-15
  70
    32
  0
VERTEX
  8
0
  5
4AAE
 10
668.775
 20
-11.5894
 30
2.58597e-15
  70
    32
  0
VERTEX
  8
0
  5
4AAF
 10
668.777
 20
-11.6136
 30
2.59163e-15
  70
    32
  0
VERTEX
  8
0
  5
4AB0
 10
668.780
 20
-11.6379
 30
2.59729e-15
  70
    32
  0
VERTEX
  8
0
  5
4AB1
 10
668.783
 20
-11.6622
 30
2.60296e-15
  70
    32
  0
VERTEX
  8
0
  5
4AB2
 10
668.785
 20
-11.6865
 30
2.60863e-15
  70
    32
  0
VERTEX
  8
0
  5
4AB3
 10
668.787
 20
-11.7108
 30
2.61431e-15
  70
    32
  0
VERTEX
  8
0
  5
4AB4
 10
668.789
 20
-11.7352
 30
2.62000e-15
  70
    32
  0
VERTEX
  8
0
  5
4AB5
 10
668.791
 20
-11.7596
 30
2.62569e-15
  70
    32
  0
VERTEX
  8
0
  5
4AB6
 10
668.793
 20
-11.7840
 30
2.63139e-15
  70
    32
  0
VERTEX
  8
0
  5
4AB7
 10
668.794
 20
-11.8084
 30
2.63709e-15
  70
    32
  0
VERTEX
  8
0
  5
4AB8
 10
668.796
 20
-11.8329
 30
2.64280e-15
  70
    32
  0
VERTEX
  8
0
  5
4AB9
 10
668.797
 20
-11.8574
 30
2.64850e-15
  70
    32
  0
VERTEX
  8
0
  5
4ABA
 10
668.798
 20
-11.8818
 30
2.65422e-15
  70
    32
  0
VERTEX
  8
0
  5
4ABB
 10
668.800
 20
-11.9063
 30
2.65993e-15
  70
    32
  0
VERTEX
  8
0
  5
4ABC
 10
668.800
 20
-11.9309
 30
2.66565e-15
  70
    32
  0
VERTEX
  8
0
  5
4ABD
 10
668.801
 20
-11.9554
 30
2.67137e-15
  70
    32
  0
VERTEX
  8
0
  5
4ABE
 10
668.802
 20
-11.9799
 30
2.67710e-15
  70
    32
  0
VERTEX
  8
0
  5
4ABF
 10
668.802
 20
-12.0044
 30
2.68282e-15
  70
    32
  0
VERTEX
  8
0
  5
4AC0
 10
668.803
 20
-12.0290
 30
2.68855e-15
  70
    32
  0
VERTEX
  8
0
  5
4AC1
 10
668.803
 20
-12.0535
 30
2.69427e-15
  70
    32
  0
VERTEX
  8
0
  5
4AC2
 10
668.803
 20
-12.0781
 30
2.70000e-15
  70
    32
  0
VERTEX
  8
0
  5
4AC3
 10
668.803
 20
-12.1026
 30
2.70573e-15
  70
    32
  0
VERTEX
  8
0
  5
4AC4
 10
668.803
 20
-12.1271
 30
2.71145e-15
  70
    32
  0
VERTEX
  8
0
  5
4AC5
 10
668.802
 20
-12.1517
 30
2.71718e-15
  70
    32
  0
VERTEX
  8
0
  5
4AC6
 10
668.802
 20
-12.1762
 30
2.72290e-15
  70
    32
  0
VERTEX
  8
0
  5
4AC7
 10
668.801
 20
-12.2007
 30
2.72863e-15
  70
    32
  0
VERTEX
  8
0
  5
4AC8
 10
668.800
 20
-12.2253
 30
2.73435e-15
  70
    32
  0
VERTEX
  8
0
  5
4AC9
 10
668.800
 20
-12.2498
 30
2.74007e-15
  70
    32
  0
VERTEX
  8
0
  5
4ACA
 10
668.798
 20
-12.2743
 30
2.74578e-15
  70
    32
  0
VERTEX
  8
0
  5
4ACB
 10
668.797
 20
-12.2988
 30
2.75150e-15
  70
    32
  0
VERTEX
  8
0
  5
4ACC
 10
668.796
 20
-12.3232
 30
2.75720e-15
  70
    32
  0
VERTEX
  8
0
  5
4ACD
 10
668.794
 20
-12.3477
 30
2.76291e-15
  70
    32
  0
VERTEX
  8
0
  5
4ACE
 10
668.793
 20
-12.3721
 30
2.76861e-15
  70
    32
  0
VERTEX
  8
0
  5
4ACF
 10
668.791
 20
-12.3965
 30
2.77431e-15
  70
    32
  0
VERTEX
  8
0
  5
4AD0
 10
668.789
 20
-12.4209
 30
2.78000e-15
  70
    32
  0
VERTEX
  8
0
  5
4AD1
 10
668.787
 20
-12.4453
 30
2.78569e-15
  70
    32
  0
VERTEX
  8
0
  5
4AD2
 10
668.785
 20
-12.4696
 30
2.79137e-15
  70
    32
  0
VERTEX
  8
0
  5
4AD3
 10
668.783
 20
-12.4940
 30
2.79704e-15
  70
    32
  0
VERTEX
  8
0
  5
4AD4
 10
668.780
 20
-12.5182
 30
2.80271e-15
  70
    32
  0
VERTEX
  8
0
  5
4AD5
 10
668.777
 20
-12.5425
 30
2.80837e-15
  70
    32
  0
VERTEX
  8
0
  5
4AD6
 10
668.775
 20
-12.5667
 30
2.81403e-15
  70
    32
  0
VERTEX
  8
0
  5
4AD7
 10
668.772
 20
-12.5909
 30
2.81967e-15
  70
    32
  0
VERTEX
  8
0
  5
4AD8
 10
668.769
 20
-12.6151
 30
2.82531e-15
  70
    32
  0
VERTEX
  8
0
  5
4AD9
 10
668.766
 20
-12.6392
 30
2.83094e-15
  70
    32
  0
VERTEX
  8
0
  5
4ADA
 10
668.762
 20
-12.6633
 30
2.83656e-15
  70
    32
  0
VERTEX
  8
0
  5
4ADB
 10
668.759
 20
-12.6874
 30
2.84218e-15
  70
    32
  0
VERTEX
  8
0
  5
4ADC
 10
668.755
 20
-12.7114
 30
2.84778e-15
  70
    32
  0
VERTEX
  8
0
  5
4ADD
 10
668.751
 20
-12.7354
 30
2.85337e-15
  70
    32
  0
VERTEX
  8
0
  5
4ADE
 10
668.748
 20
-12.7593
 30
2.85895e-15
  70
    32
  0
VERTEX
  8
0
  5
4ADF
 10
668.744
 20
-12.7832
 30
2.86453e-15
  70
    32
  0
VERTEX
  8
0
  5
4AE0
 10
668.739
 20
-12.8070
 30
2.87009e-15
  70
    32
  0
VERTEX
  8
0
  5
4AE1
 10
668.735
 20
-12.8308
 30
2.87564e-15
  70
    32
  0
VERTEX
  8
0
  5
4AE2
 10
668.731
 20
-12.8545
 30
2.88117e-15
  70
    32
  0
VERTEX
  8
0
  5
4AE3
 10
668.726
 20
-12.8782
 30
2.88670e-15
  70
    32
  0
VERTEX
  8
0
  5
4AE4
 10
668.721
 20
-12.9018
 30
2.89221e-15
  70
    32
  0
VERTEX
  8
0
  5
4AE5
 10
668.717
 20
-12.9254
 30
2.89771e-15
  70
    32
  0
VERTEX
  8
0
  5
4AE6
 10
668.712
 20
-12.9489
 30
2.90320e-15
  70
    32
  0
VERTEX
  8
0
  5
4AE7
 10
668.707
 20
-12.9724
 30
2.90867e-15
  70
    32
  0
VERTEX
  8
0
  5
4AE8
 10
668.701
 20
-12.9958
 30
2.91413e-15
  70
    32
  0
VERTEX
  8
0
  5
4AE9
 10
668.696
 20
-13.0191
 30
2.91958e-15
  70
    32
  0
VERTEX
  8
0
  5
4AEA
 10
668.690
 20
-13.0424
 30
2.92501e-15
  70
    32
  0
VERTEX
  8
0
  5
4AEB
 10
668.685
 20
-13.0656
 30
2.93042e-15
  70
    32
  0
VERTEX
  8
0
  5
4AEC
 10
668.679
 20
-13.0887
 30
2.93582e-15
  70
    32
  0
VERTEX
  8
0
  5
4AED
 10
668.673
 20
-13.1118
 30
2.94121e-15
  70
    32
  0
VERTEX
  8
0
  5
4AEE
 10
668.667
 20
-13.1348
 30
2.94658e-15
  70
    32
  0
VERTEX
  8
0
  5
4AEF
 10
668.661
 20
-13.1577
 30
2.95193e-15
  70
    32
  0
VERTEX
  8
0
  5
4AF0
 10
668.655
 20
-13.1806
 30
2.95726e-15
  70
    32
  0
VERTEX
  8
0
  5
4AF1
 10
668.648
 20
-13.2034
 30
2.96258e-15
  70
    32
  0
VERTEX
  8
0
  5
4AF2
 10
668.642
 20
-13.2261
 30
2.96788e-15
  70
    32
  0
VERTEX
  8
0
  5
4AF3
 10
668.635
 20
-13.2487
 30
2.97316e-15
  70
    32
  0
VERTEX
  8
0
  5
4AF4
 10
668.628
 20
-13.2713
 30
2.97842e-15
  70
    32
  0
VERTEX
  8
0
  5
4AF5
 10
668.621
 20
-13.2938
 30
2.98367e-15
  70
    32
  0
VERTEX
  8
0
  5
4AF6
 10
668.614
 20
-13.3162
 30
2.98889e-15
  70
    32
  0
VERTEX
  8
0
  5
4AF7
 10
668.607
 20
-13.3385
 30
2.99410e-15
  70
    32
  0
VERTEX
  8
0
  5
4AF8
 10
668.599
 20
-13.3607
 30
2.99929e-15
  70
    32
  0
VERTEX
  8
0
  5
4AF9
 10
668.592
 20
-13.3829
 30
3.00446e-15
  70
    32
  0
VERTEX
  8
0
  5
4AFA
 10
668.584
 20
-13.4049
 30
3.00960e-15
  70
    32
  0
VERTEX
  8
0
  5
4AFB
 10
668.576
 20
-13.4269
 30
3.01473e-15
  70
    32
  0
VERTEX
  8
0
  5
4AFC
 10
668.569
 20
-13.4488
 30
3.01983e-15
  70
    32
  0
VERTEX
  8
0
  5
4AFD
 10
668.561
 20
-13.4706
 30
3.02492e-15
  70
    32
  0
VERTEX
  8
0
  5
4AFE
 10
668.553
 20
-13.4922
 30
3.02998e-15
  70
    32
  0
VERTEX
  8
0
  5
4AFF
 10
668.544
 20
-13.5138
 30
3.03502e-15
  70
    32
  0
VERTEX
  8
0
  5
4B00
 10
668.536
 20
-13.5353
 30
3.04003e-15
  70
    32
  0
VERTEX
  8
0
  5
4B01
 10
668.527
 20
-13.5568
 30
3.04503e-15
  70
    32
  0
VERTEX
  8
0
  5
4B02
 10
668.519
 20
-13.5781
 30
3.05000e-15
  70
    32
  0
SEQEND
  8
0
  5
4B03
  0
POLYLINE
  5
4999
  8
0
 10
679.1253947948762288
 20
-13.5780565413619918
 30
0.0000000000000031
 66
     1
 70
     8
  0
VERTEX
  8
0
  5
4B04
 10
679.125
 20
-13.5781
 30
3.05000e-15
  70
    32
  0
VERTEX
  8
0
  5
4B05
 10
679.134
 20
-13.5568
 30
3.04503e-15
  70
    32
  0
VERTEX
  8
0
  5
4B06
 10
679.143
 20
-13.5353
 30
3.04003e-15
  70
    32
  0
VERTEX
  8
0
  5
4B07
 10
679.151
 20
-13.5138
 30
3.03502e-15
  70
    32
  0
VERTEX
  8
0
  5
4B08
 10
679.159
 20
-13.4922
 30
3.02998e-15
  70
    32
  0
VERTEX
  8
0
  5
4B09
 10
679.167
 20
-13.4706
 30
3.02492e-15
  70
    32
  0
VERTEX
  8
0
  5
4B0A
 10
679.175
 20
-13.4488
 30
3.01983e-15
  70
    32
  0
VERTEX
  8
0
  5
4B0B
 10
679.183
 20
-13.4269
 30
3.01473e-15
  70
    32
  0
VERTEX
  8
0
  5
4B0C
 10
679.191
 20
-13.4049
 30
3.00960e-15
  70
    32
  0
VERTEX
  8
0
  5
4B0D
 10
679.198
 20
-13.3829
 30
3.00446e-15
  70
    32
  0
VERTEX
  8
0
  5
4B0E
 10
679.206
 20
-13.3607
 30
2.99929e-15
  70
    32
  0
VERTEX
  8
0
  5
4B0F
 10
679.213
 20
-13.3385
 30
2.99410e-15
  70
    32
  0
VERTEX
  8
0
  5
4B10
 10
679.221
 20
-13.3162
 30
2.98889e-15
  70
    32
  0
VERTEX
  8
0
  5
4B11
 10
679.228
 20
-13.2938
 30
2.98367e-15
  70
    32
  0
VERTEX
  8
0
  5
4B12
 10
679.235
 20
-13.2713
 30
2.97842e-15
  70
    32
  0
VERTEX
  8
0
  5
4B13
 10
679.241
 20
-13.2487
 30
2.97316e-15
  70
    32
  0
VERTEX
  8
0
  5
4B14
 10
679.248
 20
-13.2261
 30
2.96788e-15
  70
    32
  0
VERTEX
  8
0
  5
4B15
 10
679.255
 20
-13.2034
 30
2.96258e-15
  70
    32
  0
VERTEX
  8
0
  5
4B16
 10
679.261
 20
-13.1806
 30
2.95726e-15
  70
    32
  0
VERTEX
  8
0
  5
4B17
 10
679.267
 20
-13.1577
 30
2.95193e-15
  70
    32
  0
VERTEX
  8
0
  5
4B18
 10
679.274
 20
-13.1348
 30
2.94658e-15
  70
    32
  0
VERTEX
  8
0
  5
4B19
 10
679.280
 20
-13.1118
 30
2.94121e-15
  70
    32
  0
VERTEX
  8
0
  5
4B1A
 10
679.286
 20
-13.0887
 30
2.93582e-15
  70
    32
  0
VERTEX
  8
0
  5
4B1B
 10
679.291
 20
-13.0656
 30
2.93042e-15
  70
    32
  0
VERTEX
  8
0
  5
4B1C
 10
679.297
 20
-13.0424
 30
2.92501e-15
  70
    32
  0
VERTEX
  8
0
  5
4B1D
 10
679.303
 20
-13.0191
 30
2.91958e-15
  70
    32
  0
VERTEX
  8
0
  5
4B1E
 10
679.308
 20
-12.9958
 30
2.91413e-15
  70
    32
  0
VERTEX
  8
0
  5
4B1F
 10
679.313
 20
-12.9724
 30
2.90867e-15
  70
    32
  0
VERTEX
  8
0
  5
4B20
 10
679.318
 20
-12.9489
 30
2.90320e-15
  70
    32
  0
VERTEX
  8
0
  5
4B21
 10
679.323
 20
-12.9254
 30
2.89771e-15
  70
    32
  0
VERTEX
  8
0
  5
4B22
 10
679.328
 20
-12.9018
 30
2.89221e-15
  70
    32
  0
VERTEX
  8
0
  5
4B23
 10
679.333
 20
-12.8782
 30
2.88670e-15
  70
    32
  0
VERTEX
  8
0
  5
4B24
 10
679.337
 20
-12.8545
 30
2.88117e-15
  70
    32
  0
VERTEX
  8
0
  5
4B25
 10
679.342
 20
-12.8308
 30
2.87564e-15
  70
    32
  0
VERTEX
  8
0
  5
4B26
 10
679.346
 20
-12.8070
 30
2.87009e-15
  70
    32
  0
VERTEX
  8
0
  5
4B27
 10
679.350
 20
-12.7832
 30
2.86453e-15
  70
    32
  0
VERTEX
  8
0
  5
4B28
 10
679.354
 20
-12.7593
 30
2.85895e-15
  70
    32
  0
VERTEX
  8
0
  5
4B29
 10
679.358
 20
-12.7354
 30
2.85337e-15
  70
    32
  0
VERTEX
  8
0
  5
4B2A
 10
679.362
 20
-12.7114
 30
2.84778e-15
  70
    32
  0
VERTEX
  8
0
  5
4B2B
 10
679.365
 20
-12.6874
 30
2.84218e-15
  70
    32
  0
VERTEX
  8
0
  5
4B2C
 10
679.369
 20
-12.6633
 30
2.83656e-15
  70
    32
  0
VERTEX
  8
0
  5
4B2D
 10
679.372
 20
-12.6392
 30
2.83094e-15
  70
    32
  0
VERTEX
  8
0
  5
4B2E
 10
679.375
 20
-12.6151
 30
2.82531e-15
  70
    32
  0
VERTEX
  8
0
  5
4B2F
 10
679.378
 20
-12.5909
 30
2.81967e-15
  70
    32
  0
VERTEX
  8
0
  5
4B30
 10
679.381
 20
-12.5667
 30
2.81403e-15
  70
    32
  0
VERTEX
  8
0
  5
4B31
 10
679.384
 20
-12.5425
 30
2.80837e-15
  70
    32
  0
VERTEX
  8
0
  5
4B32
 10
679.387
 20
-12.5182
 30
2.80271e-15
  70
    32
  0
VERTEX
  8
0
  5
4B33
 10
679.389
 20
-12.4940
 30
2.79704e-15
  70
    32
  0
VERTEX
  8
0
  5
4B34
 10
679.391
 20
-12.4696
 30
2.79137e-15
  70
    32
  0
VERTEX
  8
0
  5
4B35
 10
679.394
 20
-12.4453
 30
2.78569e-15
  70
    32
  0
VERTEX
  8
0
  5
4B36
 10
679.396
 20
-12.4209
 30
2.78000e-15
  70
    32
  0
VERTEX
  8
0
  5
4B37
 10
679.398
 20
-12.3965
 30
2.77431e-15
  70
    32
  0
VERTEX
  8
0
  5
4B38
 10
679.399
 20
-12.3721
 30
2.76861e-15
  70
    32
  0
VERTEX
  8
0
  5
4B39
 10
679.401
 20
-12.3477
 30
2.76291e-15
  70
    32
  0
VERTEX
  8
0
  5
4B3A
 10
679.403
 20
-12.3232
 30
2.75720e-15
  70
    32
  0
VERTEX
  8
0
  5
4B3B
 10
679.404
 20
-12.2988
 30
2.75150e-15
  70
    32
  0
VERTEX
  8
0
  5
4B3C
 10
679.405
 20
-12.2743
 30
2.74578e-15
  70
    32
  0
VERTEX
  8
0
  5
4B3D
 10
679.406
 20
-12.2498
 30
2.74007e-15
  70
    32
  0
VERTEX
  8
0
  5
4B3E
 10
679.407
 20
-12.2253
 30
2.73435e-15
  70
    32
  0
VERTEX
  8
0
  5
4B3F
 10
679.408
 20
-12.2007
 30
2.72863e-15
  70
    32
  0
VERTEX
  8
0
  5
4B40
 10
679.408
 20
-12.1762
 30
2.72290e-15
  70
    32
  0
VERTEX
  8
0
  5
4B41
 10
679.409
 20
-12.1517
 30
2.71718e-15
  70
    32
  0
VERTEX
  8
0
  5
4B42
 10
679.409
 20
-12.1271
 30
2.71145e-15
  70
    32
  0
VERTEX
  8
0
  5
4B43
 10
679.410
 20
-12.1026
 30
2.70573e-15
  70
    32
  0
VERTEX
  8
0
  5
4B44
 10
679.410
 20
-12.0781
 30
2.70000e-15
  70
    32
  0
VERTEX
  8
0
  5
4B45
 10
679.410
 20
-12.0535
 30
2.69427e-15
  70
    32
  0
VERTEX
  8
0
  5
4B46
 10
679.409
 20
-12.0290
 30
2.68855e-15
  70
    32
  0
VERTEX
  8
0
  5
4B47
 10
679.409
 20
-12.0044
 30
2.68282e-15
  70
    32
  0
VERTEX
  8
0
  5
4B48
 10
679.408
 20
-11.9799
 30
2.67710e-15
  70
    32
  0
VERTEX
  8
0
  5
4B49
 10
679.408
 20
-11.9554
 30
2.67137e-15
  70
    32
  0
VERTEX
  8
0
  5
4B4A
 10
679.407
 20
-11.9309
 30
2.66565e-15
  70
    32
  0
VERTEX
  8
0
  5
4B4B
 10
679.406
 20
-11.9063
 30
2.65993e-15
  70
    32
  0
VERTEX
  8
0
  5
4B4C
 10
679.405
 20
-11.8818
 30
2.65422e-15
  70
    32
  0
VERTEX
  8
0
  5
4B4D
 10
679.404
 20
-11.8574
 30
2.64850e-15
  70
    32
  0
VERTEX
  8
0
  5
4B4E
 10
679.403
 20
-11.8329
 30
2.64280e-15
  70
    32
  0
VERTEX
  8
0
  5
4B4F
 10
679.401
 20
-11.8084
 30
2.63709e-15
  70
    32
  0
VERTEX
  8
0
  5
4B50
 10
679.399
 20
-11.7840
 30
2.63139e-15
  70
    32
  0
VERTEX
  8
0
  5
4B51
 10
679.398
 20
-11.7596
 30
2.62569e-15
  70
    32
  0
VERTEX
  8
0
  5
4B52
 10
679.396
 20
-11.7352
 30
2.62000e-15
  70
    32
  0
VERTEX
  8
0
  5
4B53
 10
679.394
 20
-11.7108
 30
2.61431e-15
  70
    32
  0
VERTEX
  8
0
  5
4B54
 10
679.391
 20
-11.6865
 30
2.60863e-15
  70
    32
  0
VERTEX
  8
0
  5
4B55
 10
679.389
 20
-11.6622
 30
2.60296e-15
  70
    32
  0
VERTEX
  8
0
  5
4B56
 10
679.387
 20
-11.6379
 30
2.59729e-15
  70
    32
  0
VERTEX
  8
0
  5
4B57
 10
679.384
 20
-11.6136
 30
2.59163e-15
  70
    32
  0
VERTEX
  8
0
  5
4B58
 10
679.381
 20
-11.5894
 30
2.58597e-15
  70
    32
  0
VERTEX
  8
0
  5
4B59
 10
679.378
 20
-11.5652
 30
2.58033e-15
  70
    32
  0
VERTEX
  8
0
  5
4B5A
 10
679.375
 20
-11.5410
 30
2.57469e-15
  70
    32
  0
VERTEX
  8
0
  5
4B5B
 10
679.372
 20
-11.5169
 30
2.56906e-15
  70
    32
  0
VERTEX
  8
0
  5
4B5C
 10
679.369
 20
-11.4928
 30
2.56344e-15
  70
    32
  0
VERTEX
  8
0
  5
4B5D
 10
679.365
 20
-11.4687
 30
2.55782e-15
  70
    32
  0
VERTEX
  8
0
  5
4B5E
 10
679.362
 20
-11.4447
 30
2.55222e-15
  70
    32
  0
VERTEX
  8
0
  5
4B5F
 10
679.358
 20
-11.4208
 30
2.54663e-15
  70
    32
  0
VERTEX
  8
0
  5
4B60
 10
679.354
 20
-11.3968
 30
2.54105e-15
  70
    32
  0
VERTEX
  8
0
  5
4B61
 10
679.350
 20
-11.3729
 30
2.53547e-15
  70
    32
  0
VERTEX
  8
0
  5
4B62
 10
679.346
 20
-11.3491
 30
2.52991e-15
  70
    32
  0
VERTEX
  8
0
  5
4B63
 10
679.342
 20
-11.3253
 30
2.52436e-15
  70
    32
  0
VERTEX
  8
0
  5
4B64
 10
679.337
 20
-11.3016
 30
2.51883e-15
  70
    32
  0
VERTEX
  8
0
  5
4B65
 10
679.333
 20
-11.2779
 30
2.51330e-15
  70
    32
  0
VERTEX
  8
0
  5
4B66
 10
679.328
 20
-11.2543
 30
2.50779e-15
  70
    32
  0
VERTEX
  8
0
  5
4B67
 10
679.323
 20
-11.2307
 30
2.50229e-15
  70
    32
  0
VERTEX
  8
0
  5
4B68
 10
679.318
 20
-11.2072
 30
2.49680e-15
  70
    32
  0
VERTEX
  8
0
  5
4B69
 10
679.313
 20
-11.1837
 30
2.49133e-15
  70
    32
  0
VERTEX
  8
0
  5
4B6A
 10
679.308
 20
-11.1603
 30
2.48587e-15
  70
    32
  0
VERTEX
  8
0
  5
4B6B
 10
679.303
 20
-11.1370
 30
2.48042e-15
  70
    32
  0
VERTEX
  8
0
  5
4B6C
 10
679.297
 20
-11.1137
 30
2.47499e-15
  70
    32
  0
VERTEX
  8
0
  5
4B6D
 10
679.291
 20
-11.0905
 30
2.46958e-15
  70
    32
  0
VERTEX
  8
0
  5
4B6E
 10
679.286
 20
-11.0674
 30
2.46418e-15
  70
    32
  0
VERTEX
  8
0
  5
4B6F
 10
679.280
 20
-11.0443
 30
2.45879e-15
  70
    32
  0
VERTEX
  8
0
  5
4B70
 10
679.274
 20
-11.0213
 30
2.45342e-15
  70
    32
  0
VERTEX
  8
0
  5
4B71
 10
679.267
 20
-10.9984
 30
2.44807e-15
  70
    32
  0
VERTEX
  8
0
  5
4B72
 10
679.261
 20
-10.9755
 30
2.44274e-15
  70
    32
  0
VERTEX
  8
0
  5
4B73
 10
679.255
 20
-10.9527
 30
2.43742e-15
  70
    32
  0
VERTEX
  8
0
  5
4B74
 10
679.248
 20
-10.9300
 30
2.43212e-15
  70
    32
  0
VERTEX
  8
0
  5
4B75
 10
679.241
 20
-10.9074
 30
2.42684e-15
  70
    32
  0
VERTEX
  8
0
  5
4B76
 10
679.235
 20
-10.8848
 30
2.42158e-15
  70
    32
  0
VERTEX
  8
0
  5
4B77
 10
679.228
 20
-10.8623
 30
2.41633e-15
  70
    32
  0
VERTEX
  8
0
  5
4B78
 10
679.221
 20
-10.8399
 30
2.41111e-15
  70
    32
  0
VERTEX
  8
0
  5
4B79
 10
679.213
 20
-10.8176
 30
2.40590e-15
  70
    32
  0
VERTEX
  8
0
  5
4B7A
 10
679.206
 20
-10.7954
 30
2.40071e-15
  70
    32
  0
VERTEX
  8
0
  5
4B7B
 10
679.198
 20
-10.7732
 30
2.39554e-15
  70
    32
  0
VERTEX
  8
0
  5
4B7C
 10
679.191
 20
-10.7512
 30
2.39040e-15
  70
    32
  0
VERTEX
  8
0
  5
4B7D
 10
679.183
 20
-10.7292
 30
2.38527e-15
  70
    32
  0
VERTEX
  8
0
  5
4B7E
 10
679.175
 20
-10.7073
 30
2.38017e-15
  70
    32
  0
VERTEX
  8
0
  5
4B7F
 10
679.167
 20
-10.6856
 30
2.37508e-15
  70
    32
  0
VERTEX
  8
0
  5
4B80
 10
679.159
 20
-10.6639
 30
2.37002e-15
  70
    32
  0
VERTEX
  8
0
  5
4B81
 10
679.151
 20
-10.6423
 30
2.36498e-15
  70
    32
  0
VERTEX
  8
0
  5
4B82
 10
679.143
 20
-10.6208
 30
2.35997e-15
  70
    32
  0
VERTEX
  8
0
  5
4B83
 10
679.134
 20
-10.5994
 30
2.35497e-15
  70
    32
  0
VERTEX
  8
0
  5
4B84
 10
679.125
 20
-10.5781
 30
2.35000e-15
  70
    32
  0
SEQEND
  8
0
  5
4B85
  0
LINE
  5
499A
  8
0
 10
668.518793077078044
 20
-13.5780565413618906
 30
0.000000000000003
 11
665.5949065368716902
 21
-20.7400866306591105
 31
0.0000000000000046
210
0.0
220
1.0
230
-0.0000000000000002
  0
LINE
  5
499B
  8
0
 10
676.201508254669875
 20
-20.7400866306591105
 30
0.0000000000000046
 11
665.5949065368716902
 21
-20.7400866306591105
 31
0.0000000000000046
210
0.0
220
1.0
230
-0.0000000000000002
  0
LINE
  5
499C
  8
0
 10
676.201508254669875
 20
-20.7400866306591105
 30
0.0000000000000046
 11
679.1253947948762288
 21
-13.5780565413618906
 31
0.000000000000003
210
0.0
220
1.0
230
-0.0000000000000002
  0
LINE
  5
499D
  8
0
 10
665.5949065368716902
 20
-20.7400866306591105
 30
0.0000000000000046
 11
664.3701616654799409
 21
-19.7400866306590004
 31
0.0000000000000044
210
0.0
220
1.0
230
-0.0000000000000002
  0
LINE
  5
499E
  8
0
 10
664.3701616654799409
 20
-19.7400866306590004
 30
0.0000000000000044
 11
667.2940482056864084
 21
-12.5780565413618604
 31
0.0000000000000028
210
0.0
220
1.0
230
-0.0000000000000002
  0
POLYLINE
  5
499F
  8
0
 10
667.2940482056862948
 20
-12.5780565413619243
 30
0.0000000000000028
 66
     1
 70
     8
  0
VERTEX
  8
0
  5
4B86
 10
667.294
 20
-12.5781
 30
2.80000e-15
  70
    32
  0
VERTEX
  8
0
  5
4B87
 10
667.297
 20
-12.5710
 30
2.79858e-15
  70
    32
  0
VERTEX
  8
0
  5
4B88
 10
667.300
 20
-12.5638
 30
2.79715e-15
  70
    32
  0
VERTEX
  8
0
  5
4B89
 10
667.303
 20
-12.5567
 30
2.79572e-15
  70
    32
  0
VERTEX
  8
0
  5
4B8A
 10
667.305
 20
-12.5495
 30
2.79428e-15
  70
    32
  0
VERTEX
  8
0
  5
4B8B
 10
667.308
 20
-12.5422
 30
2.79283e-15
  70
    32
  0
VERTEX
  8
0
  5
4B8C
 10
667.311
 20
-12.5350
 30
2.79138e-15
  70
    32
  0
VERTEX
  8
0
  5
4B8D
 10
667.313
 20
-12.5277
 30
2.78992e-15
  70
    32
  0
VERTEX
  8
0
  5
4B8E
 10
667.316
 20
-12.5203
 30
2.78846e-15
  70
    32
  0
VERTEX
  8
0
  5
4B8F
 10
667.318
 20
-12.5130
 30
2.78699e-15
  70
    32
  0
VERTEX
  8
0
  5
4B90
 10
667.321
 20
-12.5056
 30
2.78551e-15
  70
    32
  0
VERTEX
  8
0
  5
4B91
 10
667.323
 20
-12.4982
 30
2.78403e-15
  70
    32
  0
VERTEX
  8
0
  5
4B92
 10
667.326
 20
-12.4908
 30
2.78254e-15
  70
    32
  0
VERTEX
  8
0
  5
4B93
 10
667.328
 20
-12.4833
 30
2.78105e-15
  70
    32
  0
VERTEX
  8
0
  5
4B94
 10
667.330
 20
-12.4758
 30
2.77955e-15
  70
    32
  0
VERTEX
  8
0
  5
4B95
 10
667.333
 20
-12.4683
 30
2.77805e-15
  70
    32
  0
VERTEX
  8
0
  5
4B96
 10
667.335
 20
-12.4607
 30
2.77654e-15
  70
    32
  0
VERTEX
  8
0
  5
4B97
 10
667.337
 20
-12.4532
 30
2.77502e-15
  70
    32
  0
VERTEX
  8
0
  5
4B98
 10
667.339
 20
-12.4456
 30
2.77350e-15
  70
    32
  0
VERTEX
  8
0
  5
4B99
 10
667.341
 20
-12.4380
 30
2.77198e-15
  70
    32
  0
VERTEX
  8
0
  5
4B9A
 10
667.343
 20
-12.4303
 30
2.77045e-15
  70
    32
  0
VERTEX
  8
0
  5
4B9B
 10
667.345
 20
-12.4226
 30
2.76892e-15
  70
    32
  0
VERTEX
  8
0
  5
4B9C
 10
667.347
 20
-12.4149
 30
2.76738e-15
  70
    32
  0
VERTEX
  8
0
  5
4B9D
 10
667.349
 20
-12.4072
 30
2.76584e-15
  70
    32
  0
VERTEX
  8
0
  5
4B9E
 10
667.351
 20
-12.3995
 30
2.76429e-15
  70
    32
  0
VERTEX
  8
0
  5
4B9F
 10
667.353
 20
-12.3917
 30
2.76274e-15
  70
    32
  0
VERTEX
  8
0
  5
4BA0
 10
667.355
 20
-12.3840
 30
2.76118e-15
  70
    32
  0
VERTEX
  8
0
  5
4BA1
 10
667.357
 20
-12.3762
 30
2.75962e-15
  70
    32
  0
VERTEX
  8
0
  5
4BA2
 10
667.358
 20
-12.3683
 30
2.75806e-15
  70
    32
  0
VERTEX
  8
0
  5
4BA3
 10
667.360
 20
-12.3605
 30
2.75649e-15
  70
    32
  0
VERTEX
  8
0
  5
4BA4
 10
667.362
 20
-12.3526
 30
2.75492e-15
  70
    32
  0
VERTEX
  8
0
  5
4BA5
 10
667.363
 20
-12.3448
 30
2.75334e-15
  70
    32
  0
VERTEX
  8
0
  5
4BA6
 10
667.365
 20
-12.3369
 30
2.75176e-15
  70
    32
  0
VERTEX
  8
0
  5
4BA7
 10
667.366
 20
-12.3290
 30
2.75018e-15
  70
    32
  0
VERTEX
  8
0
  5
4BA8
 10
667.368
 20
-12.3210
 30
2.74860e-15
  70
    32
  0
VERTEX
  8
0
  5
4BA9
 10
667.369
 20
-12.3131
 30
2.74701e-15
  70
    32
  0
VERTEX
  8
0
  5
4BAA
 10
667.370
 20
-12.3051
 30
2.74542e-15
  70
    32
  0
VERTEX
  8
0
  5
4BAB
 10
667.372
 20
-12.2972
 30
2.74382e-15
  70
    32
  0
VERTEX
  8
0
  5
4BAC
 10
667.373
 20
-12.2892
 30
2.74222e-15
  70
    32
  0
VERTEX
  8
0
  5
4BAD
 10
667.374
 20
-12.2812
 30
2.74062e-15
  70
    32
  0
VERTEX
  8
0
  5
4BAE
 10
667.375
 20
-12.2731
 30
2.73902e-15
  70
    32
  0
VERTEX
  8
0
  5
4BAF
 10
667.376
 20
-12.2651
 30
2.73741e-15
  70
    32
  0
VERTEX
  8
0
  5
4BB0
 10
667.377
 20
-12.2571
 30
2.73580e-15
  70
    32
  0
VERTEX
  8
0
  5
4BB1
 10
667.378
 20
-12.2490
 30
2.73419e-15
  70
    32
  0
VERTEX
  8
0
  5
4BB2
 10
667.379
 20
-12.2410
 30
2.73258e-15
  70
    32
  0
VERTEX
  8
0
  5
4BB3
 10
667.380
 20
-12.2329
 30
2.73096e-15
  70
    32
  0
VERTEX
  8
0
  5
4BB4
 10
667.381
 20
-12.2248
 30
2.72935e-15
  70
    32
  0
VERTEX
  8
0
  5
4BB5
 10
667.382
 20
-12.2167
 30
2.72773e-15
  70
    32
  0
VERTEX
  8
0
  5
4BB6
 10
667.383
 20
-12.2086
 30
2.72611e-15
  70
    32
  0
VERTEX
  8
0
  5
4BB7
 10
667.383
 20
-12.2005
 30
2.72448e-15
  70
    32
  0
VERTEX
  8
0
  5
4BB8
 10
667.384
 20
-12.1923
 30
2.72286e-15
  70
    32
  0
VERTEX
  8
0
  5
4BB9
 10
667.385
 20
-12.1842
 30
2.72123e-15
  70
    32
  0
VERTEX
  8
0
  5
4BBA
 10
667.385
 20
-12.1761
 30
2.71960e-15
  70
    32
  0
VERTEX
  8
0
  5
4BBB
 10
667.386
 20
-12.1679
 30
2.71797e-15
  70
    32
  0
VERTEX
  8
0
  5
4BBC
 10
667.386
 20
-12.1598
 30
2.71634e-15
  70
    32
  0
VERTEX
  8
0
  5
4BBD
 10
667.387
 20
-12.1516
 30
2.71471e-15
  70
    32
  0
VERTEX
  8
0
  5
4BBE
 10
667.387
 20
-12.1435
 30
2.71308e-15
  70
    32
  0
VERTEX
  8
0
  5
4BBF
 10
667.388
 20
-12.1353
 30
2.71145e-15
  70
    32
  0
VERTEX
  8
0
  5
4BC0
 10
667.388
 20
-12.1271
 30
2.70981e-15
  70
    32
  0
VERTEX
  8
0
  5
4BC1
 10
667.388
 20
-12.1190
 30
2.70818e-15
  70
    32
  0
VERTEX
  8
0
  5
4BC2
 10
667.388
 20
-12.1108
 30
2.70654e-15
  70
    32
  0
VERTEX
  8
0
  5
4BC3
 10
667.389
 20
-12.1026
 30
2.70491e-15
  70
    32
  0
VERTEX
  8
0
  5
4BC4
 10
667.389
 20
-12.0944
 30
2.70327e-15
  70
    32
  0
VERTEX
  8
0
  5
4BC5
 10
667.389
 20
-12.0862
 30
2.70164e-15
  70
    32
  0
VERTEX
  8
0
  5
4BC6
 10
667.389
 20
-12.0781
 30
2.70000e-15
  70
    32
  0
VERTEX
  8
0
  5
4BC7
 10
667.389
 20
-12.0699
 30
2.69836e-15
  70
    32
  0
VERTEX
  8
0
  5
4BC8
 10
667.389
 20
-12.0617
 30
2.69673e-15
  70
    32
  0
VERTEX
  8
0
  5
4BC9
 10
667.389
 20
-12.0535
 30
2.69509e-15
  70
    32
  0
VERTEX
  8
0
  5
4BCA
 10
667.388
 20
-12.0453
 30
2.69346e-15
  70
    32
  0
VERTEX
  8
0
  5
4BCB
 10
667.388
 20
-12.0372
 30
2.69182e-15
  70
    32
  0
VERTEX
  8
0
  5
4BCC
 10
667.388
 20
-12.0290
 30
2.69019e-15
  70
    32
  0
VERTEX
  8
0
  5
4BCD
 10
667.388
 20
-12.0208
 30
2.68855e-15
  70
    32
  0
VERTEX
  8
0
  5
4BCE
 10
667.387
 20
-12.0127
 30
2.68692e-15
  70
    32
  0
VERTEX
  8
0
  5
4BCF
 10
667.387
 20
-12.0045
 30
2.68529e-15
  70
    32
  0
VERTEX
  8
0
  5
4BD0
 10
667.386
 20
-11.9963
 30
2.68366e-15
  70
    32
  0
VERTEX
  8
0
  5
4BD1
 10
667.386
 20
-11.9882
 30
2.68203e-15
  70
    32
  0
VERTEX
  8
0
  5
4BD2
 10
667.385
 20
-11.9800
 30
2.68040e-15
  70
    32
  0
VERTEX
  8
0
  5
4BD3
 10
667.385
 20
-11.9719
 30
2.67877e-15
  70
    32
  0
VERTEX
  8
0
  5
4BD4
 10
667.384
 20
-11.9638
 30
2.67714e-15
  70
    32
  0
VERTEX
  8
0
  5
4BD5
 10
667.383
 20
-11.9556
 30
2.67552e-15
  70
    32
  0
VERTEX
  8
0
  5
4BD6
 10
667.383
 20
-11.9475
 30
2.67389e-15
  70
    32
  0
VERTEX
  8
0
  5
4BD7
 10
667.382
 20
-11.9394
 30
2.67227e-15
  70
    32
  0
VERTEX
  8
0
  5
4BD8
 10
667.381
 20
-11.9313
 30
2.67065e-15
  70
    32
  0
VERTEX
  8
0
  5
4BD9
 10
667.380
 20
-11.9232
 30
2.66904e-15
  70
    32
  0
VERTEX
  8
0
  5
4BDA
 10
667.379
 20
-11.9152
 30
2.66742e-15
  70
    32
  0
VERTEX
  8
0
  5
4BDB
 10
667.378
 20
-11.9071
 30
2.66581e-15
  70
    32
  0
VERTEX
  8
0
  5
4BDC
 10
667.377
 20
-11.8990
 30
2.66420e-15
  70
    32
  0
VERTEX
  8
0
  5
4BDD
 10
667.376
 20
-11.8910
 30
2.66259e-15
  70
    32
  0
VERTEX
  8
0
  5
4BDE
 10
667.375
 20
-11.8830
 30
2.66098e-15
  70
    32
  0
VERTEX
  8
0
  5
4BDF
 10
667.374
 20
-11.8749
 30
2.65938e-15
  70
    32
  0
VERTEX
  8
0
  5
4BE0
 10
667.373
 20
-11.8669
 30
2.65778e-15
  70
    32
  0
VERTEX
  8
0
  5
4BE1
 10
667.372
 20
-11.8590
 30
2.65618e-15
  70
    32
  0
VERTEX
  8
0
  5
4BE2
 10
667.370
 20
-11.8510
 30
2.65458e-15
  70
    32
  0
VERTEX
  8
0
  5
4BE3
 10
667.369
 20
-11.8430
 30
2.65299e-15
  70
    32
  0
VERTEX
  8
0
  5
4BE4
 10
667.368
 20
-11.8351
 30
2.65140e-15
  70
    32
  0
VERTEX
  8
0
  5
4BE5
 10
667.366
 20
-11.8271
 30
2.64982e-15
  70
    32
  0
VERTEX
  8
0
  5
4BE6
 10
667.365
 20
-11.8192
 30
2.64824e-15
  70
    32
  0
VERTEX
  8
0
  5
4BE7
 10
667.363
 20
-11.8113
 30
2.64666e-15
  70
    32
  0
VERTEX
  8
0
  5
4BE8
 10
667.362
 20
-11.8035
 30
2.64508e-15
  70
    32
  0
VERTEX
  8
0
  5
4BE9
 10
667.360
 20
-11.7956
 30
2.64351e-15
  70
    32
  0
VERTEX
  8
0
  5
4BEA
 10
667.358
 20
-11.7878
 30
2.64194e-15
  70
    32
  0
VERTEX
  8
0
  5
4BEB
 10
667.357
 20
-11.7800
 30
2.64038e-15
  70
    32
  0
VERTEX
  8
0
  5
4BEC
 10
667.355
 20
-11.7722
 30
2.63882e-15
  70
    32
  0
VERTEX
  8
0
  5
4BED
 10
667.353
 20
-11.7644
 30
2.63726e-15
  70
    32
  0
VERTEX
  8
0
  5
4BEE
 10
667.351
 20
-11.7566
 30
2.63571e-15
  70
    32
  0
VERTEX
  8
0
  5
4BEF
 10
667.349
 20
-11.7489
 30
2.63416e-15
  70
    32
  0
VERTEX
  8
0
  5
4BF0
 10
667.347
 20
-11.7412
 30
2.63262e-15
  70
    32
  0
VERTEX
  8
0
  5
4BF1
 10
667.345
 20
-11.7335
 30
2.63108e-15
  70
    32
  0
VERTEX
  8
0
  5
4BF2
 10
667.343
 20
-11.7258
 30
2.62955e-15
  70
    32
  0
VERTEX
  8
0
  5
4BF3
 10
667.341
 20
-11.7182
 30
2.62802e-15
  70
    32
  0
VERTEX
  8
0
  5
4BF4
 10
667.339
 20
-11.7105
 30
2.62650e-15
  70
    32
  0
VERTEX
  8
0
  5
4BF5
 10
667.337
 20
-11.7029
 30
2.62498e-15
  70
    32
  0
VERTEX
  8
0
  5
4BF6
 10
667.335
 20
-11.6954
 30
2.62346e-15
  70
    32
  0
VERTEX
  8
0
  5
4BF7
 10
667.333
 20
-11.6878
 30
2.62195e-15
  70
    32
  0
VERTEX
  8
0
  5
4BF8
 10
667.330
 20
-11.6803
 30
2.62045e-15
  70
    32
  0
VERTEX
  8
0
  5
4BF9
 10
667.328
 20
-11.6728
 30
2.61895e-15
  70
    32
  0
VERTEX
  8
0
  5
4BFA
 10
667.326
 20
-11.6653
 30
2.61746e-15
  70
    32
  0
VERTEX
  8
0
  5
4BFB
 10
667.323
 20
-11.6579
 30
2.61597e-15
  70
    32
  0
VERTEX
  8
0
  5
4BFC
 10
667.321
 20
-11.6505
 30
2.61449e-15
  70
    32
  0
VERTEX
  8
0
  5
4BFD
 10
667.318
 20
-11.6431
 30
2.61301e-15
  70
    32
  0
VERTEX
  8
0
  5
4BFE
 10
667.316
 20
-11.6358
 30
2.61154e-15
  70
    32
  0
VERTEX
  8
0
  5
4BFF
 10
667.313
 20
-11.6284
 30
2.61008e-15
  70
    32
  0
VERTEX
  8
0
  5
4C00
 10
667.311
 20
-11.6212
 30
2.60862e-15
  70
    32
  0
VERTEX
  8
0
  5
4C01
 10
667.308
 20
-11.6139
 30
2.60717e-15
  70
    32
  0
VERTEX
  8
0
  5
4C02
 10
667.305
 20
-11.6067
 30
2.60572e-15
  70
    32
  0
VERTEX
  8
0
  5
4C03
 10
667.303
 20
-11.5995
 30
2.60428e-15
  70
    32
  0
VERTEX
  8
0
  5
4C04
 10
667.300
 20
-11.5923
 30
2.60285e-15
  70
    32
  0
VERTEX
  8
0
  5
4C05
 10
667.297
 20
-11.5852
 30
2.60142e-15
  70
    32
  0
VERTEX
  8
0
  5
4C06
 10
667.294
 20
-11.5781
 30
2.60000e-15
  70
    32
  0
SEQEND
  8
0
  5
4C07
  0
LINE
  5
49A0
  8
0
 10
703.6639215073811329
 20
0.9119434586381204
 30
-0.0000000000000002
 11
559.6639215073813602
 21
0.9119434586381204
 31
-0.0000000000000002
210
0.0
220
1.0
230
-0.0000000000000002
  0
LINE
  5
49A1
  8
0
 10
703.6639215073811329
 20
2.9119434586381199
 30
-0.0000000000000006
 11
559.6639215073813602
 21
2.9119434586381199
 31
-0.0000000000000006
210
0.0
220
1.0
230
-0.0000000000000002
  0
LINE
  5
49A2
  8
0
 10
559.6639215073813602
 20
0.9119434586381204
 30
-0.0000000000000002
 11
559.6639215073813602
 21
2.9119434586381199
 31
-0.0000000000000006
210
0.0
220
1.0
230
-0.0000000000000002
  0
LINE
  5
49A3
  8
0
 10
703.6639215073813602
 20
0.9119434586381204
 30
-0.0000000000000002
 11
703.6639215073813602
 21
2.9119434586381199
 31
-0.0000000000000006
210
0.0
220
1.0
230
-0.0000000000000002
  0
LINE
  5
49A4
  8
0
 10
581.9291346352341634
 20
-19.0880565413618797
 30
0.0000000000000042
 11
580.6791346352340497
 21
-19.0880565413618797
 31
0.0000000000000042
210
0.0
220
1.0
230
-0.0000000000000002
  0
LINE
  5
49A5
  8
0
 10
580.6791346352340497
 20
-19.0880565413618797
 30
0.0000000000000042
 11
567.6887535784676402
 21
-19.0880565413618903
 31
0.0000000000000042
210
0.0
220
1.0
230
-0.0000000000000002
  0
LINE
  5
49A6
  8
0
 10
581.9291346352341634
 20
0.9119434586381204
 30
-0.0000000000000002
 11
581.9291346352341634
 21
-19.0880565413618797
 31
0.0000000000000042
210
0.0
220
1.0
230
-0.0000000000000002
  0
LINE
  5
49A7
  8
0
 10
580.6791346352340497
 20
0.9119434586381222
 30
-0.0000000000000002
 11
580.6791346352340497
 21
-19.0880565413618797
 31
0.0000000000000042
210
0.0
220
1.0
230
-0.0000000000000002
  0
LINE
  5
49A8
  8
0
 10
567.6887535784675265
 20
0.9119434586381204
 30
-0.0000000000000002
 11
567.6887535784675265
 21
-19.0880565413618797
 31
0.0000000000000042
210
0.0
220
1.0
230
-0.0000000000000002
  0
LINE
  5
49A9
  8
0
  6
VERDECKT
 62
     1
 10
673.2089964303117995
 20
-0.085899433142231
 30
0.0
 11
662.6023947125136146
 21
-0.0858994331422291
 31
0.0
210
0.0
220
1.0
230
-0.0000000000000002
  0
LINE
  5
49AA
  8
0
  6
VERDECKT
 62
     1
 10
673.2089964303117995
 20
-0.085899433142231
 30
0.0
 11
677.9006499234844796
 21
-11.5780565413618906
 31
0.0000000000000026
210
0.0
220
1.0
230
-0.0000000000000002
  0
LINE
  5
49AB
  8
0
  6
VERDECKT
 62
     1
 10
663.8244976766760601
 20
0.911943458638092
 30
-0.0000000000000002
 11
663.8271395839052502
 21
0.9141005668577692
 31
-0.0000000000000002
210
0.0
220
1.0
230
-0.0000000000000002
  0
LINE
  5
49AC
  8
0
  6
VERDECKT
 62
     1
 10
674.4337413017034351
 20
0.9141005668577692
 30
-0.0000000000000002
 11
663.8271395839052502
 21
0.914100566857771
 31
-0.0000000000000002
210
0.0
220
1.0
230
-0.0000000000000002
  0
LINE
  5
49AD
  8
0
  6
VERDECKT
 62
     1
 10
674.4337413017034351
 20
0.9141005668577692
 30
-0.0000000000000002
 11
673.2089964303117995
 21
-0.0858994331422312
 31
0.0
210
0.0
220
1.0
230
-0.0000000000000002
  0
LINE
  5
49AE
  8
0
  6
VERDECKT
 62
     1
 10
663.8271395839052502
 20
0.9141005668577692
 30
-0.0000000000000002
 11
663.8280202196482378
 21
0.9119434586381204
 31
-0.0000000000000002
210
0.0
220
1.0
230
-0.0000000000000002
  0
LINE
  5
49AF
  8
0
  6
VERDECKT
 62
     1
 10
674.4346219374464226
 20
0.911943458638092
 30
-0.0000000000000002
 11
674.4337413017034351
 21
0.9141005668577692
 31
-0.0000000000000002
210
0.0
220
1.0
230
-0.0000000000000002
  0
LINE
  5
49B0
  8
0
  6
VERDECKT
 62
     1
 10
674.9767633832782394
 20
-19.7400866306590004
 30
0.0000000000000044
 11
664.3701616654800546
 21
-19.7400866306589897
 31
0.0000000000000044
210
0.0
220
1.0
230
-0.0000000000000002
  0
LINE
  5
49B1
  8
0
  6
VERDECKT
 62
     1
 10
674.9767633832782394
 20
-19.7400866306590004
 30
0.0000000000000044
 11
676.2015082546699887
 21
-20.7400866306591105
 31
0.0000000000000046
210
0.0
220
1.0
230
-0.0000000000000002
  0
LINE
  5
49B2
  8
0
  6
VERDECKT
 62
     1
 10
677.9006499234845933
 20
-12.5780565413618604
 30
0.0000000000000028
 11
674.9767633832781257
 21
-19.7400866306590004
 31
0.0000000000000044
210
0.0
220
1.0
230
-0.0000000000000002
  0
POLYLINE
  5
49B3
  8
0
  6
VERDECKT
 62
     1
 10
677.9006499234844796
 20
-11.5780565413618408
 30
0.0000000000000026
 66
     1
 70
     8
  0
VERTEX
  8
0
  5
4C08
 10
677.901
 20
-11.5781
 30
2.60000e-15
  70
    32
  0
VERTEX
  8
0
  5
4C09
 10
677.904
 20
-11.5852
 30
2.60142e-15
  70
    32
  0
VERTEX
  8
0
  5
4C0A
 10
677.906
 20
-11.5923
 30
2.60285e-15
  70
    32
  0
VERTEX
  8
0
  5
4C0B
 10
677.909
 20
-11.5995
 30
2.60428e-15
  70
    32
  0
VERTEX
  8
0
  5
4C0C
 10
677.912
 20
-11.6067
 30
2.60572e-15
  70
    32
  0
VERTEX
  8
0
  5
4C0D
 10
677.915
 20
-11.6139
 30
2.60717e-15
  70
    32
  0
VERTEX
  8
0
  5
4C0E
 10
677.917
 20
-11.6212
 30
2.60862e-15
  70
    32
  0
VERTEX
  8
0
  5
4C0F
 10
677.920
 20
-11.6284
 30
2.61008e-15
  70
    32
  0
VERTEX
  8
0
  5
4C10
 10
677.922
 20
-11.6358
 30
2.61154e-15
  70
    32
  0
VERTEX
  8
0
  5
4C11
 10
677.925
 20
-11.6431
 30
2.61301e-15
  70
    32
  0
VERTEX
  8
0
  5
4C12
 10
677.927
 20
-11.6505
 30
2.61449e-15
  70
    32
  0
VERTEX
  8
0
  5
4C13
 10
677.930
 20
-11.6579
 30
2.61597e-15
  70
    32
  0
VERTEX
  8
0
  5
4C14
 10
677.932
 20
-11.6653
 30
2.61746e-15
  70
    32
  0
VERTEX
  8
0
  5
4C15
 10
677.935
 20
-11.6728
 30
2.61895e-15
  70
    32
  0
VERTEX
  8
0
  5
4C16
 10
677.937
 20
-11.6803
 30
2.62045e-15
  70
    32
  0
VERTEX
  8
0
  5
4C17
 10
677.939
 20
-11.6878
 30
2.62195e-15
  70
    32
  0
VERTEX
  8
0
  5
4C18
 10
677.942
 20
-11.6954
 30
2.62346e-15
  70
    32
  0
VERTEX
  8
0
  5
4C19
 10
677.944
 20
-11.7029
 30
2.62498e-15
  70
    32
  0
VERTEX
  8
0
  5
4C1A
 10
677.946
 20
-11.7105
 30
2.62650e-15
  70
    32
  0
VERTEX
  8
0
  5
4C1B
 10
677.948
 20
-11.7182
 30
2.62802e-15
  70
    32
  0
VERTEX
  8
0
  5
4C1C
 10
677.950
 20
-11.7258
 30
2.62955e-15
  70
    32
  0
VERTEX
  8
0
  5
4C1D
 10
677.952
 20
-11.7335
 30
2.63108e-15
  70
    32
  0
VERTEX
  8
0
  5
4C1E
 10
677.954
 20
-11.7412
 30
2.63262e-15
  70
    32
  0
VERTEX
  8
0
  5
4C1F
 10
677.956
 20
-11.7489
 30
2.63416e-15
  70
    32
  0
VERTEX
  8
0
  5
4C20
 10
677.958
 20
-11.7566
 30
2.63571e-15
  70
    32
  0
VERTEX
  8
0
  5
4C21
 10
677.960
 20
-11.7644
 30
2.63726e-15
  70
    32
  0
VERTEX
  8
0
  5
4C22
 10
677.961
 20
-11.7722
 30
2.63882e-15
  70
    32
  0
VERTEX
  8
0
  5
4C23
 10
677.963
 20
-11.7800
 30
2.64038e-15
  70
    32
  0
VERTEX
  8
0
  5
4C24
 10
677.965
 20
-11.7878
 30
2.64194e-15
  70
    32
  0
VERTEX
  8
0
  5
4C25
 10
677.967
 20
-11.7956
 30
2.64351e-15
  70
    32
  0
VERTEX
  8
0
  5
4C26
 10
677.968
 20
-11.8035
 30
2.64508e-15
  70
    32
  0
VERTEX
  8
0
  5
4C27
 10
677.970
 20
-11.8113
 30
2.64666e-15
  70
    32
  0
VERTEX
  8
0
  5
4C28
 10
677.971
 20
-11.8192
 30
2.64824e-15
  70
    32
  0
VERTEX
  8
0
  5
4C29
 10
677.973
 20
-11.8271
 30
2.64982e-15
  70
    32
  0
VERTEX
  8
0
  5
4C2A
 10
677.974
 20
-11.8351
 30
2.65140e-15
  70
    32
  0
VERTEX
  8
0
  5
4C2B
 10
677.976
 20
-11.8430
 30
2.65299e-15
  70
    32
  0
VERTEX
  8
0
  5
4C2C
 10
677.977
 20
-11.8510
 30
2.65458e-15
  70
    32
  0
VERTEX
  8
0
  5
4C2D
 10
677.978
 20
-11.8590
 30
2.65618e-15
  70
    32
  0
VERTEX
  8
0
  5
4C2E
 10
677.979
 20
-11.8669
 30
2.65778e-15
  70
    32
  0
VERTEX
  8
0
  5
4C2F
 10
677.981
 20
-11.8749
 30
2.65938e-15
  70
    32
  0
VERTEX
  8
0
  5
4C30
 10
677.982
 20
-11.8830
 30
2.66098e-15
  70
    32
  0
VERTEX
  8
0
  5
4C31
 10
677.983
 20
-11.8910
 30
2.66259e-15
  70
    32
  0
VERTEX
  8
0
  5
4C32
 10
677.984
 20
-11.8990
 30
2.66420e-15
  70
    32
  0
VERTEX
  8
0
  5
4C33
 10
677.985
 20
-11.9071
 30
2.66581e-15
  70
    32
  0
VERTEX
  8
0
  5
4C34
 10
677.986
 20
-11.9152
 30
2.66742e-15
  70
    32
  0
VERTEX
  8
0
  5
4C35
 10
677.987
 20
-11.9232
 30
2.66904e-15
  70
    32
  0
VERTEX
  8
0
  5
4C36
 10
677.988
 20
-11.9313
 30
2.67065e-15
  70
    32
  0
VERTEX
  8
0
  5
4C37
 10
677.989
 20
-11.9394
 30
2.67227e-15
  70
    32
  0
VERTEX
  8
0
  5
4C38
 10
677.989
 20
-11.9475
 30
2.67389e-15
  70
    32
  0
VERTEX
  8
0
  5
4C39
 10
677.990
 20
-11.9556
 30
2.67552e-15
  70
    32
  0
VERTEX
  8
0
  5
4C3A
 10
677.991
 20
-11.9638
 30
2.67714e-15
  70
    32
  0
VERTEX
  8
0
  5
4C3B
 10
677.991
 20
-11.9719
 30
2.67877e-15
  70
    32
  0
VERTEX
  8
0
  5
4C3C
 10
677.992
 20
-11.9800
 30
2.68040e-15
  70
    32
  0
VERTEX
  8
0
  5
4C3D
 10
677.993
 20
-11.9882
 30
2.68203e-15
  70
    32
  0
VERTEX
  8
0
  5
4C3E
 10
677.993
 20
-11.9963
 30
2.68366e-15
  70
    32
  0
VERTEX
  8
0
  5
4C3F
 10
677.993
 20
-12.0045
 30
2.68529e-15
  70
    32
  0
VERTEX
  8
0
  5
4C40
 10
677.994
 20
-12.0127
 30
2.68692e-15
  70
    32
  0
VERTEX
  8
0
  5
4C41
 10
677.994
 20
-12.0208
 30
2.68855e-15
  70
    32
  0
VERTEX
  8
0
  5
4C42
 10
677.995
 20
-12.0290
 30
2.69019e-15
  70
    32
  0
VERTEX
  8
0
  5
4C43
 10
677.995
 20
-12.0372
 30
2.69182e-15
  70
    32
  0
VERTEX
  8
0
  5
4C44
 10
677.995
 20
-12.0453
 30
2.69346e-15
  70
    32
  0
VERTEX
  8
0
  5
4C45
 10
677.995
 20
-12.0535
 30
2.69509e-15
  70
    32
  0
VERTEX
  8
0
  5
4C46
 10
677.995
 20
-12.0617
 30
2.69673e-15
  70
    32
  0
VERTEX
  8
0
  5
4C47
 10
677.995
 20
-12.0699
 30
2.69836e-15
  70
    32
  0
VERTEX
  8
0
  5
4C48
 10
677.995
 20
-12.0781
 30
2.70000e-15
  70
    32
  0
VERTEX
  8
0
  5
4C49
 10
677.995
 20
-12.0862
 30
2.70164e-15
  70
    32
  0
VERTEX
  8
0
  5
4C4A
 10
677.995
 20
-12.0944
 30
2.70327e-15
  70
    32
  0
VERTEX
  8
0
  5
4C4B
 10
677.995
 20
-12.1026
 30
2.70491e-15
  70
    32
  0
VERTEX
  8
0
  5
4C4C
 10
677.995
 20
-12.1108
 30
2.70654e-15
  70
    32
  0
VERTEX
  8
0
  5
4C4D
 10
677.995
 20
-12.1190
 30
2.70818e-15
  70
    32
  0
VERTEX
  8
0
  5
4C4E
 10
677.995
 20
-12.1271
 30
2.70981e-15
  70
    32
  0
VERTEX
  8
0
  5
4C4F
 10
677.994
 20
-12.1353
 30
2.71145e-15
  70
    32
  0
VERTEX
  8
0
  5
4C50
 10
677.994
 20
-12.1435
 30
2.71308e-15
  70
    32
  0
VERTEX
  8
0
  5
4C51
 10
677.993
 20
-12.1516
 30
2.71471e-15
  70
    32
  0
VERTEX
  8
0
  5
4C52
 10
677.993
 20
-12.1598
 30
2.71634e-15
  70
    32
  0
VERTEX
  8
0
  5
4C53
 10
677.993
 20
-12.1679
 30
2.71797e-15
  70
    32
  0
VERTEX
  8
0
  5
4C54
 10
677.992
 20
-12.1761
 30
2.71960e-15
  70
    32
  0
VERTEX
  8
0
  5
4C55
 10
677.991
 20
-12.1842
 30
2.72123e-15
  70
    32
  0
VERTEX
  8
0
  5
4C56
 10
677.991
 20
-12.1923
 30
2.72286e-15
  70
    32
  0
VERTEX
  8
0
  5
4C57
 10
677.990
 20
-12.2005
 30
2.72448e-15
  70
    32
  0
VERTEX
  8
0
  5
4C58
 10
677.989
 20
-12.2086
 30
2.72611e-15
  70
    32
  0
VERTEX
  8
0
  5
4C59
 10
677.989
 20
-12.2167
 30
2.72773e-15
  70
    32
  0
VERTEX
  8
0
  5
4C5A
 10
677.988
 20
-12.2248
 30
2.72935e-15
  70
    32
  0
VERTEX
  8
0
  5
4C5B
 10
677.987
 20
-12.2329
 30
2.73096e-15
  70
    32
  0
VERTEX
  8
0
  5
4C5C
 10
677.986
 20
-12.2410
 30
2.73258e-15
  70
    32
  0
VERTEX
  8
0
  5
4C5D
 10
677.985
 20
-12.2490
 30
2.73419e-15
  70
    32
  0
VERTEX
  8
0
  5
4C5E
 10
677.984
 20
-12.2571
 30
2.73580e-15
  70
    32
  0
VERTEX
  8
0
  5
4C5F
 10
677.983
 20
-12.2651
 30
2.73741e-15
  70
    32
  0
VERTEX
  8
0
  5
4C60
 10
677.982
 20
-12.2731
 30
2.73902e-15
  70
    32
  0
VERTEX
  8
0
  5
4C61
 10
677.981
 20
-12.2812
 30
2.74062e-15
  70
    32
  0
VERTEX
  8
0
  5
4C62
 10
677.979
 20
-12.2892
 30
2.74222e-15
  70
    32
  0
VERTEX
  8
0
  5
4C63
 10
677.978
 20
-12.2972
 30
2.74382e-15
  70
    32
  0
VERTEX
  8
0
  5
4C64
 10
677.977
 20
-12.3051
 30
2.74542e-15
  70
    32
  0
VERTEX
  8
0
  5
4C65
 10
677.976
 20
-12.3131
 30
2.74701e-15
  70
    32
  0
VERTEX
  8
0
  5
4C66
 10
677.974
 20
-12.3210
 30
2.74860e-15
  70
    32
  0
VERTEX
  8
0
  5
4C67
 10
677.973
 20
-12.3290
 30
2.75018e-15
  70
    32
  0
VERTEX
  8
0
  5
4C68
 10
677.971
 20
-12.3369
 30
2.75176e-15
  70
    32
  0
VERTEX
  8
0
  5
4C69
 10
677.970
 20
-12.3448
 30
2.75334e-15
  70
    32
  0
VERTEX
  8
0
  5
4C6A
 10
677.968
 20
-12.3526
 30
2.75492e-15
  70
    32
  0
VERTEX
  8
0
  5
4C6B
 10
677.967
 20
-12.3605
 30
2.75649e-15
  70
    32
  0
VERTEX
  8
0
  5
4C6C
 10
677.965
 20
-12.3683
 30
2.75806e-15
  70
    32
  0
VERTEX
  8
0
  5
4C6D
 10
677.963
 20
-12.3762
 30
2.75962e-15
  70
    32
  0
VERTEX
  8
0
  5
4C6E
 10
677.961
 20
-12.3840
 30
2.76118e-15
  70
    32
  0
VERTEX
  8
0
  5
4C6F
 10
677.960
 20
-12.3917
 30
2.76274e-15
  70
    32
  0
VERTEX
  8
0
  5
4C70
 10
677.958
 20
-12.3995
 30
2.76429e-15
  70
    32
  0
VERTEX
  8
0
  5
4C71
 10
677.956
 20
-12.4072
 30
2.76584e-15
  70
    32
  0
VERTEX
  8
0
  5
4C72
 10
677.954
 20
-12.4149
 30
2.76738e-15
  70
    32
  0
VERTEX
  8
0
  5
4C73
 10
677.952
 20
-12.4226
 30
2.76892e-15
  70
    32
  0
VERTEX
  8
0
  5
4C74
 10
677.950
 20
-12.4303
 30
2.77045e-15
  70
    32
  0
VERTEX
  8
0
  5
4C75
 10
677.948
 20
-12.4380
 30
2.77198e-15
  70
    32
  0
VERTEX
  8
0
  5
4C76
 10
677.946
 20
-12.4456
 30
2.77350e-15
  70
    32
  0
VERTEX
  8
0
  5
4C77
 10
677.944
 20
-12.4532
 30
2.77502e-15
  70
    32
  0
VERTEX
  8
0
  5
4C78
 10
677.942
 20
-12.4607
 30
2.77654e-15
  70
    32
  0
VERTEX
  8
0
  5
4C79
 10
677.939
 20
-12.4683
 30
2.77805e-15
  70
    32
  0
VERTEX
  8
0
  5
4C7A
 10
677.937
 20
-12.4758
 30
2.77955e-15
  70
    32
  0
VERTEX
  8
0
  5
4C7B
 10
677.935
 20
-12.4833
 30
2.78105e-15
  70
    32
  0
VERTEX
  8
0
  5
4C7C
 10
677.932
 20
-12.4908
 30
2.78254e-15
  70
    32
  0
VERTEX
  8
0
  5
4C7D
 10
677.930
 20
-12.4982
 30
2.78403e-15
  70
    32
  0
VERTEX
  8
0
  5
4C7E
 10
677.927
 20
-12.5056
 30
2.78551e-15
  70
    32
  0
VERTEX
  8
0
  5
4C7F
 10
677.925
 20
-12.5130
 30
2.78699e-15
  70
    32
  0
VERTEX
  8
0
  5
4C80
 10
677.922
 20
-12.5203
 30
2.78846e-15
  70
    32
  0
VERTEX
  8
0
  5
4C81
 10
677.920
 20
-12.5277
 30
2.78992e-15
  70
    32
  0
VERTEX
  8
0
  5
4C82
 10
677.917
 20
-12.5350
 30
2.79138e-15
  70
    32
  0
VERTEX
  8
0
  5
4C83
 10
677.915
 20
-12.5422
 30
2.79283e-15
  70
    32
  0
VERTEX
  8
0
  5
4C84
 10
677.912
 20
-12.5495
 30
2.79428e-15
  70
    32
  0
VERTEX
  8
0
  5
4C85
 10
677.909
 20
-12.5567
 30
2.79572e-15
  70
    32
  0
VERTEX
  8
0
  5
4C86
 10
677.906
 20
-12.5638
 30
2.79715e-15
  70
    32
  0
VERTEX
  8
0
  5
4C87
 10
677.904
 20
-12.5710
 30
2.79858e-15
  70
    32
  0
VERTEX
  8
0
  5
4C88
 10
677.901
 20
-12.5781
 30
2.80000e-15
  70
    32
  0
SEQEND
  8
0
  5
4C89
  0
LINE
  5
49B4
  8
0
  6
VERDECKT
 62
     1
 10
596.4239215073813511
 20
0.9119434586381151
 30
-0.0000000000000002
 11
594.4639215073814285
 21
2.9119434586381332
 31
-0.0000000000000006
210
0.0
220
1.0
230
-0.0000000000000002
  0
LINE
  5
49B5
  8
0
  6
VERDECKT
 62
     1
 10
602.9039215073813693
 20
0.9119434586381148
 30
-0.0000000000000002
 11
604.8639215073815194
 21
2.9119434586381332
 31
-0.0000000000000006
210
0.0
220
1.0
230
-0.0000000000000002
  0
LINE
  5
49B6
  8
0
  6
VERDECKT
 62
     1
 10
568.9387535784675265
 20
0.9119434586381187
 30
-0.0000000000000002
 11
568.9387535784675265
 21
-19.0880565413618797
 31
0.0000000000000042
210
0.0
220
1.0
230
-0.0000000000000002
  0
ENDBLK
  5
49B8
  8
0
  0
BLOCK
  8
0
  2
A$C6EB8819F
 70
     0
 10
0.0
 20
0.0
 30
0.0
  3
A$C6EB8819F
  1

  0
LINE
  5
49E9
  8
0
 10
-136.9083864210959121
 20
-11.5780565413619208
 30
0.0000000000000026
 11
-141.6000399142685922
 21
-0.0858994331422624
 31
0.0
210
-0.0000000000000002
220
1.0
230
-0.0000000000000002
  0
LINE
  5
49EA
  8
0
 10
-152.2066416320668054
 20
-0.0858994331422648
 30
0.0
 11
-141.6000399142685922
 21
-0.0858994331422606
 31
0.0
210
-0.0000000000000002
220
1.0
230
-0.0000000000000002
  0
LINE
  5
49EB
  8
0
 10
-152.2066416320668054
 20
-0.0858994331422648
 30
0.0
 11
-147.5149881388940969
 21
-11.5780565413619208
 31
0.0000000000000026
210
-0.0000000000000002
220
1.0
230
-0.0000000000000002
  0
LINE
  5
49EC
  8
0
 10
-141.6000399142685922
 20
-0.0858994331422624
 30
0.0
 11
-140.3779369501060046
 21
0.9119434586381181
 31
-0.0000000000000002
210
-0.0000000000000002
220
1.0
230
-0.0000000000000002
  0
LINE
  5
49ED
  8
0
 10
-150.9845386679041894
 20
0.9119434586380588
 30
-0.0000000000000002
 11
-152.2066416320668054
 21
-0.085899433142265
 31
0.0
210
-0.0000000000000002
220
1.0
230
-0.0000000000000002
  0
LINE
  5
49EE
  8
0
 10
-140.3744144071337985
 20
0.911943458638118
 30
-0.0000000000000002
 11
-135.683641549704106
 21
-10.5780565413619492
 31
0.0000000000000023
210
-0.0000000000000002
220
1.0
230
-0.0000000000000002
  0
POLYLINE
  5
49EF
  8
0
 10
-135.683641549704106
 20
-10.5780565413618461
 30
0.0000000000000023
 66
     1
 70
     8
  0
VERTEX
  8
0
  5
4C8A
 10
-135.684
 20
-10.5781
 30
2.35000e-15
  70
    32
  0
VERTEX
  8
0
  5
4C8B
 10
-135.675
 20
-10.5994
 30
2.35497e-15
  70
    32
  0
VERTEX
  8
0
  5
4C8C
 10
-135.667
 20
-10.6208
 30
2.35997e-15
  70
    32
  0
VERTEX
  8
0
  5
4C8D
 10
-135.658
 20
-10.6423
 30
2.36498e-15
  70
    32
  0
VERTEX
  8
0
  5
4C8E
 10
-135.650
 20
-10.6639
 30
2.37002e-15
  70
    32
  0
VERTEX
  8
0
  5
4C8F
 10
-135.642
 20
-10.6856
 30
2.37508e-15
  70
    32
  0
VERTEX
  8
0
  5
4C90
 10
-135.634
 20
-10.7073
 30
2.38017e-15
  70
    32
  0
VERTEX
  8
0
  5
4C91
 10
-135.626
 20
-10.7292
 30
2.38527e-15
  70
    32
  0
VERTEX
  8
0
  5
4C92
 10
-135.618
 20
-10.7512
 30
2.39040e-15
  70
    32
  0
VERTEX
  8
0
  5
4C93
 10
-135.611
 20
-10.7732
 30
2.39554e-15
  70
    32
  0
VERTEX
  8
0
  5
4C94
 10
-135.603
 20
-10.7954
 30
2.40071e-15
  70
    32
  0
VERTEX
  8
0
  5
4C95
 10
-135.596
 20
-10.8176
 30
2.40590e-15
  70
    32
  0
VERTEX
  8
0
  5
4C96
 10
-135.589
 20
-10.8399
 30
2.41111e-15
  70
    32
  0
VERTEX
  8
0
  5
4C97
 10
-135.581
 20
-10.8623
 30
2.41633e-15
  70
    32
  0
VERTEX
  8
0
  5
4C98
 10
-135.574
 20
-10.8848
 30
2.42158e-15
  70
    32
  0
VERTEX
  8
0
  5
4C99
 10
-135.568
 20
-10.9074
 30
2.42684e-15
  70
    32
  0
VERTEX
  8
0
  5
4C9A
 10
-135.561
 20
-10.9300
 30
2.43212e-15
  70
    32
  0
VERTEX
  8
0
  5
4C9B
 10
-135.554
 20
-10.9527
 30
2.43742e-15
  70
    32
  0
VERTEX
  8
0
  5
4C9C
 10
-135.548
 20
-10.9755
 30
2.44274e-15
  70
    32
  0
VERTEX
  8
0
  5
4C9D
 10
-135.542
 20
-10.9984
 30
2.44807e-15
  70
    32
  0
VERTEX
  8
0
  5
4C9E
 10
-135.535
 20
-11.0213
 30
2.45342e-15
  70
    32
  0
VERTEX
  8
0
  5
4C9F
 10
-135.529
 20
-11.0443
 30
2.45879e-15
  70
    32
  0
VERTEX
  8
0
  5
4CA0
 10
-135.523
 20
-11.0674
 30
2.46418e-15
  70
    32
  0
VERTEX
  8
0
  5
4CA1
 10
-135.518
 20
-11.0905
 30
2.46958e-15
  70
    32
  0
VERTEX
  8
0
  5
4CA2
 10
-135.512
 20
-11.1137
 30
2.47499e-15
  70
    32
  0
VERTEX
  8
0
  5
4CA3
 10
-135.507
 20
-11.1370
 30
2.48042e-15
  70
    32
  0
VERTEX
  8
0
  5
4CA4
 10
-135.501
 20
-11.1603
 30
2.48587e-15
  70
    32
  0
VERTEX
  8
0
  5
4CA5
 10
-135.496
 20
-11.1837
 30
2.49133e-15
  70
    32
  0
VERTEX
  8
0
  5
4CA6
 10
-135.491
 20
-11.2072
 30
2.49680e-15
  70
    32
  0
VERTEX
  8
0
  5
4CA7
 10
-135.486
 20
-11.2307
 30
2.50229e-15
  70
    32
  0
VERTEX
  8
0
  5
4CA8
 10
-135.481
 20
-11.2543
 30
2.50779e-15
  70
    32
  0
VERTEX
  8
0
  5
4CA9
 10
-135.476
 20
-11.2779
 30
2.51330e-15
  70
    32
  0
VERTEX
  8
0
  5
4CAA
 10
-135.472
 20
-11.3016
 30
2.51883e-15
  70
    32
  0
VERTEX
  8
0
  5
4CAB
 10
-135.467
 20
-11.3253
 30
2.52436e-15
  70
    32
  0
VERTEX
  8
0
  5
4CAC
 10
-135.463
 20
-11.3491
 30
2.52991e-15
  70
    32
  0
VERTEX
  8
0
  5
4CAD
 10
-135.459
 20
-11.3729
 30
2.53547e-15
  70
    32
  0
VERTEX
  8
0
  5
4CAE
 10
-135.455
 20
-11.3968
 30
2.54105e-15
  70
    32
  0
VERTEX
  8
0
  5
4CAF
 10
-135.451
 20
-11.4208
 30
2.54663e-15
  70
    32
  0
VERTEX
  8
0
  5
4CB0
 10
-135.447
 20
-11.4447
 30
2.55222e-15
  70
    32
  0
VERTEX
  8
0
  5
4CB1
 10
-135.444
 20
-11.4687
 30
2.55782e-15
  70
    32
  0
VERTEX
  8
0
  5
4CB2
 10
-135.440
 20
-11.4928
 30
2.56344e-15
  70
    32
  0
VERTEX
  8
0
  5
4CB3
 10
-135.437
 20
-11.5169
 30
2.56906e-15
  70
    32
  0
VERTEX
  8
0
  5
4CB4
 10
-135.434
 20
-11.5410
 30
2.57469e-15
  70
    32
  0
VERTEX
  8
0
  5
4CB5
 10
-135.431
 20
-11.5652
 30
2.58033e-15
  70
    32
  0
VERTEX
  8
0
  5
4CB6
 10
-135.428
 20
-11.5894
 30
2.58597e-15
  70
    32
  0
VERTEX
  8
0
  5
4CB7
 10
-135.425
 20
-11.6136
 30
2.59163e-15
  70
    32
  0
VERTEX
  8
0
  5
4CB8
 10
-135.422
 20
-11.6379
 30
2.59729e-15
  70
    32
  0
VERTEX
  8
0
  5
4CB9
 10
-135.420
 20
-11.6622
 30
2.60296e-15
  70
    32
  0
VERTEX
  8
0
  5
4CBA
 10
-135.418
 20
-11.6865
 30
2.60863e-15
  70
    32
  0
VERTEX
  8
0
  5
4CBB
 10
-135.415
 20
-11.7108
 30
2.61431e-15
  70
    32
  0
VERTEX
  8
0
  5
4CBC
 10
-135.413
 20
-11.7352
 30
2.62000e-15
  70
    32
  0
VERTEX
  8
0
  5
4CBD
 10
-135.411
 20
-11.7596
 30
2.62569e-15
  70
    32
  0
VERTEX
  8
0
  5
4CBE
 10
-135.410
 20
-11.7840
 30
2.63139e-15
  70
    32
  0
VERTEX
  8
0
  5
4CBF
 10
-135.408
 20
-11.8084
 30
2.63709e-15
  70
    32
  0
VERTEX
  8
0
  5
4CC0
 10
-135.407
 20
-11.8329
 30
2.64280e-15
  70
    32
  0
VERTEX
  8
0
  5
4CC1
 10
-135.405
 20
-11.8574
 30
2.64850e-15
  70
    32
  0
VERTEX
  8
0
  5
4CC2
 10
-135.404
 20
-11.8818
 30
2.65422e-15
  70
    32
  0
VERTEX
  8
0
  5
4CC3
 10
-135.403
 20
-11.9063
 30
2.65993e-15
  70
    32
  0
VERTEX
  8
0
  5
4CC4
 10
-135.402
 20
-11.9309
 30
2.66565e-15
  70
    32
  0
VERTEX
  8
0
  5
4CC5
 10
-135.401
 20
-11.9554
 30
2.67137e-15
  70
    32
  0
VERTEX
  8
0
  5
4CC6
 10
-135.401
 20
-11.9799
 30
2.67710e-15
  70
    32
  0
VERTEX
  8
0
  5
4CC7
 10
-135.400
 20
-12.0044
 30
2.68282e-15
  70
    32
  0
VERTEX
  8
0
  5
4CC8
 10
-135.400
 20
-12.0290
 30
2.68855e-15
  70
    32
  0
VERTEX
  8
0
  5
4CC9
 10
-135.400
 20
-12.0535
 30
2.69427e-15
  70
    32
  0
VERTEX
  8
0
  5
4CCA
 10
-135.399
 20
-12.0781
 30
2.70000e-15
  70
    32
  0
VERTEX
  8
0
  5
4CCB
 10
-135.400
 20
-12.1026
 30
2.70573e-15
  70
    32
  0
VERTEX
  8
0
  5
4CCC
 10
-135.400
 20
-12.1271
 30
2.71145e-15
  70
    32
  0
VERTEX
  8
0
  5
4CCD
 10
-135.400
 20
-12.1517
 30
2.71718e-15
  70
    32
  0
VERTEX
  8
0
  5
4CCE
 10
-135.401
 20
-12.1762
 30
2.72290e-15
  70
    32
  0
VERTEX
  8
0
  5
4CCF
 10
-135.401
 20
-12.2007
 30
2.72863e-15
  70
    32
  0
VERTEX
  8
0
  5
4CD0
 10
-135.402
 20
-12.2253
 30
2.73435e-15
  70
    32
  0
VERTEX
  8
0
  5
4CD1
 10
-135.403
 20
-12.2498
 30
2.74007e-15
  70
    32
  0
VERTEX
  8
0
  5
4CD2
 10
-135.404
 20
-12.2743
 30
2.74578e-15
  70
    32
  0
VERTEX
  8
0
  5
4CD3
 10
-135.405
 20
-12.2988
 30
2.75150e-15
  70
    32
  0
VERTEX
  8
0
  5
4CD4
 10
-135.407
 20
-12.3232
 30
2.75720e-15
  70
    32
  0
VERTEX
  8
0
  5
4CD5
 10
-135.408
 20
-12.3477
 30
2.76291e-15
  70
    32
  0
VERTEX
  8
0
  5
4CD6
 10
-135.410
 20
-12.3721
 30
2.76861e-15
  70
    32
  0
VERTEX
  8
0
  5
4CD7
 10
-135.411
 20
-12.3965
 30
2.77431e-15
  70
    32
  0
VERTEX
  8
0
  5
4CD8
 10
-135.413
 20
-12.4209
 30
2.78000e-15
  70
    32
  0
VERTEX
  8
0
  5
4CD9
 10
-135.415
 20
-12.4453
 30
2.78569e-15
  70
    32
  0
VERTEX
  8
0
  5
4CDA
 10
-135.418
 20
-12.4696
 30
2.79137e-15
  70
    32
  0
VERTEX
  8
0
  5
4CDB
 10
-135.420
 20
-12.4940
 30
2.79704e-15
  70
    32
  0
VERTEX
  8
0
  5
4CDC
 10
-135.422
 20
-12.5182
 30
2.80271e-15
  70
    32
  0
VERTEX
  8
0
  5
4CDD
 10
-135.425
 20
-12.5425
 30
2.80837e-15
  70
    32
  0
VERTEX
  8
0
  5
4CDE
 10
-135.428
 20
-12.5667
 30
2.81403e-15
  70
    32
  0
VERTEX
  8
0
  5
4CDF
 10
-135.431
 20
-12.5909
 30
2.81967e-15
  70
    32
  0
VERTEX
  8
0
  5
4CE0
 10
-135.434
 20
-12.6151
 30
2.82531e-15
  70
    32
  0
VERTEX
  8
0
  5
4CE1
 10
-135.437
 20
-12.6392
 30
2.83094e-15
  70
    32
  0
VERTEX
  8
0
  5
4CE2
 10
-135.440
 20
-12.6633
 30
2.83656e-15
  70
    32
  0
VERTEX
  8
0
  5
4CE3
 10
-135.444
 20
-12.6874
 30
2.84218e-15
  70
    32
  0
VERTEX
  8
0
  5
4CE4
 10
-135.447
 20
-12.7114
 30
2.84778e-15
  70
    32
  0
VERTEX
  8
0
  5
4CE5
 10
-135.451
 20
-12.7354
 30
2.85337e-15
  70
    32
  0
VERTEX
  8
0
  5
4CE6
 10
-135.455
 20
-12.7593
 30
2.85895e-15
  70
    32
  0
VERTEX
  8
0
  5
4CE7
 10
-135.459
 20
-12.7832
 30
2.86453e-15
  70
    32
  0
VERTEX
  8
0
  5
4CE8
 10
-135.463
 20
-12.8070
 30
2.87009e-15
  70
    32
  0
VERTEX
  8
0
  5
4CE9
 10
-135.467
 20
-12.8308
 30
2.87564e-15
  70
    32
  0
VERTEX
  8
0
  5
4CEA
 10
-135.472
 20
-12.8545
 30
2.88117e-15
  70
    32
  0
VERTEX
  8
0
  5
4CEB
 10
-135.476
 20
-12.8782
 30
2.88670e-15
  70
    32
  0
VERTEX
  8
0
  5
4CEC
 10
-135.481
 20
-12.9018
 30
2.89221e-15
  70
    32
  0
VERTEX
  8
0
  5
4CED
 10
-135.486
 20
-12.9254
 30
2.89771e-15
  70
    32
  0
VERTEX
  8
0
  5
4CEE
 10
-135.491
 20
-12.9489
 30
2.90320e-15
  70
    32
  0
VERTEX
  8
0
  5
4CEF
 10
-135.496
 20
-12.9724
 30
2.90867e-15
  70
    32
  0
VERTEX
  8
0
  5
4CF0
 10
-135.501
 20
-12.9958
 30
2.91413e-15
  70
    32
  0
VERTEX
  8
0
  5
4CF1
 10
-135.507
 20
-13.0191
 30
2.91958e-15
  70
    32
  0
VERTEX
  8
0
  5
4CF2
 10
-135.512
 20
-13.0424
 30
2.92501e-15
  70
    32
  0
VERTEX
  8
0
  5
4CF3
 10
-135.518
 20
-13.0656
 30
2.93042e-15
  70
    32
  0
VERTEX
  8
0
  5
4CF4
 10
-135.523
 20
-13.0887
 30
2.93582e-15
  70
    32
  0
VERTEX
  8
0
  5
4CF5
 10
-135.529
 20
-13.1118
 30
2.94121e-15
  70
    32
  0
VERTEX
  8
0
  5
4CF6
 10
-135.535
 20
-13.1348
 30
2.94658e-15
  70
    32
  0
VERTEX
  8
0
  5
4CF7
 10
-135.542
 20
-13.1577
 30
2.95193e-15
  70
    32
  0
VERTEX
  8
0
  5
4CF8
 10
-135.548
 20
-13.1806
 30
2.95726e-15
  70
    32
  0
VERTEX
  8
0
  5
4CF9
 10
-135.554
 20
-13.2034
 30
2.96258e-15
  70
    32
  0
VERTEX
  8
0
  5
4CFA
 10
-135.561
 20
-13.2261
 30
2.96788e-15
  70
    32
  0
VERTEX
  8
0
  5
4CFB
 10
-135.568
 20
-13.2487
 30
2.97316e-15
  70
    32
  0
VERTEX
  8
0
  5
4CFC
 10
-135.574
 20
-13.2713
 30
2.97842e-15
  70
    32
  0
VERTEX
  8
0
  5
4CFD
 10
-135.581
 20
-13.2938
 30
2.98367e-15
  70
    32
  0
VERTEX
  8
0
  5
4CFE
 10
-135.589
 20
-13.3162
 30
2.98889e-15
  70
    32
  0
VERTEX
  8
0
  5
4CFF
 10
-135.596
 20
-13.3385
 30
2.99410e-15
  70
    32
  0
VERTEX
  8
0
  5
4D00
 10
-135.603
 20
-13.3607
 30
2.99929e-15
  70
    32
  0
VERTEX
  8
0
  5
4D01
 10
-135.611
 20
-13.3829
 30
3.00446e-15
  70
    32
  0
VERTEX
  8
0
  5
4D02
 10
-135.618
 20
-13.4049
 30
3.00960e-15
  70
    32
  0
VERTEX
  8
0
  5
4D03
 10
-135.626
 20
-13.4269
 30
3.01473e-15
  70
    32
  0
VERTEX
  8
0
  5
4D04
 10
-135.634
 20
-13.4488
 30
3.01983e-15
  70
    32
  0
VERTEX
  8
0
  5
4D05
 10
-135.642
 20
-13.4706
 30
3.02492e-15
  70
    32
  0
VERTEX
  8
0
  5
4D06
 10
-135.650
 20
-13.4922
 30
3.02998e-15
  70
    32
  0
VERTEX
  8
0
  5
4D07
 10
-135.658
 20
-13.5138
 30
3.03502e-15
  70
    32
  0
VERTEX
  8
0
  5
4D08
 10
-135.667
 20
-13.5353
 30
3.04003e-15
  70
    32
  0
VERTEX
  8
0
  5
4D09
 10
-135.675
 20
-13.5568
 30
3.04503e-15
  70
    32
  0
VERTEX
  8
0
  5
4D0A
 10
-135.684
 20
-13.5781
 30
3.05000e-15
  70
    32
  0
SEQEND
  8
0
  5
4D0B
  0
LINE
  5
49F0
  8
0
 10
-135.683641549704106
 20
-13.5780565413619208
 30
0.000000000000003
 11
-138.6075280899104882
 21
-20.7400866306591496
 31
0.0000000000000046
210
-0.0000000000000002
220
1.0
230
-0.0000000000000002
  0
LINE
  5
49F1
  8
0
 10
-149.2141298077087015
 20
-20.7400866306591496
 30
0.0000000000000046
 11
-138.6075280899104882
 21
-20.7400866306591496
 31
0.0000000000000046
210
-0.0000000000000002
220
1.0
230
-0.0000000000000002
  0
LINE
  5
49F2
  8
0
 10
-138.607528089910403
 20
-20.7400866306591496
 30
0.0000000000000046
 11
-139.8322729613020954
 21
-19.7400866306590288
 31
0.0000000000000044
210
-0.0000000000000002
220
1.0
230
-0.0000000000000002
  0
LINE
  5
49F3
  8
0
 10
-150.4388746791003086
 20
-19.7400866306590288
 30
0.0000000000000044
 11
-139.8322729613020954
 21
-19.7400866306590288
 31
0.0000000000000044
210
-0.0000000000000002
220
1.0
230
-0.0000000000000002
  0
LINE
  5
49F4
  8
0
 10
-150.4388746791003086
 20
-19.7400866306590288
 30
0.0000000000000044
 11
-149.2141298077085878
 21
-20.7400866306591496
 31
0.0000000000000046
210
-0.0000000000000002
220
1.0
230
-0.0000000000000002
  0
LINE
  5
49F5
  8
0
 10
-139.8322729613022091
 20
-19.7400866306590288
 30
0.0000000000000044
 11
-136.9083864210957984
 21
-12.5780565413618906
 31
0.0000000000000028
210
-0.0000000000000002
220
1.0
230
-0.0000000000000002
  0
LINE
  5
49F6
  8
0
 10
-147.5149881388940116
 20
-12.5780565413618994
 30
0.0000000000000028
 11
-150.4388746791003939
 21
-19.7400866306590288
 31
0.0000000000000044
210
-0.0000000000000002
220
1.0
230
-0.0000000000000002
  0
POLYLINE
  5
49F7
  8
0
 10
-136.9083864210957131
 20
-12.5780565413619243
 30
0.0000000000000028
 66
     1
 70
     8
  0
VERTEX
  8
0
  5
4D0C
 10
-136.908
 20
-12.5781
 30
2.80000e-15
  70
    32
  0
VERTEX
  8
0
  5
4D0D
 10
-136.906
 20
-12.5710
 30
2.79858e-15
  70
    32
  0
VERTEX
  8
0
  5
4D0E
 10
-136.903
 20
-12.5638
 30
2.79715e-15
  70
    32
  0
VERTEX
  8
0
  5
4D0F
 10
-136.900
 20
-12.5567
 30
2.79572e-15
  70
    32
  0
VERTEX
  8
0
  5
4D10
 10
-136.897
 20
-12.5495
 30
2.79428e-15
  70
    32
  0
VERTEX
  8
0
  5
4D11
 10
-136.894
 20
-12.5422
 30
2.79283e-15
  70
    32
  0
VERTEX
  8
0
  5
4D12
 10
-136.892
 20
-12.5350
 30
2.79138e-15
  70
    32
  0
VERTEX
  8
0
  5
4D13
 10
-136.889
 20
-12.5277
 30
2.78992e-15
  70
    32
  0
VERTEX
  8
0
  5
4D14
 10
-136.887
 20
-12.5203
 30
2.78846e-15
  70
    32
  0
VERTEX
  8
0
  5
4D15
 10
-136.884
 20
-12.5130
 30
2.78699e-15
  70
    32
  0
VERTEX
  8
0
  5
4D16
 10
-136.882
 20
-12.5056
 30
2.78551e-15
  70
    32
  0
VERTEX
  8
0
  5
4D17
 10
-136.879
 20
-12.4982
 30
2.78403e-15
  70
    32
  0
VERTEX
  8
0
  5
4D18
 10
-136.877
 20
-12.4908
 30
2.78254e-15
  70
    32
  0
VERTEX
  8
0
  5
4D19
 10
-136.874
 20
-12.4833
 30
2.78105e-15
  70
    32
  0
VERTEX
  8
0
  5
4D1A
 10
-136.872
 20
-12.4758
 30
2.77955e-15
  70
    32
  0
VERTEX
  8
0
  5
4D1B
 10
-136.870
 20
-12.4683
 30
2.77805e-15
  70
    32
  0
VERTEX
  8
0
  5
4D1C
 10
-136.867
 20
-12.4607
 30
2.77654e-15
  70
    32
  0
VERTEX
  8
0
  5
4D1D
 10
-136.865
 20
-12.4532
 30
2.77502e-15
  70
    32
  0
VERTEX
  8
0
  5
4D1E
 10
-136.863
 20
-12.4456
 30
2.77350e-15
  70
    32
  0
VERTEX
  8
0
  5
4D1F
 10
-136.861
 20
-12.4380
 30
2.77198e-15
  70
    32
  0
VERTEX
  8
0
  5
4D20
 10
-136.859
 20
-12.4303
 30
2.77045e-15
  70
    32
  0
VERTEX
  8
0
  5
4D21
 10
-136.857
 20
-12.4226
 30
2.76892e-15
  70
    32
  0
VERTEX
  8
0
  5
4D22
 10
-136.855
 20
-12.4149
 30
2.76738e-15
  70
    32
  0
VERTEX
  8
0
  5
4D23
 10
-136.853
 20
-12.4072
 30
2.76584e-15
  70
    32
  0
VERTEX
  8
0
  5
4D24
 10
-136.851
 20
-12.3995
 30
2.76429e-15
  70
    32
  0
VERTEX
  8
0
  5
4D25
 10
-136.849
 20
-12.3917
 30
2.76274e-15
  70
    32
  0
VERTEX
  8
0
  5
4D26
 10
-136.848
 20
-12.3840
 30
2.76118e-15
  70
    32
  0
VERTEX
  8
0
  5
4D27
 10
-136.846
 20
-12.3762
 30
2.75962e-15
  70
    32
  0
VERTEX
  8
0
  5
4D28
 10
-136.844
 20
-12.3683
 30
2.75806e-15
  70
    32
  0
VERTEX
  8
0
  5
4D29
 10
-136.842
 20
-12.3605
 30
2.75649e-15
  70
    32
  0
VERTEX
  8
0
  5
4D2A
 10
-136.841
 20
-12.3526
 30
2.75492e-15
  70
    32
  0
VERTEX
  8
0
  5
4D2B
 10
-136.839
 20
-12.3448
 30
2.75334e-15
  70
    32
  0
VERTEX
  8
0
  5
4D2C
 10
-136.838
 20
-12.3369
 30
2.75176e-15
  70
    32
  0
VERTEX
  8
0
  5
4D2D
 10
-136.836
 20
-12.3290
 30
2.75018e-15
  70
    32
  0
VERTEX
  8
0
  5
4D2E
 10
-136.835
 20
-12.3210
 30
2.74860e-15
  70
    32
  0
VERTEX
  8
0
  5
4D2F
 10
-136.833
 20
-12.3131
 30
2.74701e-15
  70
    32
  0
VERTEX
  8
0
  5
4D30
 10
-136.832
 20
-12.3051
 30
2.74542e-15
  70
    32
  0
VERTEX
  8
0
  5
4D31
 10
-136.831
 20
-12.2972
 30
2.74382e-15
  70
    32
  0
VERTEX
  8
0
  5
4D32
 10
-136.830
 20
-12.2892
 30
2.74222e-15
  70
    32
  0
VERTEX
  8
0
  5
4D33
 10
-136.828
 20
-12.2812
 30
2.74062e-15
  70
    32
  0
VERTEX
  8
0
  5
4D34
 10
-136.827
 20
-12.2731
 30
2.73902e-15
  70
    32
  0
VERTEX
  8
0
  5
4D35
 10
-136.826
 20
-12.2651
 30
2.73741e-15
  70
    32
  0
VERTEX
  8
0
  5
4D36
 10
-136.825
 20
-12.2571
 30
2.73580e-15
  70
    32
  0
VERTEX
  8
0
  5
4D37
 10
-136.824
 20
-12.2490
 30
2.73419e-15
  70
    32
  0
VERTEX
  8
0
  5
4D38
 10
-136.823
 20
-12.2410
 30
2.73258e-15
  70
    32
  0
VERTEX
  8
0
  5
4D39
 10
-136.822
 20
-12.2329
 30
2.73096e-15
  70
    32
  0
VERTEX
  8
0
  5
4D3A
 10
-136.821
 20
-12.2248
 30
2.72935e-15
  70
    32
  0
VERTEX
  8
0
  5
4D3B
 10
-136.820
 20
-12.2167
 30
2.72773e-15
  70
    32
  0
VERTEX
  8
0
  5
4D3C
 10
-136.820
 20
-12.2086
 30
2.72611e-15
  70
    32
  0
VERTEX
  8
0
  5
4D3D
 10
-136.819
 20
-12.2005
 30
2.72448e-15
  70
    32
  0
VERTEX
  8
0
  5
4D3E
 10
-136.818
 20
-12.1923
 30
2.72286e-15
  70
    32
  0
VERTEX
  8
0
  5
4D3F
 10
-136.818
 20
-12.1842
 30
2.72123e-15
  70
    32
  0
VERTEX
  8
0
  5
4D40
 10
-136.817
 20
-12.1761
 30
2.71960e-15
  70
    32
  0
VERTEX
  8
0
  5
4D41
 10
-136.817
 20
-12.1679
 30
2.71797e-15
  70
    32
  0
VERTEX
  8
0
  5
4D42
 10
-136.816
 20
-12.1598
 30
2.71634e-15
  70
    32
  0
VERTEX
  8
0
  5
4D43
 10
-136.816
 20
-12.1516
 30
2.71471e-15
  70
    32
  0
VERTEX
  8
0
  5
4D44
 10
-136.815
 20
-12.1435
 30
2.71308e-15
  70
    32
  0
VERTEX
  8
0
  5
4D45
 10
-136.815
 20
-12.1353
 30
2.71145e-15
  70
    32
  0
VERTEX
  8
0
  5
4D46
 10
-136.815
 20
-12.1271
 30
2.70981e-15
  70
    32
  0
VERTEX
  8
0
  5
4D47
 10
-136.814
 20
-12.1190
 30
2.70818e-15
  70
    32
  0
VERTEX
  8
0
  5
4D48
 10
-136.814
 20
-12.1108
 30
2.70654e-15
  70
    32
  0
VERTEX
  8
0
  5
4D49
 10
-136.814
 20
-12.1026
 30
2.70491e-15
  70
    32
  0
VERTEX
  8
0
  5
4D4A
 10
-136.814
 20
-12.0944
 30
2.70327e-15
  70
    32
  0
VERTEX
  8
0
  5
4D4B
 10
-136.814
 20
-12.0862
 30
2.70164e-15
  70
    32
  0
VERTEX
  8
0
  5
4D4C
 10
-136.814
 20
-12.0781
 30
2.70000e-15
  70
    32
  0
VERTEX
  8
0
  5
4D4D
 10
-136.814
 20
-12.0699
 30
2.69836e-15
  70
    32
  0
VERTEX
  8
0
  5
4D4E
 10
-136.814
 20
-12.0617
 30
2.69673e-15
  70
    32
  0
VERTEX
  8
0
  5
4D4F
 10
-136.814
 20
-12.0535
 30
2.69509e-15
  70
    32
  0
VERTEX
  8
0
  5
4D50
 10
-136.814
 20
-12.0453
 30
2.69346e-15
  70
    32
  0
VERTEX
  8
0
  5
4D51
 10
-136.814
 20
-12.0372
 30
2.69182e-15
  70
    32
  0
VERTEX
  8
0
  5
4D52
 10
-136.815
 20
-12.0290
 30
2.69019e-15
  70
    32
  0
VERTEX
  8
0
  5
4D53
 10
-136.815
 20
-12.0208
 30
2.68855e-15
  70
    32
  0
VERTEX
  8
0
  5
4D54
 10
-136.815
 20
-12.0127
 30
2.68692e-15
  70
    32
  0
VERTEX
  8
0
  5
4D55
 10
-136.816
 20
-12.0045
 30
2.68529e-15
  70
    32
  0
VERTEX
  8
0
  5
4D56
 10
-136.816
 20
-11.9963
 30
2.68366e-15
  70
    32
  0
VERTEX
  8
0
  5
4D57
 10
-136.817
 20
-11.9882
 30
2.68203e-15
  70
    32
  0
VERTEX
  8
0
  5
4D58
 10
-136.817
 20
-11.9800
 30
2.68040e-15
  70
    32
  0
VERTEX
  8
0
  5
4D59
 10
-136.818
 20
-11.9719
 30
2.67877e-15
  70
    32
  0
VERTEX
  8
0
  5
4D5A
 10
-136.818
 20
-11.9638
 30
2.67714e-15
  70
    32
  0
VERTEX
  8
0
  5
4D5B
 10
-136.819
 20
-11.9556
 30
2.67552e-15
  70
    32
  0
VERTEX
  8
0
  5
4D5C
 10
-136.820
 20
-11.9475
 30
2.67389e-15
  70
    32
  0
VERTEX
  8
0
  5
4D5D
 10
-136.820
 20
-11.9394
 30
2.67227e-15
  70
    32
  0
VERTEX
  8
0
  5
4D5E
 10
-136.821
 20
-11.9313
 30
2.67065e-15
  70
    32
  0
VERTEX
  8
0
  5
4D5F
 10
-136.822
 20
-11.9232
 30
2.66904e-15
  70
    32
  0
VERTEX
  8
0
  5
4D60
 10
-136.823
 20
-11.9152
 30
2.66742e-15
  70
    32
  0
VERTEX
  8
0
  5
4D61
 10
-136.824
 20
-11.9071
 30
2.66581e-15
  70
    32
  0
VERTEX
  8
0
  5
4D62
 10
-136.825
 20
-11.8990
 30
2.66420e-15
  70
    32
  0
VERTEX
  8
0
  5
4D63
 10
-136.826
 20
-11.8910
 30
2.66259e-15
  70
    32
  0
VERTEX
  8
0
  5
4D64
 10
-136.827
 20
-11.8830
 30
2.66098e-15
  70
    32
  0
VERTEX
  8
0
  5
4D65
 10
-136.828
 20
-11.8749
 30
2.65938e-15
  70
    32
  0
VERTEX
  8
0
  5
4D66
 10
-136.830
 20
-11.8669
 30
2.65778e-15
  70
    32
  0
VERTEX
  8
0
  5
4D67
 10
-136.831
 20
-11.8590
 30
2.65618e-15
  70
    32
  0
VERTEX
  8
0
  5
4D68
 10
-136.832
 20
-11.8510
 30
2.65458e-15
  70
    32
  0
VERTEX
  8
0
  5
4D69
 10
-136.833
 20
-11.8430
 30
2.65299e-15
  70
    32
  0
VERTEX
  8
0
  5
4D6A
 10
-136.835
 20
-11.8351
 30
2.65140e-15
  70
    32
  0
VERTEX
  8
0
  5
4D6B
 10
-136.836
 20
-11.8271
 30
2.64982e-15
  70
    32
  0
VERTEX
  8
0
  5
4D6C
 10
-136.838
 20
-11.8192
 30
2.64824e-15
  70
    32
  0
VERTEX
  8
0
  5
4D6D
 10
-136.839
 20
-11.8113
 30
2.64666e-15
  70
    32
  0
VERTEX
  8
0
  5
4D6E
 10
-136.841
 20
-11.8035
 30
2.64508e-15
  70
    32
  0
VERTEX
  8
0
  5
4D6F
 10
-136.842
 20
-11.7956
 30
2.64351e-15
  70
    32
  0
VERTEX
  8
0
  5
4D70
 10
-136.844
 20
-11.7878
 30
2.64194e-15
  70
    32
  0
VERTEX
  8
0
  5
4D71
 10
-136.846
 20
-11.7800
 30
2.64038e-15
  70
    32
  0
VERTEX
  8
0
  5
4D72
 10
-136.848
 20
-11.7722
 30
2.63882e-15
  70
    32
  0
VERTEX
  8
0
  5
4D73
 10
-136.849
 20
-11.7644
 30
2.63726e-15
  70
    32
  0
VERTEX
  8
0
  5
4D74
 10
-136.851
 20
-11.7566
 30
2.63571e-15
  70
    32
  0
VERTEX
  8
0
  5
4D75
 10
-136.853
 20
-11.7489
 30
2.63416e-15
  70
    32
  0
VERTEX
  8
0
  5
4D76
 10
-136.855
 20
-11.7412
 30
2.63262e-15
  70
    32
  0
VERTEX
  8
0
  5
4D77
 10
-136.857
 20
-11.7335
 30
2.63108e-15
  70
    32
  0
VERTEX
  8
0
  5
4D78
 10
-136.859
 20
-11.7258
 30
2.62955e-15
  70
    32
  0
VERTEX
  8
0
  5
4D79
 10
-136.861
 20
-11.7182
 30
2.62802e-15
  70
    32
  0
VERTEX
  8
0
  5
4D7A
 10
-136.863
 20
-11.7105
 30
2.62650e-15
  70
    32
  0
VERTEX
  8
0
  5
4D7B
 10
-136.865
 20
-11.7029
 30
2.62498e-15
  70
    32
  0
VERTEX
  8
0
  5
4D7C
 10
-136.867
 20
-11.6954
 30
2.62346e-15
  70
    32
  0
VERTEX
  8
0
  5
4D7D
 10
-136.870
 20
-11.6878
 30
2.62195e-15
  70
    32
  0
VERTEX
  8
0
  5
4D7E
 10
-136.872
 20
-11.6803
 30
2.62045e-15
  70
    32
  0
VERTEX
  8
0
  5
4D7F
 10
-136.874
 20
-11.6728
 30
2.61895e-15
  70
    32
  0
VERTEX
  8
0
  5
4D80
 10
-136.877
 20
-11.6653
 30
2.61746e-15
  70
    32
  0
VERTEX
  8
0
  5
4D81
 10
-136.879
 20
-11.6579
 30
2.61597e-15
  70
    32
  0
VERTEX
  8
0
  5
4D82
 10
-136.882
 20
-11.6505
 30
2.61449e-15
  70
    32
  0
VERTEX
  8
0
  5
4D83
 10
-136.884
 20
-11.6431
 30
2.61301e-15
  70
    32
  0
VERTEX
  8
0
  5
4D84
 10
-136.887
 20
-11.6358
 30
2.61154e-15
  70
    32
  0
VERTEX
  8
0
  5
4D85
 10
-136.889
 20
-11.6284
 30
2.61008e-15
  70
    32
  0
VERTEX
  8
0
  5
4D86
 10
-136.892
 20
-11.6212
 30
2.60862e-15
  70
    32
  0
VERTEX
  8
0
  5
4D87
 10
-136.894
 20
-11.6139
 30
2.60717e-15
  70
    32
  0
VERTEX
  8
0
  5
4D88
 10
-136.897
 20
-11.6067
 30
2.60572e-15
  70
    32
  0
VERTEX
  8
0
  5
4D89
 10
-136.900
 20
-11.5995
 30
2.60428e-15
  70
    32
  0
VERTEX
  8
0
  5
4D8A
 10
-136.903
 20
-11.5923
 30
2.60285e-15
  70
    32
  0
VERTEX
  8
0
  5
4D8B
 10
-136.906
 20
-11.5852
 30
2.60142e-15
  70
    32
  0
VERTEX
  8
0
  5
4D8C
 10
-136.908
 20
-11.5781
 30
2.60000e-15
  70
    32
  0
SEQEND
  8
0
  5
4D8D
  0
POLYLINE
  5
49F8
  8
0
 10
-147.5149881388939264
 20
-11.5780565413618959
 30
0.0000000000000026
 66
     1
 70
     8
  0
VERTEX
  8
0
  5
4D8E
 10
-147.515
 20
-11.5781
 30
2.60000e-15
  70
    32
  0
VERTEX
  8
0
  5
4D8F
 10
-147.512
 20
-11.5852
 30
2.60142e-15
  70
    32
  0
VERTEX
  8
0
  5
4D90
 10
-147.509
 20
-11.5923
 30
2.60285e-15
  70
    32
  0
VERTEX
  8
0
  5
4D91
 10
-147.506
 20
-11.5995
 30
2.60428e-15
  70
    32
  0
VERTEX
  8
0
  5
4D92
 10
-147.504
 20
-11.6067
 30
2.60572e-15
  70
    32
  0
VERTEX
  8
0
  5
4D93
 10
-147.501
 20
-11.6139
 30
2.60717e-15
  70
    32
  0
VERTEX
  8
0
  5
4D94
 10
-147.498
 20
-11.6212
 30
2.60862e-15
  70
    32
  0
VERTEX
  8
0
  5
4D95
 10
-147.496
 20
-11.6284
 30
2.61008e-15
  70
    32
  0
VERTEX
  8
0
  5
4D96
 10
-147.493
 20
-11.6358
 30
2.61154e-15
  70
    32
  0
VERTEX
  8
0
  5
4D97
 10
-147.491
 20
-11.6431
 30
2.61301e-15
  70
    32
  0
VERTEX
  8
0
  5
4D98
 10
-147.488
 20
-11.6505
 30
2.61449e-15
  70
    32
  0
VERTEX
  8
0
  5
4D99
 10
-147.486
 20
-11.6579
 30
2.61597e-15
  70
    32
  0
VERTEX
  8
0
  5
4D9A
 10
-147.483
 20
-11.6653
 30
2.61746e-15
  70
    32
  0
VERTEX
  8
0
  5
4D9B
 10
-147.481
 20
-11.6728
 30
2.61895e-15
  70
    32
  0
VERTEX
  8
0
  5
4D9C
 10
-147.479
 20
-11.6803
 30
2.62045e-15
  70
    32
  0
VERTEX
  8
0
  5
4D9D
 10
-147.476
 20
-11.6878
 30
2.62195e-15
  70
    32
  0
VERTEX
  8
0
  5
4D9E
 10
-147.474
 20
-11.6954
 30
2.62346e-15
  70
    32
  0
VERTEX
  8
0
  5
4D9F
 10
-147.472
 20
-11.7029
 30
2.62498e-15
  70
    32
  0
VERTEX
  8
0
  5
4DA0
 10
-147.470
 20
-11.7105
 30
2.62650e-15
  70
    32
  0
VERTEX
  8
0
  5
4DA1
 10
-147.468
 20
-11.7182
 30
2.62802e-15
  70
    32
  0
VERTEX
  8
0
  5
4DA2
 10
-147.466
 20
-11.7258
 30
2.62955e-15
  70
    32
  0
VERTEX
  8
0
  5
4DA3
 10
-147.464
 20
-11.7335
 30
2.63108e-15
  70
    32
  0
VERTEX
  8
0
  5
4DA4
 10
-147.462
 20
-11.7412
 30
2.63262e-15
  70
    32
  0
VERTEX
  8
0
  5
4DA5
 10
-147.460
 20
-11.7489
 30
2.63416e-15
  70
    32
  0
VERTEX
  8
0
  5
4DA6
 10
-147.458
 20
-11.7566
 30
2.63571e-15
  70
    32
  0
VERTEX
  8
0
  5
4DA7
 10
-147.456
 20
-11.7644
 30
2.63726e-15
  70
    32
  0
VERTEX
  8
0
  5
4DA8
 10
-147.454
 20
-11.7722
 30
2.63882e-15
  70
    32
  0
VERTEX
  8
0
  5
4DA9
 10
-147.452
 20
-11.7800
 30
2.64038e-15
  70
    32
  0
VERTEX
  8
0
  5
4DAA
 10
-147.451
 20
-11.7878
 30
2.64194e-15
  70
    32
  0
VERTEX
  8
0
  5
4DAB
 10
-147.449
 20
-11.7956
 30
2.64351e-15
  70
    32
  0
VERTEX
  8
0
  5
4DAC
 10
-147.447
 20
-11.8035
 30
2.64508e-15
  70
    32
  0
VERTEX
  8
0
  5
4DAD
 10
-147.446
 20
-11.8113
 30
2.64666e-15
  70
    32
  0
VERTEX
  8
0
  5
4DAE
 10
-147.444
 20
-11.8192
 30
2.64824e-15
  70
    32
  0
VERTEX
  8
0
  5
4DAF
 10
-147.443
 20
-11.8271
 30
2.64982e-15
  70
    32
  0
VERTEX
  8
0
  5
4DB0
 10
-147.441
 20
-11.8351
 30
2.65140e-15
  70
    32
  0
VERTEX
  8
0
  5
4DB1
 10
-147.440
 20
-11.8430
 30
2.65299e-15
  70
    32
  0
VERTEX
  8
0
  5
4DB2
 10
-147.439
 20
-11.8510
 30
2.65458e-15
  70
    32
  0
VERTEX
  8
0
  5
4DB3
 10
-147.437
 20
-11.8590
 30
2.65618e-15
  70
    32
  0
VERTEX
  8
0
  5
4DB4
 10
-147.436
 20
-11.8669
 30
2.65778e-15
  70
    32
  0
VERTEX
  8
0
  5
4DB5
 10
-147.435
 20
-11.8749
 30
2.65938e-15
  70
    32
  0
VERTEX
  8
0
  5
4DB6
 10
-147.434
 20
-11.8830
 30
2.66098e-15
  70
    32
  0
VERTEX
  8
0
  5
4DB7
 10
-147.433
 20
-11.8910
 30
2.66259e-15
  70
    32
  0
VERTEX
  8
0
  5
4DB8
 10
-147.432
 20
-11.8990
 30
2.66420e-15
  70
    32
  0
VERTEX
  8
0
  5
4DB9
 10
-147.431
 20
-11.9071
 30
2.66581e-15
  70
    32
  0
VERTEX
  8
0
  5
4DBA
 10
-147.430
 20
-11.9152
 30
2.66742e-15
  70
    32
  0
VERTEX
  8
0
  5
4DBB
 10
-147.429
 20
-11.9232
 30
2.66904e-15
  70
    32
  0
VERTEX
  8
0
  5
4DBC
 10
-147.428
 20
-11.9313
 30
2.67065e-15
  70
    32
  0
VERTEX
  8
0
  5
4DBD
 10
-147.427
 20
-11.9394
 30
2.67227e-15
  70
    32
  0
VERTEX
  8
0
  5
4DBE
 10
-147.426
 20
-11.9475
 30
2.67389e-15
  70
    32
  0
VERTEX
  8
0
  5
4DBF
 10
-147.426
 20
-11.9556
 30
2.67552e-15
  70
    32
  0
VERTEX
  8
0
  5
4DC0
 10
-147.425
 20
-11.9638
 30
2.67714e-15
  70
    32
  0
VERTEX
  8
0
  5
4DC1
 10
-147.424
 20
-11.9719
 30
2.67877e-15
  70
    32
  0
VERTEX
  8
0
  5
4DC2
 10
-147.424
 20
-11.9800
 30
2.68040e-15
  70
    32
  0
VERTEX
  8
0
  5
4DC3
 10
-147.423
 20
-11.9882
 30
2.68203e-15
  70
    32
  0
VERTEX
  8
0
  5
4DC4
 10
-147.423
 20
-11.9963
 30
2.68366e-15
  70
    32
  0
VERTEX
  8
0
  5
4DC5
 10
-147.422
 20
-12.0045
 30
2.68529e-15
  70
    32
  0
VERTEX
  8
0
  5
4DC6
 10
-147.422
 20
-12.0127
 30
2.68692e-15
  70
    32
  0
VERTEX
  8
0
  5
4DC7
 10
-147.421
 20
-12.0208
 30
2.68855e-15
  70
    32
  0
VERTEX
  8
0
  5
4DC8
 10
-147.421
 20
-12.0290
 30
2.69019e-15
  70
    32
  0
VERTEX
  8
0
  5
4DC9
 10
-147.421
 20
-12.0372
 30
2.69182e-15
  70
    32
  0
VERTEX
  8
0
  5
4DCA
 10
-147.421
 20
-12.0453
 30
2.69346e-15
  70
    32
  0
VERTEX
  8
0
  5
4DCB
 10
-147.420
 20
-12.0535
 30
2.69509e-15
  70
    32
  0
VERTEX
  8
0
  5
4DCC
 10
-147.420
 20
-12.0617
 30
2.69673e-15
  70
    32
  0
VERTEX
  8
0
  5
4DCD
 10
-147.420
 20
-12.0699
 30
2.69836e-15
  70
    32
  0
VERTEX
  8
0
  5
4DCE
 10
-147.420
 20
-12.0781
 30
2.70000e-15
  70
    32
  0
VERTEX
  8
0
  5
4DCF
 10
-147.420
 20
-12.0862
 30
2.70164e-15
  70
    32
  0
VERTEX
  8
0
  5
4DD0
 10
-147.420
 20
-12.0944
 30
2.70327e-15
  70
    32
  0
VERTEX
  8
0
  5
4DD1
 10
-147.420
 20
-12.1026
 30
2.70491e-15
  70
    32
  0
VERTEX
  8
0
  5
4DD2
 10
-147.421
 20
-12.1108
 30
2.70654e-15
  70
    32
  0
VERTEX
  8
0
  5
4DD3
 10
-147.421
 20
-12.1190
 30
2.70818e-15
  70
    32
  0
VERTEX
  8
0
  5
4DD4
 10
-147.421
 20
-12.1271
 30
2.70981e-15
  70
    32
  0
VERTEX
  8
0
  5
4DD5
 10
-147.421
 20
-12.1353
 30
2.71145e-15
  70
    32
  0
VERTEX
  8
0
  5
4DD6
 10
-147.422
 20
-12.1435
 30
2.71308e-15
  70
    32
  0
VERTEX
  8
0
  5
4DD7
 10
-147.422
 20
-12.1516
 30
2.71471e-15
  70
    32
  0
VERTEX
  8
0
  5
4DD8
 10
-147.423
 20
-12.1598
 30
2.71634e-15
  70
    32
  0
VERTEX
  8
0
  5
4DD9
 10
-147.423
 20
-12.1679
 30
2.71797e-15
  70
    32
  0
VERTEX
  8
0
  5
4DDA
 10
-147.424
 20
-12.1761
 30
2.71960e-15
  70
    32
  0
VERTEX
  8
0
  5
4DDB
 10
-147.424
 20
-12.1842
 30
2.72123e-15
  70
    32
  0
VERTEX
  8
0
  5
4DDC
 10
-147.425
 20
-12.1923
 30
2.72286e-15
  70
    32
  0
VERTEX
  8
0
  5
4DDD
 10
-147.426
 20
-12.2005
 30
2.72448e-15
  70
    32
  0
VERTEX
  8
0
  5
4DDE
 10
-147.426
 20
-12.2086
 30
2.72611e-15
  70
    32
  0
VERTEX
  8
0
  5
4DDF
 10
-147.427
 20
-12.2167
 30
2.72773e-15
  70
    32
  0
VERTEX
  8
0
  5
4DE0
 10
-147.428
 20
-12.2248
 30
2.72935e-15
  70
    32
  0
VERTEX
  8
0
  5
4DE1
 10
-147.429
 20
-12.2329
 30
2.73096e-15
  70
    32
  0
VERTEX
  8
0
  5
4DE2
 10
-147.430
 20
-12.2410
 30
2.73258e-15
  70
    32
  0
VERTEX
  8
0
  5
4DE3
 10
-147.431
 20
-12.2490
 30
2.73419e-15
  70
    32
  0
VERTEX
  8
0
  5
4DE4
 10
-147.432
 20
-12.2571
 30
2.73580e-15
  70
    32
  0
VERTEX
  8
0
  5
4DE5
 10
-147.433
 20
-12.2651
 30
2.73741e-15
  70
    32
  0
VERTEX
  8
0
  5
4DE6
 10
-147.434
 20
-12.2731
 30
2.73902e-15
  70
    32
  0
VERTEX
  8
0
  5
4DE7
 10
-147.435
 20
-12.2812
 30
2.74062e-15
  70
    32
  0
VERTEX
  8
0
  5
4DE8
 10
-147.436
 20
-12.2892
 30
2.74222e-15
  70
    32
  0
VERTEX
  8
0
  5
4DE9
 10
-147.437
 20
-12.2972
 30
2.74382e-15
  70
    32
  0
VERTEX
  8
0
  5
4DEA
 10
-147.439
 20
-12.3051
 30
2.74542e-15
  70
    32
  0
VERTEX
  8
0
  5
4DEB
 10
-147.440
 20
-12.3131
 30
2.74701e-15
  70
    32
  0
VERTEX
  8
0
  5
4DEC
 10
-147.441
 20
-12.3210
 30
2.74860e-15
  70
    32
  0
VERTEX
  8
0
  5
4DED
 10
-147.443
 20
-12.3290
 30
2.75018e-15
  70
    32
  0
VERTEX
  8
0
  5
4DEE
 10
-147.444
 20
-12.3369
 30
2.75176e-15
  70
    32
  0
VERTEX
  8
0
  5
4DEF
 10
-147.446
 20
-12.3448
 30
2.75334e-15
  70
    32
  0
VERTEX
  8
0
  5
4DF0
 10
-147.447
 20
-12.3526
 30
2.75492e-15
  70
    32
  0
VERTEX
  8
0
  5
4DF1
 10
-147.449
 20
-12.3605
 30
2.75649e-15
  70
    32
  0
VERTEX
  8
0
  5
4DF2
 10
-147.451
 20
-12.3683
 30
2.75806e-15
  70
    32
  0
VERTEX
  8
0
  5
4DF3
 10
-147.452
 20
-12.3762
 30
2.75962e-15
  70
    32
  0
VERTEX
  8
0
  5
4DF4
 10
-147.454
 20
-12.3840
 30
2.76118e-15
  70
    32
  0
VERTEX
  8
0
  5
4DF5
 10
-147.456
 20
-12.3917
 30
2.76274e-15
  70
    32
  0
VERTEX
  8
0
  5
4DF6
 10
-147.458
 20
-12.3995
 30
2.76429e-15
  70
    32
  0
VERTEX
  8
0
  5
4DF7
 10
-147.460
 20
-12.4072
 30
2.76584e-15
  70
    32
  0
VERTEX
  8
0
  5
4DF8
 10
-147.462
 20
-12.4149
 30
2.76738e-15
  70
    32
  0
VERTEX
  8
0
  5
4DF9
 10
-147.464
 20
-12.4226
 30
2.76892e-15
  70
    32
  0
VERTEX
  8
0
  5
4DFA
 10
-147.466
 20
-12.4303
 30
2.77045e-15
  70
    32
  0
VERTEX
  8
0
  5
4DFB
 10
-147.468
 20
-12.4380
 30
2.77198e-15
  70
    32
  0
VERTEX
  8
0
  5
4DFC
 10
-147.470
 20
-12.4456
 30
2.77350e-15
  70
    32
  0
VERTEX
  8
0
  5
4DFD
 10
-147.472
 20
-12.4532
 30
2.77502e-15
  70
    32
  0
VERTEX
  8
0
  5
4DFE
 10
-147.474
 20
-12.4607
 30
2.77654e-15
  70
    32
  0
VERTEX
  8
0
  5
4DFF
 10
-147.476
 20
-12.4683
 30
2.77805e-15
  70
    32
  0
VERTEX
  8
0
  5
4E00
 10
-147.479
 20
-12.4758
 30
2.77955e-15
  70
    32
  0
VERTEX
  8
0
  5
4E01
 10
-147.481
 20
-12.4833
 30
2.78105e-15
  70
    32
  0
VERTEX
  8
0
  5
4E02
 10
-147.483
 20
-12.4908
 30
2.78254e-15
  70
    32
  0
VERTEX
  8
0
  5
4E03
 10
-147.486
 20
-12.4982
 30
2.78403e-15
  70
    32
  0
VERTEX
  8
0
  5
4E04
 10
-147.488
 20
-12.5056
 30
2.78551e-15
  70
    32
  0
VERTEX
  8
0
  5
4E05
 10
-147.491
 20
-12.5130
 30
2.78699e-15
  70
    32
  0
VERTEX
  8
0
  5
4E06
 10
-147.493
 20
-12.5203
 30
2.78846e-15
  70
    32
  0
VERTEX
  8
0
  5
4E07
 10
-147.496
 20
-12.5277
 30
2.78992e-15
  70
    32
  0
VERTEX
  8
0
  5
4E08
 10
-147.498
 20
-12.5350
 30
2.79138e-15
  70
    32
  0
VERTEX
  8
0
  5
4E09
 10
-147.501
 20
-12.5422
 30
2.79283e-15
  70
    32
  0
VERTEX
  8
0
  5
4E0A
 10
-147.504
 20
-12.5495
 30
2.79428e-15
  70
    32
  0
VERTEX
  8
0
  5
4E0B
 10
-147.506
 20
-12.5567
 30
2.79572e-15
  70
    32
  0
VERTEX
  8
0
  5
4E0C
 10
-147.509
 20
-12.5638
 30
2.79715e-15
  70
    32
  0
VERTEX
  8
0
  5
4E0D
 10
-147.512
 20
-12.5710
 30
2.79858e-15
  70
    32
  0
VERTEX
  8
0
  5
4E0E
 10
-147.515
 20
-12.5781
 30
2.80000e-15
  70
    32
  0
SEQEND
  8
0
  5
4E0F
  0
LINE
  5
49F9
  8
0
 10
-250.775241535504307
 20
-11.5780565413619492
 30
0.0000000000000026
 11
-246.0835880423315132
 21
-0.0858994331422838
 31
0.0
210
-0.0000000000000002
220
1.0
230
-0.0000000000000002
  0
LINE
  5
49FA
  8
0
 10
-256.6901897601297264
 20
-0.085899433142288
 30
0.0
 11
-246.0835880423315132
 21
-0.0858994331422838
 31
0.0
210
-0.0000000000000002
220
1.0
230
-0.0000000000000002
  0
LINE
  5
49FB
  8
0
 10
-256.6901897601297264
 20
-0.085899433142288
 30
0.0
 11
-261.3818432533025202
 21
-11.5780565413619492
 31
0.0000000000000026
210
-0.0000000000000002
220
1.0
230
-0.0000000000000002
  0
LINE
  5
49FC
  8
0
 10
-246.0835880423315132
 20
-0.0858994331422856
 30
0.0
 11
-247.305691006494186
 21
0.91194345863818
 31
-0.0000000000000002
210
-0.0000000000000002
220
1.0
230
-0.0000000000000002
  0
LINE
  5
49FD
  8
0
 10
-257.9122927242923993
 20
0.9119434586381771
 30
-0.0000000000000002
 11
-256.6901897601297264
 21
-0.0858994331422884
 31
0.0
210
-0.0000000000000002
220
1.0
230
-0.0000000000000002
  0
LINE
  5
49FE
  8
0
 10
-262.6065881246939853
 20
-10.5780565413619794
 30
0.0000000000000023
 11
-257.9158152672642927
 21
0.9119434586380368
 31
-0.0000000000000002
210
-0.0000000000000002
220
1.0
230
-0.0000000000000002
  0
POLYLINE
  5
49FF
  8
0
 10
-262.606588124694099
 20
-13.5780565413620522
 30
0.0000000000000031
 66
     1
 70
     8
  0
VERTEX
  8
0
  5
4E10
 10
-262.607
 20
-13.5781
 30
3.05000e-15
  70
    32
  0
VERTEX
  8
0
  5
4E11
 10
-262.615
 20
-13.5568
 30
3.04503e-15
  70
    32
  0
VERTEX
  8
0
  5
4E12
 10
-262.624
 20
-13.5353
 30
3.04003e-15
  70
    32
  0
VERTEX
  8
0
  5
4E13
 10
-262.632
 20
-13.5138
 30
3.03502e-15
  70
    32
  0
VERTEX
  8
0
  5
4E14
 10
-262.640
 20
-13.4922
 30
3.02998e-15
  70
    32
  0
VERTEX
  8
0
  5
4E15
 10
-262.648
 20
-13.4706
 30
3.02492e-15
  70
    32
  0
VERTEX
  8
0
  5
4E16
 10
-262.656
 20
-13.4488
 30
3.01983e-15
  70
    32
  0
VERTEX
  8
0
  5
4E17
 10
-262.664
 20
-13.4269
 30
3.01473e-15
  70
    32
  0
VERTEX
  8
0
  5
4E18
 10
-262.672
 20
-13.4049
 30
3.00960e-15
  70
    32
  0
VERTEX
  8
0
  5
4E19
 10
-262.680
 20
-13.3829
 30
3.00446e-15
  70
    32
  0
VERTEX
  8
0
  5
4E1A
 10
-262.687
 20
-13.3607
 30
2.99929e-15
  70
    32
  0
VERTEX
  8
0
  5
4E1B
 10
-262.694
 20
-13.3385
 30
2.99410e-15
  70
    32
  0
VERTEX
  8
0
  5
4E1C
 10
-262.702
 20
-13.3162
 30
2.98889e-15
  70
    32
  0
VERTEX
  8
0
  5
4E1D
 10
-262.709
 20
-13.2938
 30
2.98367e-15
  70
    32
  0
VERTEX
  8
0
  5
4E1E
 10
-262.716
 20
-13.2713
 30
2.97842e-15
  70
    32
  0
VERTEX
  8
0
  5
4E1F
 10
-262.723
 20
-13.2487
 30
2.97316e-15
  70
    32
  0
VERTEX
  8
0
  5
4E20
 10
-262.729
 20
-13.2261
 30
2.96788e-15
  70
    32
  0
VERTEX
  8
0
  5
4E21
 10
-262.736
 20
-13.2034
 30
2.96258e-15
  70
    32
  0
VERTEX
  8
0
  5
4E22
 10
-262.742
 20
-13.1806
 30
2.95726e-15
  70
    32
  0
VERTEX
  8
0
  5
4E23
 10
-262.749
 20
-13.1577
 30
2.95193e-15
  70
    32
  0
VERTEX
  8
0
  5
4E24
 10
-262.755
 20
-13.1348
 30
2.94658e-15
  70
    32
  0
VERTEX
  8
0
  5
4E25
 10
-262.761
 20
-13.1118
 30
2.94121e-15
  70
    32
  0
VERTEX
  8
0
  5
4E26
 10
-262.767
 20
-13.0887
 30
2.93582e-15
  70
    32
  0
VERTEX
  8
0
  5
4E27
 10
-262.773
 20
-13.0656
 30
2.93042e-15
  70
    32
  0
VERTEX
  8
0
  5
4E28
 10
-262.778
 20
-13.0424
 30
2.92501e-15
  70
    32
  0
VERTEX
  8
0
  5
4E29
 10
-262.784
 20
-13.0191
 30
2.91958e-15
  70
    32
  0
VERTEX
  8
0
  5
4E2A
 10
-262.789
 20
-12.9958
 30
2.91413e-15
  70
    32
  0
VERTEX
  8
0
  5
4E2B
 10
-262.794
 20
-12.9724
 30
2.90867e-15
  70
    32
  0
VERTEX
  8
0
  5
4E2C
 10
-262.799
 20
-12.9489
 30
2.90320e-15
  70
    32
  0
VERTEX
  8
0
  5
4E2D
 10
-262.804
 20
-12.9254
 30
2.89771e-15
  70
    32
  0
VERTEX
  8
0
  5
4E2E
 10
-262.809
 20
-12.9018
 30
2.89221e-15
  70
    32
  0
VERTEX
  8
0
  5
4E2F
 10
-262.814
 20
-12.8782
 30
2.88670e-15
  70
    32
  0
VERTEX
  8
0
  5
4E30
 10
-262.819
 20
-12.8545
 30
2.88117e-15
  70
    32
  0
VERTEX
  8
0
  5
4E31
 10
-262.823
 20
-12.8308
 30
2.87564e-15
  70
    32
  0
VERTEX
  8
0
  5
4E32
 10
-262.827
 20
-12.8070
 30
2.87009e-15
  70
    32
  0
VERTEX
  8
0
  5
4E33
 10
-262.831
 20
-12.7832
 30
2.86453e-15
  70
    32
  0
VERTEX
  8
0
  5
4E34
 10
-262.835
 20
-12.7593
 30
2.85895e-15
  70
    32
  0
VERTEX
  8
0
  5
4E35
 10
-262.839
 20
-12.7354
 30
2.85337e-15
  70
    32
  0
VERTEX
  8
0
  5
4E36
 10
-262.843
 20
-12.7114
 30
2.84778e-15
  70
    32
  0
VERTEX
  8
0
  5
4E37
 10
-262.847
 20
-12.6874
 30
2.84218e-15
  70
    32
  0
VERTEX
  8
0
  5
4E38
 10
-262.850
 20
-12.6633
 30
2.83656e-15
  70
    32
  0
VERTEX
  8
0
  5
4E39
 10
-262.853
 20
-12.6392
 30
2.83094e-15
  70
    32
  0
VERTEX
  8
0
  5
4E3A
 10
-262.857
 20
-12.6151
 30
2.82531e-15
  70
    32
  0
VERTEX
  8
0
  5
4E3B
 10
-262.860
 20
-12.5909
 30
2.81967e-15
  70
    32
  0
VERTEX
  8
0
  5
4E3C
 10
-262.862
 20
-12.5667
 30
2.81403e-15
  70
    32
  0
VERTEX
  8
0
  5
4E3D
 10
-262.865
 20
-12.5425
 30
2.80837e-15
  70
    32
  0
VERTEX
  8
0
  5
4E3E
 10
-262.868
 20
-12.5182
 30
2.80271e-15
  70
    32
  0
VERTEX
  8
0
  5
4E3F
 10
-262.870
 20
-12.4940
 30
2.79704e-15
  70
    32
  0
VERTEX
  8
0
  5
4E40
 10
-262.873
 20
-12.4696
 30
2.79137e-15
  70
    32
  0
VERTEX
  8
0
  5
4E41
 10
-262.875
 20
-12.4453
 30
2.78569e-15
  70
    32
  0
VERTEX
  8
0
  5
4E42
 10
-262.877
 20
-12.4209
 30
2.78000e-15
  70
    32
  0
VERTEX
  8
0
  5
4E43
 10
-262.879
 20
-12.3965
 30
2.77431e-15
  70
    32
  0
VERTEX
  8
0
  5
4E44
 10
-262.881
 20
-12.3721
 30
2.76861e-15
  70
    32
  0
VERTEX
  8
0
  5
4E45
 10
-262.882
 20
-12.3477
 30
2.76291e-15
  70
    32
  0
VERTEX
  8
0
  5
4E46
 10
-262.884
 20
-12.3232
 30
2.75720e-15
  70
    32
  0
VERTEX
  8
0
  5
4E47
 10
-262.885
 20
-12.2988
 30
2.75150e-15
  70
    32
  0
VERTEX
  8
0
  5
4E48
 10
-262.886
 20
-12.2743
 30
2.74578e-15
  70
    32
  0
VERTEX
  8
0
  5
4E49
 10
-262.887
 20
-12.2498
 30
2.74007e-15
  70
    32
  0
VERTEX
  8
0
  5
4E4A
 10
-262.888
 20
-12.2253
 30
2.73435e-15
  70
    32
  0
VERTEX
  8
0
  5
4E4B
 10
-262.889
 20
-12.2007
 30
2.72863e-15
  70
    32
  0
VERTEX
  8
0
  5
4E4C
 10
-262.890
 20
-12.1762
 30
2.72290e-15
  70
    32
  0
VERTEX
  8
0
  5
4E4D
 10
-262.890
 20
-12.1517
 30
2.71718e-15
  70
    32
  0
VERTEX
  8
0
  5
4E4E
 10
-262.891
 20
-12.1271
 30
2.71145e-15
  70
    32
  0
VERTEX
  8
0
  5
4E4F
 10
-262.891
 20
-12.1026
 30
2.70573e-15
  70
    32
  0
VERTEX
  8
0
  5
4E50
 10
-262.891
 20
-12.0781
 30
2.70000e-15
  70
    32
  0
VERTEX
  8
0
  5
4E51
 10
-262.891
 20
-12.0535
 30
2.69427e-15
  70
    32
  0
VERTEX
  8
0
  5
4E52
 10
-262.891
 20
-12.0290
 30
2.68855e-15
  70
    32
  0
VERTEX
  8
0
  5
4E53
 10
-262.890
 20
-12.0044
 30
2.68282e-15
  70
    32
  0
VERTEX
  8
0
  5
4E54
 10
-262.890
 20
-11.9799
 30
2.67710e-15
  70
    32
  0
VERTEX
  8
0
  5
4E55
 10
-262.889
 20
-11.9554
 30
2.67137e-15
  70
    32
  0
VERTEX
  8
0
  5
4E56
 10
-262.888
 20
-11.9309
 30
2.66565e-15
  70
    32
  0
VERTEX
  8
0
  5
4E57
 10
-262.887
 20
-11.9063
 30
2.65993e-15
  70
    32
  0
VERTEX
  8
0
  5
4E58
 10
-262.886
 20
-11.8818
 30
2.65422e-15
  70
    32
  0
VERTEX
  8
0
  5
4E59
 10
-262.885
 20
-11.8574
 30
2.64850e-15
  70
    32
  0
VERTEX
  8
0
  5
4E5A
 10
-262.884
 20
-11.8329
 30
2.64280e-15
  70
    32
  0
VERTEX
  8
0
  5
4E5B
 10
-262.882
 20
-11.8084
 30
2.63709e-15
  70
    32
  0
VERTEX
  8
0
  5
4E5C
 10
-262.881
 20
-11.7840
 30
2.63139e-15
  70
    32
  0
VERTEX
  8
0
  5
4E5D
 10
-262.879
 20
-11.7596
 30
2.62569e-15
  70
    32
  0
VERTEX
  8
0
  5
4E5E
 10
-262.877
 20
-11.7352
 30
2.62000e-15
  70
    32
  0
VERTEX
  8
0
  5
4E5F
 10
-262.875
 20
-11.7108
 30
2.61431e-15
  70
    32
  0
VERTEX
  8
0
  5
4E60
 10
-262.873
 20
-11.6865
 30
2.60863e-15
  70
    32
  0
VERTEX
  8
0
  5
4E61
 10
-262.870
 20
-11.6622
 30
2.60296e-15
  70
    32
  0
VERTEX
  8
0
  5
4E62
 10
-262.868
 20
-11.6379
 30
2.59729e-15
  70
    32
  0
VERTEX
  8
0
  5
4E63
 10
-262.865
 20
-11.6136
 30
2.59163e-15
  70
    32
  0
VERTEX
  8
0
  5
4E64
 10
-262.862
 20
-11.5894
 30
2.58597e-15
  70
    32
  0
VERTEX
  8
0
  5
4E65
 10
-262.860
 20
-11.5652
 30
2.58033e-15
  70
    32
  0
VERTEX
  8
0
  5
4E66
 10
-262.857
 20
-11.5410
 30
2.57469e-15
  70
    32
  0
VERTEX
  8
0
  5
4E67
 10
-262.853
 20
-11.5169
 30
2.56906e-15
  70
    32
  0
VERTEX
  8
0
  5
4E68
 10
-262.850
 20
-11.4928
 30
2.56344e-15
  70
    32
  0
VERTEX
  8
0
  5
4E69
 10
-262.847
 20
-11.4687
 30
2.55782e-15
  70
    32
  0
VERTEX
  8
0
  5
4E6A
 10
-262.843
 20
-11.4447
 30
2.55222e-15
  70
    32
  0
VERTEX
  8
0
  5
4E6B
 10
-262.839
 20
-11.4208
 30
2.54663e-15
  70
    32
  0
VERTEX
  8
0
  5
4E6C
 10
-262.835
 20
-11.3968
 30
2.54105e-15
  70
    32
  0
VERTEX
  8
0
  5
4E6D
 10
-262.831
 20
-11.3729
 30
2.53547e-15
  70
    32
  0
VERTEX
  8
0
  5
4E6E
 10
-262.827
 20
-11.3491
 30
2.52991e-15
  70
    32
  0
VERTEX
  8
0
  5
4E6F
 10
-262.823
 20
-11.3253
 30
2.52436e-15
  70
    32
  0
VERTEX
  8
0
  5
4E70
 10
-262.819
 20
-11.3016
 30
2.51883e-15
  70
    32
  0
VERTEX
  8
0
  5
4E71
 10
-262.814
 20
-11.2779
 30
2.51330e-15
  70
    32
  0
VERTEX
  8
0
  5
4E72
 10
-262.809
 20
-11.2543
 30
2.50779e-15
  70
    32
  0
VERTEX
  8
0
  5
4E73
 10
-262.804
 20
-11.2307
 30
2.50229e-15
  70
    32
  0
VERTEX
  8
0
  5
4E74
 10
-262.799
 20
-11.2072
 30
2.49680e-15
  70
    32
  0
VERTEX
  8
0
  5
4E75
 10
-262.794
 20
-11.1837
 30
2.49133e-15
  70
    32
  0
VERTEX
  8
0
  5
4E76
 10
-262.789
 20
-11.1603
 30
2.48587e-15
  70
    32
  0
VERTEX
  8
0
  5
4E77
 10
-262.784
 20
-11.1370
 30
2.48042e-15
  70
    32
  0
VERTEX
  8
0
  5
4E78
 10
-262.778
 20
-11.1137
 30
2.47499e-15
  70
    32
  0
VERTEX
  8
0
  5
4E79
 10
-262.773
 20
-11.0905
 30
2.46958e-15
  70
    32
  0
VERTEX
  8
0
  5
4E7A
 10
-262.767
 20
-11.0674
 30
2.46418e-15
  70
    32
  0
VERTEX
  8
0
  5
4E7B
 10
-262.761
 20
-11.0443
 30
2.45879e-15
  70
    32
  0
VERTEX
  8
0
  5
4E7C
 10
-262.755
 20
-11.0213
 30
2.45342e-15
  70
    32
  0
VERTEX
  8
0
  5
4E7D
 10
-262.749
 20
-10.9984
 30
2.44807e-15
  70
    32
  0
VERTEX
  8
0
  5
4E7E
 10
-262.742
 20
-10.9755
 30
2.44274e-15
  70
    32
  0
VERTEX
  8
0
  5
4E7F
 10
-262.736
 20
-10.9527
 30
2.43742e-15
  70
    32
  0
VERTEX
  8
0
  5
4E80
 10
-262.729
 20
-10.9300
 30
2.43212e-15
  70
    32
  0
VERTEX
  8
0
  5
4E81
 10
-262.723
 20
-10.9074
 30
2.42684e-15
  70
    32
  0
VERTEX
  8
0
  5
4E82
 10
-262.716
 20
-10.8848
 30
2.42158e-15
  70
    32
  0
VERTEX
  8
0
  5
4E83
 10
-262.709
 20
-10.8623
 30
2.41633e-15
  70
    32
  0
VERTEX
  8
0
  5
4E84
 10
-262.702
 20
-10.8399
 30
2.41111e-15
  70
    32
  0
VERTEX
  8
0
  5
4E85
 10
-262.694
 20
-10.8176
 30
2.40590e-15
  70
    32
  0
VERTEX
  8
0
  5
4E86
 10
-262.687
 20
-10.7954
 30
2.40071e-15
  70
    32
  0
VERTEX
  8
0
  5
4E87
 10
-262.680
 20
-10.7732
 30
2.39554e-15
  70
    32
  0
VERTEX
  8
0
  5
4E88
 10
-262.672
 20
-10.7512
 30
2.39040e-15
  70
    32
  0
VERTEX
  8
0
  5
4E89
 10
-262.664
 20
-10.7292
 30
2.38527e-15
  70
    32
  0
VERTEX
  8
0
  5
4E8A
 10
-262.656
 20
-10.7073
 30
2.38017e-15
  70
    32
  0
VERTEX
  8
0
  5
4E8B
 10
-262.648
 20
-10.6856
 30
2.37508e-15
  70
    32
  0
VERTEX
  8
0
  5
4E8C
 10
-262.640
 20
-10.6639
 30
2.37002e-15
  70
    32
  0
VERTEX
  8
0
  5
4E8D
 10
-262.632
 20
-10.6423
 30
2.36498e-15
  70
    32
  0
VERTEX
  8
0
  5
4E8E
 10
-262.624
 20
-10.6208
 30
2.35997e-15
  70
    32
  0
VERTEX
  8
0
  5
4E8F
 10
-262.615
 20
-10.5994
 30
2.35497e-15
  70
    32
  0
VERTEX
  8
0
  5
4E90
 10
-262.607
 20
-10.5781
 30
2.35000e-15
  70
    32
  0
SEQEND
  8
0
  5
4E91
  0
LINE
  5
4A00
  8
0
 10
-259.6827015844878019
 20
-20.7400866306591993
 30
0.0000000000000046
 11
-249.0760998666895034
 21
-20.7400866306591993
 31
0.0000000000000046
210
-0.0000000000000002
220
1.0
230
-0.0000000000000002
  0
LINE
  5
4A01
  8
0
 10
-259.6827015844878019
 20
-20.7400866306591993
 30
0.0000000000000046
 11
-262.606588124694099
 21
-13.5780565413619794
 31
0.000000000000003
210
-0.0000000000000002
220
1.0
230
-0.0000000000000002
  0
LINE
  5
4A02
  8
0
 10
-249.0760998666895887
 20
-20.7400866306591993
 30
0.0000000000000046
 11
-247.8513549952978963
 21
-19.7400866306590785
 31
0.0000000000000044
210
-0.0000000000000002
220
1.0
230
-0.0000000000000002
  0
LINE
  5
4A03
  8
0
 10
-258.4579567130961095
 20
-19.7400866306590785
 30
0.0000000000000044
 11
-247.851354995297811
 21
-19.7400866306590785
 31
0.0000000000000044
210
-0.0000000000000002
220
1.0
230
-0.0000000000000002
  0
LINE
  5
4A04
  8
0
 10
-258.4579567130961095
 20
-19.7400866306590785
 30
0.0000000000000044
 11
-259.6827015844878019
 21
-20.7400866306591993
 31
0.0000000000000046
210
-0.0000000000000002
220
1.0
230
-0.0000000000000002
  0
LINE
  5
4A05
  8
0
 10
-247.851354995297811
 20
-19.7400866306590785
 30
0.0000000000000044
 11
-250.775241535504307
 21
-12.5780565413619403
 31
0.0000000000000028
210
-0.0000000000000002
220
1.0
230
-0.0000000000000002
  0
LINE
  5
4A06
  8
0
 10
-261.3818432533025202
 20
-12.5780565413619208
 30
0.0000000000000028
 11
-258.4579567130959958
 21
-19.7400866306590608
 31
0.0000000000000044
210
-0.0000000000000002
220
1.0
230
-0.0000000000000002
  0
POLYLINE
  5
4A07
  8
0
 10
-250.7752415355042785
 20
-12.5780565413619509
 30
0.0000000000000028
 66
     1
 70
     8
  0
VERTEX
  8
0
  5
4E92
 10
-250.775
 20
-12.5781
 30
2.80000e-15
  70
    32
  0
VERTEX
  8
0
  5
4E93
 10
-250.778
 20
-12.5710
 30
2.79858e-15
  70
    32
  0
VERTEX
  8
0
  5
4E94
 10
-250.781
 20
-12.5638
 30
2.79715e-15
  70
    32
  0
VERTEX
  8
0
  5
4E95
 10
-250.784
 20
-12.5567
 30
2.79572e-15
  70
    32
  0
VERTEX
  8
0
  5
4E96
 10
-250.786
 20
-12.5495
 30
2.79428e-15
  70
    32
  0
VERTEX
  8
0
  5
4E97
 10
-250.789
 20
-12.5422
 30
2.79283e-15
  70
    32
  0
VERTEX
  8
0
  5
4E98
 10
-250.792
 20
-12.5350
 30
2.79138e-15
  70
    32
  0
VERTEX
  8
0
  5
4E99
 10
-250.794
 20
-12.5277
 30
2.78992e-15
  70
    32
  0
VERTEX
  8
0
  5
4E9A
 10
-250.797
 20
-12.5203
 30
2.78846e-15
  70
    32
  0
VERTEX
  8
0
  5
4E9B
 10
-250.800
 20
-12.5130
 30
2.78699e-15
  70
    32
  0
VERTEX
  8
0
  5
4E9C
 10
-250.802
 20
-12.5056
 30
2.78551e-15
  70
    32
  0
VERTEX
  8
0
  5
4E9D
 10
-250.805
 20
-12.4982
 30
2.78403e-15
  70
    32
  0
VERTEX
  8
0
  5
4E9E
 10
-250.807
 20
-12.4908
 30
2.78254e-15
  70
    32
  0
VERTEX
  8
0
  5
4E9F
 10
-250.809
 20
-12.4833
 30
2.78105e-15
  70
    32
  0
VERTEX
  8
0
  5
4EA0
 10
-250.812
 20
-12.4758
 30
2.77955e-15
  70
    32
  0
VERTEX
  8
0
  5
4EA1
 10
-250.814
 20
-12.4683
 30
2.77805e-15
  70
    32
  0
VERTEX
  8
0
  5
4EA2
 10
-250.816
 20
-12.4607
 30
2.77654e-15
  70
    32
  0
VERTEX
  8
0
  5
4EA3
 10
-250.818
 20
-12.4532
 30
2.77502e-15
  70
    32
  0
VERTEX
  8
0
  5
4EA4
 10
-250.820
 20
-12.4456
 30
2.77350e-15
  70
    32
  0
VERTEX
  8
0
  5
4EA5
 10
-250.823
 20
-12.4380
 30
2.77198e-15
  70
    32
  0
VERTEX
  8
0
  5
4EA6
 10
-250.825
 20
-12.4303
 30
2.77045e-15
  70
    32
  0
VERTEX
  8
0
  5
4EA7
 10
-250.827
 20
-12.4226
 30
2.76892e-15
  70
    32
  0
VERTEX
  8
0
  5
4EA8
 10
-250.829
 20
-12.4149
 30
2.76738e-15
  70
    32
  0
VERTEX
  8
0
  5
4EA9
 10
-250.831
 20
-12.4072
 30
2.76584e-15
  70
    32
  0
VERTEX
  8
0
  5
4EAA
 10
-250.832
 20
-12.3995
 30
2.76429e-15
  70
    32
  0
VERTEX
  8
0
  5
4EAB
 10
-250.834
 20
-12.3917
 30
2.76274e-15
  70
    32
  0
VERTEX
  8
0
  5
4EAC
 10
-250.836
 20
-12.3840
 30
2.76118e-15
  70
    32
  0
VERTEX
  8
0
  5
4EAD
 10
-250.838
 20
-12.3762
 30
2.75962e-15
  70
    32
  0
VERTEX
  8
0
  5
4EAE
 10
-250.840
 20
-12.3683
 30
2.75806e-15
  70
    32
  0
VERTEX
  8
0
  5
4EAF
 10
-250.841
 20
-12.3605
 30
2.75649e-15
  70
    32
  0
VERTEX
  8
0
  5
4EB0
 10
-250.843
 20
-12.3526
 30
2.75492e-15
  70
    32
  0
VERTEX
  8
0
  5
4EB1
 10
-250.844
 20
-12.3448
 30
2.75334e-15
  70
    32
  0
VERTEX
  8
0
  5
4EB2
 10
-250.846
 20
-12.3369
 30
2.75176e-15
  70
    32
  0
VERTEX
  8
0
  5
4EB3
 10
-250.847
 20
-12.3290
 30
2.75018e-15
  70
    32
  0
VERTEX
  8
0
  5
4EB4
 10
-250.849
 20
-12.3210
 30
2.74860e-15
  70
    32
  0
VERTEX
  8
0
  5
4EB5
 10
-250.850
 20
-12.3131
 30
2.74701e-15
  70
    32
  0
VERTEX
  8
0
  5
4EB6
 10
-250.852
 20
-12.3051
 30
2.74542e-15
  70
    32
  0
VERTEX
  8
0
  5
4EB7
 10
-250.853
 20
-12.2972
 30
2.74382e-15
  70
    32
  0
VERTEX
  8
0
  5
4EB8
 10
-250.854
 20
-12.2892
 30
2.74222e-15
  70
    32
  0
VERTEX
  8
0
  5
4EB9
 10
-250.855
 20
-12.2812
 30
2.74062e-15
  70
    32
  0
VERTEX
  8
0
  5
4EBA
 10
-250.856
 20
-12.2731
 30
2.73902e-15
  70
    32
  0
VERTEX
  8
0
  5
4EBB
 10
-250.857
 20
-12.2651
 30
2.73741e-15
  70
    32
  0
VERTEX
  8
0
  5
4EBC
 10
-250.859
 20
-12.2571
 30
2.73580e-15
  70
    32
  0
VERTEX
  8
0
  5
4EBD
 10
-250.860
 20
-12.2490
 30
2.73419e-15
  70
    32
  0
VERTEX
  8
0
  5
4EBE
 10
-250.861
 20
-12.2410
 30
2.73258e-15
  70
    32
  0
VERTEX
  8
0
  5
4EBF
 10
-250.861
 20
-12.2329
 30
2.73096e-15
  70
    32
  0
VERTEX
  8
0
  5
4EC0
 10
-250.862
 20
-12.2248
 30
2.72935e-15
  70
    32
  0
VERTEX
  8
0
  5
4EC1
 10
-250.863
 20
-12.2167
 30
2.72773e-15
  70
    32
  0
VERTEX
  8
0
  5
4EC2
 10
-250.864
 20
-12.2086
 30
2.72611e-15
  70
    32
  0
VERTEX
  8
0
  5
4EC3
 10
-250.865
 20
-12.2005
 30
2.72448e-15
  70
    32
  0
VERTEX
  8
0
  5
4EC4
 10
-250.865
 20
-12.1923
 30
2.72286e-15
  70
    32
  0
VERTEX
  8
0
  5
4EC5
 10
-250.866
 20
-12.1842
 30
2.72123e-15
  70
    32
  0
VERTEX
  8
0
  5
4EC6
 10
-250.867
 20
-12.1761
 30
2.71960e-15
  70
    32
  0
VERTEX
  8
0
  5
4EC7
 10
-250.867
 20
-12.1679
 30
2.71797e-15
  70
    32
  0
VERTEX
  8
0
  5
4EC8
 10
-250.868
 20
-12.1598
 30
2.71634e-15
  70
    32
  0
VERTEX
  8
0
  5
4EC9
 10
-250.868
 20
-12.1516
 30
2.71471e-15
  70
    32
  0
VERTEX
  8
0
  5
4ECA
 10
-250.868
 20
-12.1435
 30
2.71308e-15
  70
    32
  0
VERTEX
  8
0
  5
4ECB
 10
-250.869
 20
-12.1353
 30
2.71145e-15
  70
    32
  0
VERTEX
  8
0
  5
4ECC
 10
-250.869
 20
-12.1271
 30
2.70981e-15
  70
    32
  0
VERTEX
  8
0
  5
4ECD
 10
-250.869
 20
-12.1190
 30
2.70818e-15
  70
    32
  0
VERTEX
  8
0
  5
4ECE
 10
-250.870
 20
-12.1108
 30
2.70654e-15
  70
    32
  0
VERTEX
  8
0
  5
4ECF
 10
-250.870
 20
-12.1026
 30
2.70491e-15
  70
    32
  0
VERTEX
  8
0
  5
4ED0
 10
-250.870
 20
-12.0944
 30
2.70327e-15
  70
    32
  0
VERTEX
  8
0
  5
4ED1
 10
-250.870
 20
-12.0862
 30
2.70164e-15
  70
    32
  0
VERTEX
  8
0
  5
4ED2
 10
-250.870
 20
-12.0781
 30
2.70000e-15
  70
    32
  0
VERTEX
  8
0
  5
4ED3
 10
-250.870
 20
-12.0699
 30
2.69836e-15
  70
    32
  0
VERTEX
  8
0
  5
4ED4
 10
-250.870
 20
-12.0617
 30
2.69673e-15
  70
    32
  0
VERTEX
  8
0
  5
4ED5
 10
-250.870
 20
-12.0535
 30
2.69509e-15
  70
    32
  0
VERTEX
  8
0
  5
4ED6
 10
-250.870
 20
-12.0453
 30
2.69346e-15
  70
    32
  0
VERTEX
  8
0
  5
4ED7
 10
-250.869
 20
-12.0372
 30
2.69182e-15
  70
    32
  0
VERTEX
  8
0
  5
4ED8
 10
-250.869
 20
-12.0290
 30
2.69019e-15
  70
    32
  0
VERTEX
  8
0
  5
4ED9
 10
-250.869
 20
-12.0208
 30
2.68855e-15
  70
    32
  0
VERTEX
  8
0
  5
4EDA
 10
-250.868
 20
-12.0127
 30
2.68692e-15
  70
    32
  0
VERTEX
  8
0
  5
4EDB
 10
-250.868
 20
-12.0045
 30
2.68529e-15
  70
    32
  0
VERTEX
  8
0
  5
4EDC
 10
-250.868
 20
-11.9963
 30
2.68366e-15
  70
    32
  0
VERTEX
  8
0
  5
4EDD
 10
-250.867
 20
-11.9882
 30
2.68203e-15
  70
    32
  0
VERTEX
  8
0
  5
4EDE
 10
-250.867
 20
-11.9800
 30
2.68040e-15
  70
    32
  0
VERTEX
  8
0
  5
4EDF
 10
-250.866
 20
-11.9719
 30
2.67877e-15
  70
    32
  0
VERTEX
  8
0
  5
4EE0
 10
-250.865
 20
-11.9638
 30
2.67714e-15
  70
    32
  0
VERTEX
  8
0
  5
4EE1
 10
-250.865
 20
-11.9556
 30
2.67552e-15
  70
    32
  0
VERTEX
  8
0
  5
4EE2
 10
-250.864
 20
-11.9475
 30
2.67389e-15
  70
    32
  0
VERTEX
  8
0
  5
4EE3
 10
-250.863
 20
-11.9394
 30
2.67227e-15
  70
    32
  0
VERTEX
  8
0
  5
4EE4
 10
-250.862
 20
-11.9313
 30
2.67065e-15
  70
    32
  0
VERTEX
  8
0
  5
4EE5
 10
-250.861
 20
-11.9232
 30
2.66904e-15
  70
    32
  0
VERTEX
  8
0
  5
4EE6
 10
-250.861
 20
-11.9152
 30
2.66742e-15
  70
    32
  0
VERTEX
  8
0
  5
4EE7
 10
-250.860
 20
-11.9071
 30
2.66581e-15
  70
    32
  0
VERTEX
  8
0
  5
4EE8
 10
-250.859
 20
-11.8990
 30
2.66420e-15
  70
    32
  0
VERTEX
  8
0
  5
4EE9
 10
-250.857
 20
-11.8910
 30
2.66259e-15
  70
    32
  0
VERTEX
  8
0
  5
4EEA
 10
-250.856
 20
-11.8830
 30
2.66098e-15
  70
    32
  0
VERTEX
  8
0
  5
4EEB
 10
-250.855
 20
-11.8749
 30
2.65938e-15
  70
    32
  0
VERTEX
  8
0
  5
4EEC
 10
-250.854
 20
-11.8669
 30
2.65778e-15
  70
    32
  0
VERTEX
  8
0
  5
4EED
 10
-250.853
 20
-11.8590
 30
2.65618e-15
  70
    32
  0
VERTEX
  8
0
  5
4EEE
 10
-250.852
 20
-11.8510
 30
2.65458e-15
  70
    32
  0
VERTEX
  8
0
  5
4EEF
 10
-250.850
 20
-11.8430
 30
2.65299e-15
  70
    32
  0
VERTEX
  8
0
  5
4EF0
 10
-250.849
 20
-11.8351
 30
2.65140e-15
  70
    32
  0
VERTEX
  8
0
  5
4EF1
 10
-250.847
 20
-11.8271
 30
2.64982e-15
  70
    32
  0
VERTEX
  8
0
  5
4EF2
 10
-250.846
 20
-11.8192
 30
2.64824e-15
  70
    32
  0
VERTEX
  8
0
  5
4EF3
 10
-250.844
 20
-11.8113
 30
2.64666e-15
  70
    32
  0
VERTEX
  8
0
  5
4EF4
 10
-250.843
 20
-11.8035
 30
2.64508e-15
  70
    32
  0
VERTEX
  8
0
  5
4EF5
 10
-250.841
 20
-11.7956
 30
2.64351e-15
  70
    32
  0
VERTEX
  8
0
  5
4EF6
 10
-250.840
 20
-11.7878
 30
2.64194e-15
  70
    32
  0
VERTEX
  8
0
  5
4EF7
 10
-250.838
 20
-11.7800
 30
2.64038e-15
  70
    32
  0
VERTEX
  8
0
  5
4EF8
 10
-250.836
 20
-11.7722
 30
2.63882e-15
  70
    32
  0
VERTEX
  8
0
  5
4EF9
 10
-250.834
 20
-11.7644
 30
2.63726e-15
  70
    32
  0
VERTEX
  8
0
  5
4EFA
 10
-250.832
 20
-11.7566
 30
2.63571e-15
  70
    32
  0
VERTEX
  8
0
  5
4EFB
 10
-250.831
 20
-11.7489
 30
2.63416e-15
  70
    32
  0
VERTEX
  8
0
  5
4EFC
 10
-250.829
 20
-11.7412
 30
2.63262e-15
  70
    32
  0
VERTEX
  8
0
  5
4EFD
 10
-250.827
 20
-11.7335
 30
2.63108e-15
  70
    32
  0
VERTEX
  8
0
  5
4EFE
 10
-250.825
 20
-11.7258
 30
2.62955e-15
  70
    32
  0
VERTEX
  8
0
  5
4EFF
 10
-250.823
 20
-11.7182
 30
2.62802e-15
  70
    32
  0
VERTEX
  8
0
  5
4F00
 10
-250.820
 20
-11.7105
 30
2.62650e-15
  70
    32
  0
VERTEX
  8
0
  5
4F01
 10
-250.818
 20
-11.7029
 30
2.62498e-15
  70
    32
  0
VERTEX
  8
0
  5
4F02
 10
-250.816
 20
-11.6954
 30
2.62346e-15
  70
    32
  0
VERTEX
  8
0
  5
4F03
 10
-250.814
 20
-11.6878
 30
2.62195e-15
  70
    32
  0
VERTEX
  8
0
  5
4F04
 10
-250.812
 20
-11.6803
 30
2.62045e-15
  70
    32
  0
VERTEX
  8
0
  5
4F05
 10
-250.809
 20
-11.6728
 30
2.61895e-15
  70
    32
  0
VERTEX
  8
0
  5
4F06
 10
-250.807
 20
-11.6653
 30
2.61746e-15
  70
    32
  0
VERTEX
  8
0
  5
4F07
 10
-250.805
 20
-11.6579
 30
2.61597e-15
  70
    32
  0
VERTEX
  8
0
  5
4F08
 10
-250.802
 20
-11.6505
 30
2.61449e-15
  70
    32
  0
VERTEX
  8
0
  5
4F09
 10
-250.800
 20
-11.6431
 30
2.61301e-15
  70
    32
  0
VERTEX
  8
0
  5
4F0A
 10
-250.797
 20
-11.6358
 30
2.61154e-15
  70
    32
  0
VERTEX
  8
0
  5
4F0B
 10
-250.794
 20
-11.6284
 30
2.61008e-15
  70
    32
  0
VERTEX
  8
0
  5
4F0C
 10
-250.792
 20
-11.6212
 30
2.60862e-15
  70
    32
  0
VERTEX
  8
0
  5
4F0D
 10
-250.789
 20
-11.6139
 30
2.60717e-15
  70
    32
  0
VERTEX
  8
0
  5
4F0E
 10
-250.786
 20
-11.6067
 30
2.60572e-15
  70
    32
  0
VERTEX
  8
0
  5
4F0F
 10
-250.784
 20
-11.5995
 30
2.60428e-15
  70
    32
  0
VERTEX
  8
0
  5
4F10
 10
-250.781
 20
-11.5923
 30
2.60285e-15
  70
    32
  0
VERTEX
  8
0
  5
4F11
 10
-250.778
 20
-11.5852
 30
2.60142e-15
  70
    32
  0
VERTEX
  8
0
  5
4F12
 10
-250.775
 20
-11.5781
 30
2.60000e-15
  70
    32
  0
SEQEND
  8
0
  5
4F13
  0
POLYLINE
  5
4A08
  8
0
 10
-261.3818432533025771
 20
-11.5780565413619332
 30
0.0000000000000026
 66
     1
 70
     8
  0
VERTEX
  8
0
  5
4F14
 10
-261.382
 20
-11.5781
 30
2.60000e-15
  70
    32
  0
VERTEX
  8
0
  5
4F15
 10
-261.385
 20
-11.5852
 30
2.60142e-15
  70
    32
  0
VERTEX
  8
0
  5
4F16
 10
-261.388
 20
-11.5923
 30
2.60285e-15
  70
    32
  0
VERTEX
  8
0
  5
4F17
 10
-261.390
 20
-11.5995
 30
2.60428e-15
  70
    32
  0
VERTEX
  8
0
  5
4F18
 10
-261.393
 20
-11.6067
 30
2.60572e-15
  70
    32
  0
VERTEX
  8
0
  5
4F19
 10
-261.396
 20
-11.6139
 30
2.60717e-15
  70
    32
  0
VERTEX
  8
0
  5
4F1A
 10
-261.398
 20
-11.6212
 30
2.60862e-15
  70
    32
  0
VERTEX
  8
0
  5
4F1B
 10
-261.401
 20
-11.6284
 30
2.61008e-15
  70
    32
  0
VERTEX
  8
0
  5
4F1C
 10
-261.404
 20
-11.6358
 30
2.61154e-15
  70
    32
  0
VERTEX
  8
0
  5
4F1D
 10
-261.406
 20
-11.6431
 30
2.61301e-15
  70
    32
  0
VERTEX
  8
0
  5
4F1E
 10
-261.409
 20
-11.6505
 30
2.61449e-15
  70
    32
  0
VERTEX
  8
0
  5
4F1F
 10
-261.411
 20
-11.6579
 30
2.61597e-15
  70
    32
  0
VERTEX
  8
0
  5
4F20
 10
-261.414
 20
-11.6653
 30
2.61746e-15
  70
    32
  0
VERTEX
  8
0
  5
4F21
 10
-261.416
 20
-11.6728
 30
2.61895e-15
  70
    32
  0
VERTEX
  8
0
  5
4F22
 10
-261.418
 20
-11.6803
 30
2.62045e-15
  70
    32
  0
VERTEX
  8
0
  5
4F23
 10
-261.421
 20
-11.6878
 30
2.62195e-15
  70
    32
  0
VERTEX
  8
0
  5
4F24
 10
-261.423
 20
-11.6954
 30
2.62346e-15
  70
    32
  0
VERTEX
  8
0
  5
4F25
 10
-261.425
 20
-11.7029
 30
2.62498e-15
  70
    32
  0
VERTEX
  8
0
  5
4F26
 10
-261.427
 20
-11.7105
 30
2.62650e-15
  70
    32
  0
VERTEX
  8
0
  5
4F27
 10
-261.429
 20
-11.7182
 30
2.62802e-15
  70
    32
  0
VERTEX
  8
0
  5
4F28
 10
-261.431
 20
-11.7258
 30
2.62955e-15
  70
    32
  0
VERTEX
  8
0
  5
4F29
 10
-261.433
 20
-11.7335
 30
2.63108e-15
  70
    32
  0
VERTEX
  8
0
  5
4F2A
 10
-261.435
 20
-11.7412
 30
2.63262e-15
  70
    32
  0
VERTEX
  8
0
  5
4F2B
 10
-261.437
 20
-11.7489
 30
2.63416e-15
  70
    32
  0
VERTEX
  8
0
  5
4F2C
 10
-261.439
 20
-11.7566
 30
2.63571e-15
  70
    32
  0
VERTEX
  8
0
  5
4F2D
 10
-261.441
 20
-11.7644
 30
2.63726e-15
  70
    32
  0
VERTEX
  8
0
  5
4F2E
 10
-261.443
 20
-11.7722
 30
2.63882e-15
  70
    32
  0
VERTEX
  8
0
  5
4F2F
 10
-261.444
 20
-11.7800
 30
2.64038e-15
  70
    32
  0
VERTEX
  8
0
  5
4F30
 10
-261.446
 20
-11.7878
 30
2.64194e-15
  70
    32
  0
VERTEX
  8
0
  5
4F31
 10
-261.448
 20
-11.7956
 30
2.64351e-15
  70
    32
  0
VERTEX
  8
0
  5
4F32
 10
-261.449
 20
-11.8035
 30
2.64508e-15
  70
    32
  0
VERTEX
  8
0
  5
4F33
 10
-261.451
 20
-11.8113
 30
2.64666e-15
  70
    32
  0
VERTEX
  8
0
  5
4F34
 10
-261.452
 20
-11.8192
 30
2.64824e-15
  70
    32
  0
VERTEX
  8
0
  5
4F35
 10
-261.454
 20
-11.8271
 30
2.64982e-15
  70
    32
  0
VERTEX
  8
0
  5
4F36
 10
-261.455
 20
-11.8351
 30
2.65140e-15
  70
    32
  0
VERTEX
  8
0
  5
4F37
 10
-261.457
 20
-11.8430
 30
2.65299e-15
  70
    32
  0
VERTEX
  8
0
  5
4F38
 10
-261.458
 20
-11.8510
 30
2.65458e-15
  70
    32
  0
VERTEX
  8
0
  5
4F39
 10
-261.459
 20
-11.8590
 30
2.65618e-15
  70
    32
  0
VERTEX
  8
0
  5
4F3A
 10
-261.461
 20
-11.8669
 30
2.65778e-15
  70
    32
  0
VERTEX
  8
0
  5
4F3B
 10
-261.462
 20
-11.8749
 30
2.65938e-15
  70
    32
  0
VERTEX
  8
0
  5
4F3C
 10
-261.463
 20
-11.8830
 30
2.66098e-15
  70
    32
  0
VERTEX
  8
0
  5
4F3D
 10
-261.464
 20
-11.8910
 30
2.66259e-15
  70
    32
  0
VERTEX
  8
0
  5
4F3E
 10
-261.465
 20
-11.8990
 30
2.66420e-15
  70
    32
  0
VERTEX
  8
0
  5
4F3F
 10
-261.466
 20
-11.9071
 30
2.66581e-15
  70
    32
  0
VERTEX
  8
0
  5
4F40
 10
-261.467
 20
-11.9152
 30
2.66742e-15
  70
    32
  0
VERTEX
  8
0
  5
4F41
 10
-261.468
 20
-11.9232
 30
2.66904e-15
  70
    32
  0
VERTEX
  8
0
  5
4F42
 10
-261.469
 20
-11.9313
 30
2.67065e-15
  70
    32
  0
VERTEX
  8
0
  5
4F43
 10
-261.470
 20
-11.9394
 30
2.67227e-15
  70
    32
  0
VERTEX
  8
0
  5
4F44
 10
-261.471
 20
-11.9475
 30
2.67389e-15
  70
    32
  0
VERTEX
  8
0
  5
4F45
 10
-261.471
 20
-11.9556
 30
2.67552e-15
  70
    32
  0
VERTEX
  8
0
  5
4F46
 10
-261.472
 20
-11.9638
 30
2.67714e-15
  70
    32
  0
VERTEX
  8
0
  5
4F47
 10
-261.473
 20
-11.9719
 30
2.67877e-15
  70
    32
  0
VERTEX
  8
0
  5
4F48
 10
-261.473
 20
-11.9800
 30
2.68040e-15
  70
    32
  0
VERTEX
  8
0
  5
4F49
 10
-261.474
 20
-11.9882
 30
2.68203e-15
  70
    32
  0
VERTEX
  8
0
  5
4F4A
 10
-261.474
 20
-11.9963
 30
2.68366e-15
  70
    32
  0
VERTEX
  8
0
  5
4F4B
 10
-261.475
 20
-12.0045
 30
2.68529e-15
  70
    32
  0
VERTEX
  8
0
  5
4F4C
 10
-261.475
 20
-12.0127
 30
2.68692e-15
  70
    32
  0
VERTEX
  8
0
  5
4F4D
 10
-261.475
 20
-12.0208
 30
2.68855e-15
  70
    32
  0
VERTEX
  8
0
  5
4F4E
 10
-261.476
 20
-12.0290
 30
2.69019e-15
  70
    32
  0
VERTEX
  8
0
  5
4F4F
 10
-261.476
 20
-12.0372
 30
2.69182e-15
  70
    32
  0
VERTEX
  8
0
  5
4F50
 10
-261.476
 20
-12.0453
 30
2.69346e-15
  70
    32
  0
VERTEX
  8
0
  5
4F51
 10
-261.476
 20
-12.0535
 30
2.69509e-15
  70
    32
  0
VERTEX
  8
0
  5
4F52
 10
-261.476
 20
-12.0617
 30
2.69673e-15
  70
    32
  0
VERTEX
  8
0
  5
4F53
 10
-261.477
 20
-12.0699
 30
2.69836e-15
  70
    32
  0
VERTEX
  8
0
  5
4F54
 10
-261.477
 20
-12.0781
 30
2.70000e-15
  70
    32
  0
VERTEX
  8
0
  5
4F55
 10
-261.477
 20
-12.0862
 30
2.70164e-15
  70
    32
  0
VERTEX
  8
0
  5
4F56
 10
-261.476
 20
-12.0944
 30
2.70327e-15
  70
    32
  0
VERTEX
  8
0
  5
4F57
 10
-261.476
 20
-12.1026
 30
2.70491e-15
  70
    32
  0
VERTEX
  8
0
  5
4F58
 10
-261.476
 20
-12.1108
 30
2.70654e-15
  70
    32
  0
VERTEX
  8
0
  5
4F59
 10
-261.476
 20
-12.1190
 30
2.70818e-15
  70
    32
  0
VERTEX
  8
0
  5
4F5A
 10
-261.476
 20
-12.1271
 30
2.70981e-15
  70
    32
  0
VERTEX
  8
0
  5
4F5B
 10
-261.475
 20
-12.1353
 30
2.71145e-15
  70
    32
  0
VERTEX
  8
0
  5
4F5C
 10
-261.475
 20
-12.1435
 30
2.71308e-15
  70
    32
  0
VERTEX
  8
0
  5
4F5D
 10
-261.475
 20
-12.1516
 30
2.71471e-15
  70
    32
  0
VERTEX
  8
0
  5
4F5E
 10
-261.474
 20
-12.1598
 30
2.71634e-15
  70
    32
  0
VERTEX
  8
0
  5
4F5F
 10
-261.474
 20
-12.1679
 30
2.71797e-15
  70
    32
  0
VERTEX
  8
0
  5
4F60
 10
-261.473
 20
-12.1761
 30
2.71960e-15
  70
    32
  0
VERTEX
  8
0
  5
4F61
 10
-261.473
 20
-12.1842
 30
2.72123e-15
  70
    32
  0
VERTEX
  8
0
  5
4F62
 10
-261.472
 20
-12.1923
 30
2.72286e-15
  70
    32
  0
VERTEX
  8
0
  5
4F63
 10
-261.471
 20
-12.2005
 30
2.72448e-15
  70
    32
  0
VERTEX
  8
0
  5
4F64
 10
-261.471
 20
-12.2086
 30
2.72611e-15
  70
    32
  0
VERTEX
  8
0
  5
4F65
 10
-261.470
 20
-12.2167
 30
2.72773e-15
  70
    32
  0
VERTEX
  8
0
  5
4F66
 10
-261.469
 20
-12.2248
 30
2.72935e-15
  70
    32
  0
VERTEX
  8
0
  5
4F67
 10
-261.468
 20
-12.2329
 30
2.73096e-15
  70
    32
  0
VERTEX
  8
0
  5
4F68
 10
-261.467
 20
-12.2410
 30
2.73258e-15
  70
    32
  0
VERTEX
  8
0
  5
4F69
 10
-261.466
 20
-12.2490
 30
2.73419e-15
  70
    32
  0
VERTEX
  8
0
  5
4F6A
 10
-261.465
 20
-12.2571
 30
2.73580e-15
  70
    32
  0
VERTEX
  8
0
  5
4F6B
 10
-261.464
 20
-12.2651
 30
2.73741e-15
  70
    32
  0
VERTEX
  8
0
  5
4F6C
 10
-261.463
 20
-12.2731
 30
2.73902e-15
  70
    32
  0
VERTEX
  8
0
  5
4F6D
 10
-261.462
 20
-12.2812
 30
2.74062e-15
  70
    32
  0
VERTEX
  8
0
  5
4F6E
 10
-261.461
 20
-12.2892
 30
2.74222e-15
  70
    32
  0
VERTEX
  8
0
  5
4F6F
 10
-261.459
 20
-12.2972
 30
2.74382e-15
  70
    32
  0
VERTEX
  8
0
  5
4F70
 10
-261.458
 20
-12.3051
 30
2.74542e-15
  70
    32
  0
VERTEX
  8
0
  5
4F71
 10
-261.457
 20
-12.3131
 30
2.74701e-15
  70
    32
  0
VERTEX
  8
0
  5
4F72
 10
-261.455
 20
-12.3210
 30
2.74860e-15
  70
    32
  0
VERTEX
  8
0
  5
4F73
 10
-261.454
 20
-12.3290
 30
2.75018e-15
  70
    32
  0
VERTEX
  8
0
  5
4F74
 10
-261.452
 20
-12.3369
 30
2.75176e-15
  70
    32
  0
VERTEX
  8
0
  5
4F75
 10
-261.451
 20
-12.3448
 30
2.75334e-15
  70
    32
  0
VERTEX
  8
0
  5
4F76
 10
-261.449
 20
-12.3526
 30
2.75492e-15
  70
    32
  0
VERTEX
  8
0
  5
4F77
 10
-261.448
 20
-12.3605
 30
2.75649e-15
  70
    32
  0
VERTEX
  8
0
  5
4F78
 10
-261.446
 20
-12.3683
 30
2.75806e-15
  70
    32
  0
VERTEX
  8
0
  5
4F79
 10
-261.444
 20
-12.3762
 30
2.75962e-15
  70
    32
  0
VERTEX
  8
0
  5
4F7A
 10
-261.443
 20
-12.3840
 30
2.76118e-15
  70
    32
  0
VERTEX
  8
0
  5
4F7B
 10
-261.441
 20
-12.3917
 30
2.76274e-15
  70
    32
  0
VERTEX
  8
0
  5
4F7C
 10
-261.439
 20
-12.3995
 30
2.76429e-15
  70
    32
  0
VERTEX
  8
0
  5
4F7D
 10
-261.437
 20
-12.4072
 30
2.76584e-15
  70
    32
  0
VERTEX
  8
0
  5
4F7E
 10
-261.435
 20
-12.4149
 30
2.76738e-15
  70
    32
  0
VERTEX
  8
0
  5
4F7F
 10
-261.433
 20
-12.4226
 30
2.76892e-15
  70
    32
  0
VERTEX
  8
0
  5
4F80
 10
-261.431
 20
-12.4303
 30
2.77045e-15
  70
    32
  0
VERTEX
  8
0
  5
4F81
 10
-261.429
 20
-12.4380
 30
2.77198e-15
  70
    32
  0
VERTEX
  8
0
  5
4F82
 10
-261.427
 20
-12.4456
 30
2.77350e-15
  70
    32
  0
VERTEX
  8
0
  5
4F83
 10
-261.425
 20
-12.4532
 30
2.77502e-15
  70
    32
  0
VERTEX
  8
0
  5
4F84
 10
-261.423
 20
-12.4607
 30
2.77654e-15
  70
    32
  0
VERTEX
  8
0
  5
4F85
 10
-261.421
 20
-12.4683
 30
2.77805e-15
  70
    32
  0
VERTEX
  8
0
  5
4F86
 10
-261.418
 20
-12.4758
 30
2.77955e-15
  70
    32
  0
VERTEX
  8
0
  5
4F87
 10
-261.416
 20
-12.4833
 30
2.78105e-15
  70
    32
  0
VERTEX
  8
0
  5
4F88
 10
-261.414
 20
-12.4908
 30
2.78254e-15
  70
    32
  0
VERTEX
  8
0
  5
4F89
 10
-261.411
 20
-12.4982
 30
2.78403e-15
  70
    32
  0
VERTEX
  8
0
  5
4F8A
 10
-261.409
 20
-12.5056
 30
2.78551e-15
  70
    32
  0
VERTEX
  8
0
  5
4F8B
 10
-261.406
 20
-12.5130
 30
2.78699e-15
  70
    32
  0
VERTEX
  8
0
  5
4F8C
 10
-261.404
 20
-12.5203
 30
2.78846e-15
  70
    32
  0
VERTEX
  8
0
  5
4F8D
 10
-261.401
 20
-12.5277
 30
2.78992e-15
  70
    32
  0
VERTEX
  8
0
  5
4F8E
 10
-261.398
 20
-12.5350
 30
2.79138e-15
  70
    32
  0
VERTEX
  8
0
  5
4F8F
 10
-261.396
 20
-12.5422
 30
2.79283e-15
  70
    32
  0
VERTEX
  8
0
  5
4F90
 10
-261.393
 20
-12.5495
 30
2.79428e-15
  70
    32
  0
VERTEX
  8
0
  5
4F91
 10
-261.390
 20
-12.5567
 30
2.79572e-15
  70
    32
  0
VERTEX
  8
0
  5
4F92
 10
-261.388
 20
-12.5638
 30
2.79715e-15
  70
    32
  0
VERTEX
  8
0
  5
4F93
 10
-261.385
 20
-12.5710
 30
2.79858e-15
  70
    32
  0
VERTEX
  8
0
  5
4F94
 10
-261.382
 20
-12.5781
 30
2.80000e-15
  70
    32
  0
SEQEND
  8
0
  5
4F95
  0
LINE
  5
4A09
  8
0
 10
-267.2405431917262035
 20
-19.0880565413619685
 30
0.0000000000000042
 11
-265.0754796822650974
 21
-19.0880565413619685
 31
0.0000000000000042
210
-0.0000000000000002
220
1.0
230
-0.0000000000000002
  0
LINE
  5
4A0A
  8
0
 10
-274.7405431917262035
 20
-19.0880565413619685
 30
0.0000000000000042
 11
-267.2405431917262035
 21
-19.0880565413619685
 31
0.0000000000000042
210
-0.0000000000000002
220
1.0
230
-0.0000000000000002
  0
LINE
  5
4A0B
  8
0
 10
-265.0754796822650974
 20
0.9119434586380352
 30
-0.0000000000000002
 11
-265.0754796822650974
 21
-19.0880565413619685
 31
0.0000000000000042
210
-0.0000000000000002
220
1.0
230
-0.0000000000000002
  0
LINE
  5
4A0C
  8
0
 10
-274.7405431917262035
 20
0.9119434586380295
 30
-0.0000000000000002
 11
-274.7405431917262035
 21
-19.0880565413619685
 31
0.0000000000000042
210
-0.0000000000000002
220
1.0
230
-0.0000000000000002
  0
LINE
  5
4A0D
  8
0
 10
-267.2405431917262035
 20
0.9119434586380331
 30
-0.0000000000000002
 11
-267.2405431917262035
 21
-19.0880565413619685
 31
0.0000000000000042
210
-0.0000000000000002
220
1.0
230
-0.0000000000000002
  0
LINE
  5
4A0E
  8
0
 10
-111.1451148371989035
 20
0.9119434586380961
 30
-0.0000000000000002
 11
-131.2628638432902903
 21
0.9119434586380915
 31
-0.0000000000000002
210
-0.0000000000000002
220
1.0
230
-0.0000000000000002
  0
LINE
  5
4A0F
  8
0
 10
-267.0273658311076019
 20
0.9119434586380615
 30
-0.0000000000000002
 11
-287.145114837199003
 21
0.911943458638057
 31
-0.0000000000000002
210
-0.0000000000000002
220
1.0
230
-0.0000000000000002
  0
LINE
  5
4A10
  8
0
 10
-267.0273658311076019
 20
0.9119434586380615
 30
-0.0000000000000002
 11
-267.0273658311076019
 21
2.9119434586380621
 31
-0.0000000000000006
210
-0.0000000000000002
220
1.0
230
-0.0000000000000002
  0
LINE
  5
4A11
  8
0
 10
-111.1451148371989035
 20
2.9119434586380959
 30
-0.0000000000000006
 11
-131.2628638432902903
 21
2.9119434586380919
 31
-0.0000000000000006
210
-0.0000000000000002
220
1.0
230
-0.0000000000000002
  0
LINE
  5
4A12
  8
0
 10
-267.0273658311076019
 20
2.9119434586380621
 30
-0.0000000000000006
 11
-287.145114837199003
 21
2.9119434586380568
 31
-0.0000000000000006
210
-0.0000000000000002
220
1.0
230
-0.0000000000000002
  0
LINE
  5
4A13
  8
0
 10
-131.2628638432902903
 20
0.9119434586380915
 30
-0.0000000000000002
 11
-131.2628638432902903
 21
2.9119434586380919
 31
-0.0000000000000006
210
-0.0000000000000002
220
1.0
230
-0.0000000000000002
  0
LINE
  5
4A14
  8
0
 10
-267.0273658311076019
 20
0.9119434586380615
 30
-0.0000000000000002
 11
-131.2628638432902903
 21
0.9119434586380915
 31
-0.0000000000000002
210
-0.0000000000000002
220
1.0
230
-0.0000000000000002
  0
LINE
  5
4A15
  8
0
 10
-267.0273658311076019
 20
2.9119434586380621
 30
-0.0000000000000006
 11
-131.2628638432902903
 21
2.9119434586380919
 31
-0.0000000000000006
210
-0.0000000000000002
220
1.0
230
-0.0000000000000002
  0
LINE
  5
4A16
  8
0
 10
-287.145114837199003
 20
0.911943458638057
 30
-0.0000000000000002
 11
-287.145114837199003
 21
2.9119434586380568
 31
-0.0000000000000006
210
-0.0000000000000002
220
1.0
230
-0.0000000000000002
  0
LINE
  5
4A17
  8
0
 10
-111.1451148371989035
 20
0.9119434586380961
 30
-0.0000000000000002
 11
-111.1451148371989035
 21
2.9119434586380959
 31
-0.0000000000000006
210
-0.0000000000000002
220
1.0
230
-0.0000000000000002
  0
LINE
  5
4A18
  8
0
 10
-131.0496864826716887
 20
-19.0880565413619117
 30
0.0000000000000042
 11
-133.2147499921327949
 21
-19.0880565413619117
 31
0.0000000000000042
210
-0.0000000000000002
220
1.0
230
-0.0000000000000002
  0
LINE
  5
4A19
  8
0
 10
-123.5496864826717029
 20
-19.0880565413619117
 30
0.0000000000000042
 11
-131.0496864826716887
 21
-19.0880565413619188
 31
0.0000000000000042
210
-0.0000000000000002
220
1.0
230
-0.0000000000000002
  0
LINE
  5
4A1A
  8
0
 10
-133.2147499921327949
 20
0.9119434586380895
 30
-0.0000000000000002
 11
-133.2147499921327949
 21
-19.0880565413619117
 31
0.0000000000000042
210
-0.0000000000000002
220
1.0
230
-0.0000000000000002
  0
LINE
  5
4A1B
  8
0
 10
-123.5496864826717029
 20
0.911943458638095
 30
-0.0000000000000002
 11
-123.5496864826717029
 21
-19.0880565413619117
 31
0.0000000000000042
210
-0.0000000000000002
220
1.0
230
-0.0000000000000002
  0
LINE
  5
4A1C
  8
0
 10
-131.0496864826716887
 20
0.9119434586380917
 30
-0.0000000000000002
 11
-131.0496864826716887
 21
-19.0880565413619117
 31
0.0000000000000042
210
-0.0000000000000002
220
1.0
230
-0.0000000000000002
  0
LINE
  5
4A1D
  8
0
  6
VERDECKT
 62
     1
 10
-140.3779369501060046
 20
0.911943458638118
 30
-0.0000000000000002
 11
-140.3752950428768997
 21
0.9141005668577383
 31
-0.0000000000000002
210
-0.0000000000000002
220
1.0
230
-0.0000000000000002
  0
LINE
  5
4A1E
  8
0
  6
VERDECKT
 62
     1
 10
-150.981896760675113
 20
0.914100566857736
 30
-0.0000000000000002
 11
-140.3752950428768997
 21
0.9141005668577401
 31
-0.0000000000000002
210
-0.0000000000000002
220
1.0
230
-0.0000000000000002
  0
LINE
  5
4A1F
  8
0
  6
VERDECKT
 62
     1
 10
-150.981896760675113
 20
0.914100566857736
 30
-0.0000000000000002
 11
-150.9845386679041894
 21
0.9119434586380588
 31
-0.0000000000000002
210
-0.0000000000000002
220
1.0
230
-0.0000000000000002
  0
LINE
  5
4A20
  8
0
  6
VERDECKT
 62
     1
 10
-140.3752950428767861
 20
0.9141005668577383
 30
-0.0000000000000002
 11
-140.3744144071337985
 21
0.911943458638118
 31
-0.0000000000000002
210
-0.0000000000000002
220
1.0
230
-0.0000000000000002
  0
LINE
  5
4A21
  8
0
  6
VERDECKT
 62
     1
 10
-146.2902432675022908
 20
-10.5780565413619492
 30
0.0000000000000023
 11
-150.9818967606749993
 21
0.914100566857736
 31
-0.0000000000000002
210
-0.0000000000000002
220
1.0
230
-0.0000000000000002
  0
POLYLINE
  5
4A22
  8
0
  6
VERDECKT
 62
     1
 10
-146.2902432675022624
 20
-13.5780565413620291
 30
0.0000000000000031
 66
     1
 70
     8
  0
VERTEX
  8
0
  5
4F96
 10
-146.290
 20
-13.5781
 30
3.05000e-15
  70
    32
  0
VERTEX
  8
0
  5
4F97
 10
-146.282
 20
-13.5568
 30
3.04503e-15
  70
    32
  0
VERTEX
  8
0
  5
4F98
 10
-146.273
 20
-13.5353
 30
3.04003e-15
  70
    32
  0
VERTEX
  8
0
  5
4F99
 10
-146.265
 20
-13.5138
 30
3.03502e-15
  70
    32
  0
VERTEX
  8
0
  5
4F9A
 10
-146.257
 20
-13.4922
 30
3.02998e-15
  70
    32
  0
VERTEX
  8
0
  5
4F9B
 10
-146.248
 20
-13.4706
 30
3.02492e-15
  70
    32
  0
VERTEX
  8
0
  5
4F9C
 10
-146.240
 20
-13.4488
 30
3.01983e-15
  70
    32
  0
VERTEX
  8
0
  5
4F9D
 10
-146.233
 20
-13.4269
 30
3.01473e-15
  70
    32
  0
VERTEX
  8
0
  5
4F9E
 10
-146.225
 20
-13.4049
 30
3.00960e-15
  70
    32
  0
VERTEX
  8
0
  5
4F9F
 10
-146.217
 20
-13.3829
 30
3.00446e-15
  70
    32
  0
VERTEX
  8
0
  5
4FA0
 10
-146.210
 20
-13.3607
 30
2.99929e-15
  70
    32
  0
VERTEX
  8
0
  5
4FA1
 10
-146.202
 20
-13.3385
 30
2.99410e-15
  70
    32
  0
VERTEX
  8
0
  5
4FA2
 10
-146.195
 20
-13.3162
 30
2.98889e-15
  70
    32
  0
VERTEX
  8
0
  5
4FA3
 10
-146.188
 20
-13.2938
 30
2.98367e-15
  70
    32
  0
VERTEX
  8
0
  5
4FA4
 10
-146.181
 20
-13.2713
 30
2.97842e-15
  70
    32
  0
VERTEX
  8
0
  5
4FA5
 10
-146.174
 20
-13.2487
 30
2.97316e-15
  70
    32
  0
VERTEX
  8
0
  5
4FA6
 10
-146.168
 20
-13.2261
 30
2.96788e-15
  70
    32
  0
VERTEX
  8
0
  5
4FA7
 10
-146.161
 20
-13.2034
 30
2.96258e-15
  70
    32
  0
VERTEX
  8
0
  5
4FA8
 10
-146.154
 20
-13.1806
 30
2.95726e-15
  70
    32
  0
VERTEX
  8
0
  5
4FA9
 10
-146.148
 20
-13.1577
 30
2.95193e-15
  70
    32
  0
VERTEX
  8
0
  5
4FAA
 10
-146.142
 20
-13.1348
 30
2.94658e-15
  70
    32
  0
VERTEX
  8
0
  5
4FAB
 10
-146.136
 20
-13.1118
 30
2.94121e-15
  70
    32
  0
VERTEX
  8
0
  5
4FAC
 10
-146.130
 20
-13.0887
 30
2.93582e-15
  70
    32
  0
VERTEX
  8
0
  5
4FAD
 10
-146.124
 20
-13.0656
 30
2.93042e-15
  70
    32
  0
VERTEX
  8
0
  5
4FAE
 10
-146.119
 20
-13.0424
 30
2.92501e-15
  70
    32
  0
VERTEX
  8
0
  5
4FAF
 10
-146.113
 20
-13.0191
 30
2.91958e-15
  70
    32
  0
VERTEX
  8
0
  5
4FB0
 10
-146.108
 20
-12.9958
 30
2.91413e-15
  70
    32
  0
VERTEX
  8
0
  5
4FB1
 10
-146.102
 20
-12.9724
 30
2.90867e-15
  70
    32
  0
VERTEX
  8
0
  5
4FB2
 10
-146.097
 20
-12.9489
 30
2.90320e-15
  70
    32
  0
VERTEX
  8
0
  5
4FB3
 10
-146.092
 20
-12.9254
 30
2.89771e-15
  70
    32
  0
VERTEX
  8
0
  5
4FB4
 10
-146.088
 20
-12.9018
 30
2.89221e-15
  70
    32
  0
VERTEX
  8
0
  5
4FB5
 10
-146.083
 20
-12.8782
 30
2.88670e-15
  70
    32
  0
VERTEX
  8
0
  5
4FB6
 10
-146.078
 20
-12.8545
 30
2.88117e-15
  70
    32
  0
VERTEX
  8
0
  5
4FB7
 10
-146.074
 20
-12.8308
 30
2.87564e-15
  70
    32
  0
VERTEX
  8
0
  5
4FB8
 10
-146.070
 20
-12.8070
 30
2.87009e-15
  70
    32
  0
VERTEX
  8
0
  5
4FB9
 10
-146.065
 20
-12.7832
 30
2.86453e-15
  70
    32
  0
VERTEX
  8
0
  5
4FBA
 10
-146.061
 20
-12.7593
 30
2.85895e-15
  70
    32
  0
VERTEX
  8
0
  5
4FBB
 10
-146.058
 20
-12.7354
 30
2.85337e-15
  70
    32
  0
VERTEX
  8
0
  5
4FBC
 10
-146.054
 20
-12.7114
 30
2.84778e-15
  70
    32
  0
VERTEX
  8
0
  5
4FBD
 10
-146.050
 20
-12.6874
 30
2.84218e-15
  70
    32
  0
VERTEX
  8
0
  5
4FBE
 10
-146.047
 20
-12.6633
 30
2.83656e-15
  70
    32
  0
VERTEX
  8
0
  5
4FBF
 10
-146.043
 20
-12.6392
 30
2.83094e-15
  70
    32
  0
VERTEX
  8
0
  5
4FC0
 10
-146.040
 20
-12.6151
 30
2.82531e-15
  70
    32
  0
VERTEX
  8
0
  5
4FC1
 10
-146.037
 20
-12.5909
 30
2.81967e-15
  70
    32
  0
VERTEX
  8
0
  5
4FC2
 10
-146.034
 20
-12.5667
 30
2.81403e-15
  70
    32
  0
VERTEX
  8
0
  5
4FC3
 10
-146.032
 20
-12.5425
 30
2.80837e-15
  70
    32
  0
VERTEX
  8
0
  5
4FC4
 10
-146.029
 20
-12.5182
 30
2.80271e-15
  70
    32
  0
VERTEX
  8
0
  5
4FC5
 10
-146.027
 20
-12.4940
 30
2.79704e-15
  70
    32
  0
VERTEX
  8
0
  5
4FC6
 10
-146.024
 20
-12.4696
 30
2.79137e-15
  70
    32
  0
VERTEX
  8
0
  5
4FC7
 10
-146.022
 20
-12.4453
 30
2.78569e-15
  70
    32
  0
VERTEX
  8
0
  5
4FC8
 10
-146.020
 20
-12.4209
 30
2.78000e-15
  70
    32
  0
VERTEX
  8
0
  5
4FC9
 10
-146.018
 20
-12.3965
 30
2.77431e-15
  70
    32
  0
VERTEX
  8
0
  5
4FCA
 10
-146.016
 20
-12.3721
 30
2.76861e-15
  70
    32
  0
VERTEX
  8
0
  5
4FCB
 10
-146.015
 20
-12.3477
 30
2.76291e-15
  70
    32
  0
VERTEX
  8
0
  5
4FCC
 10
-146.013
 20
-12.3232
 30
2.75720e-15
  70
    32
  0
VERTEX
  8
0
  5
4FCD
 10
-146.012
 20
-12.2988
 30
2.75150e-15
  70
    32
  0
VERTEX
  8
0
  5
4FCE
 10
-146.011
 20
-12.2743
 30
2.74578e-15
  70
    32
  0
VERTEX
  8
0
  5
4FCF
 10
-146.010
 20
-12.2498
 30
2.74007e-15
  70
    32
  0
VERTEX
  8
0
  5
4FD0
 10
-146.009
 20
-12.2253
 30
2.73435e-15
  70
    32
  0
VERTEX
  8
0
  5
4FD1
 10
-146.008
 20
-12.2007
 30
2.72863e-15
  70
    32
  0
VERTEX
  8
0
  5
4FD2
 10
-146.007
 20
-12.1762
 30
2.72290e-15
  70
    32
  0
VERTEX
  8
0
  5
4FD3
 10
-146.007
 20
-12.1517
 30
2.71718e-15
  70
    32
  0
VERTEX
  8
0
  5
4FD4
 10
-146.006
 20
-12.1271
 30
2.71145e-15
  70
    32
  0
VERTEX
  8
0
  5
4FD5
 10
-146.006
 20
-12.1026
 30
2.70573e-15
  70
    32
  0
VERTEX
  8
0
  5
4FD6
 10
-146.006
 20
-12.0781
 30
2.70000e-15
  70
    32
  0
VERTEX
  8
0
  5
4FD7
 10
-146.006
 20
-12.0535
 30
2.69427e-15
  70
    32
  0
VERTEX
  8
0
  5
4FD8
 10
-146.006
 20
-12.0290
 30
2.68855e-15
  70
    32
  0
VERTEX
  8
0
  5
4FD9
 10
-146.007
 20
-12.0044
 30
2.68282e-15
  70
    32
  0
VERTEX
  8
0
  5
4FDA
 10
-146.007
 20
-11.9799
 30
2.67710e-15
  70
    32
  0
VERTEX
  8
0
  5
4FDB
 10
-146.008
 20
-11.9554
 30
2.67137e-15
  70
    32
  0
VERTEX
  8
0
  5
4FDC
 10
-146.009
 20
-11.9309
 30
2.66565e-15
  70
    32
  0
VERTEX
  8
0
  5
4FDD
 10
-146.010
 20
-11.9063
 30
2.65993e-15
  70
    32
  0
VERTEX
  8
0
  5
4FDE
 10
-146.011
 20
-11.8818
 30
2.65422e-15
  70
    32
  0
VERTEX
  8
0
  5
4FDF
 10
-146.012
 20
-11.8574
 30
2.64850e-15
  70
    32
  0
VERTEX
  8
0
  5
4FE0
 10
-146.013
 20
-11.8329
 30
2.64280e-15
  70
    32
  0
VERTEX
  8
0
  5
4FE1
 10
-146.015
 20
-11.8084
 30
2.63709e-15
  70
    32
  0
VERTEX
  8
0
  5
4FE2
 10
-146.016
 20
-11.7840
 30
2.63139e-15
  70
    32
  0
VERTEX
  8
0
  5
4FE3
 10
-146.018
 20
-11.7596
 30
2.62569e-15
  70
    32
  0
VERTEX
  8
0
  5
4FE4
 10
-146.020
 20
-11.7352
 30
2.62000e-15
  70
    32
  0
VERTEX
  8
0
  5
4FE5
 10
-146.022
 20
-11.7108
 30
2.61431e-15
  70
    32
  0
VERTEX
  8
0
  5
4FE6
 10
-146.024
 20
-11.6865
 30
2.60863e-15
  70
    32
  0
VERTEX
  8
0
  5
4FE7
 10
-146.027
 20
-11.6622
 30
2.60296e-15
  70
    32
  0
VERTEX
  8
0
  5
4FE8
 10
-146.029
 20
-11.6379
 30
2.59729e-15
  70
    32
  0
VERTEX
  8
0
  5
4FE9
 10
-146.032
 20
-11.6136
 30
2.59163e-15
  70
    32
  0
VERTEX
  8
0
  5
4FEA
 10
-146.034
 20
-11.5894
 30
2.58597e-15
  70
    32
  0
VERTEX
  8
0
  5
4FEB
 10
-146.037
 20
-11.5652
 30
2.58033e-15
  70
    32
  0
VERTEX
  8
0
  5
4FEC
 10
-146.040
 20
-11.5410
 30
2.57469e-15
  70
    32
  0
VERTEX
  8
0
  5
4FED
 10
-146.043
 20
-11.5169
 30
2.56906e-15
  70
    32
  0
VERTEX
  8
0
  5
4FEE
 10
-146.047
 20
-11.4928
 30
2.56344e-15
  70
    32
  0
VERTEX
  8
0
  5
4FEF
 10
-146.050
 20
-11.4687
 30
2.55782e-15
  70
    32
  0
VERTEX
  8
0
  5
4FF0
 10
-146.054
 20
-11.4447
 30
2.55222e-15
  70
    32
  0
VERTEX
  8
0
  5
4FF1
 10
-146.058
 20
-11.4208
 30
2.54663e-15
  70
    32
  0
VERTEX
  8
0
  5
4FF2
 10
-146.061
 20
-11.3968
 30
2.54105e-15
  70
    32
  0
VERTEX
  8
0
  5
4FF3
 10
-146.065
 20
-11.3729
 30
2.53547e-15
  70
    32
  0
VERTEX
  8
0
  5
4FF4
 10
-146.070
 20
-11.3491
 30
2.52991e-15
  70
    32
  0
VERTEX
  8
0
  5
4FF5
 10
-146.074
 20
-11.3253
 30
2.52436e-15
  70
    32
  0
VERTEX
  8
0
  5
4FF6
 10
-146.078
 20
-11.3016
 30
2.51883e-15
  70
    32
  0
VERTEX
  8
0
  5
4FF7
 10
-146.083
 20
-11.2779
 30
2.51330e-15
  70
    32
  0
VERTEX
  8
0
  5
4FF8
 10
-146.088
 20
-11.2543
 30
2.50779e-15
  70
    32
  0
VERTEX
  8
0
  5
4FF9
 10
-146.092
 20
-11.2307
 30
2.50229e-15
  70
    32
  0
VERTEX
  8
0
  5
4FFA
 10
-146.097
 20
-11.2072
 30
2.49680e-15
  70
    32
  0
VERTEX
  8
0
  5
4FFB
 10
-146.102
 20
-11.1837
 30
2.49133e-15
  70
    32
  0
VERTEX
  8
0
  5
4FFC
 10
-146.108
 20
-11.1603
 30
2.48587e-15
  70
    32
  0
VERTEX
  8
0
  5
4FFD
 10
-146.113
 20
-11.1370
 30
2.48042e-15
  70
    32
  0
VERTEX
  8
0
  5
4FFE
 10
-146.119
 20
-11.1137
 30
2.47499e-15
  70
    32
  0
VERTEX
  8
0
  5
4FFF
 10
-146.124
 20
-11.0905
 30
2.46958e-15
  70
    32
  0
VERTEX
  8
0
  5
5000
 10
-146.130
 20
-11.0674
 30
2.46418e-15
  70
    32
  0
VERTEX
  8
0
  5
5001
 10
-146.136
 20
-11.0443
 30
2.45879e-15
  70
    32
  0
VERTEX
  8
0
  5
5002
 10
-146.142
 20
-11.0213
 30
2.45342e-15
  70
    32
  0
VERTEX
  8
0
  5
5003
 10
-146.148
 20
-10.9984
 30
2.44807e-15
  70
    32
  0
VERTEX
  8
0
  5
5004
 10
-146.154
 20
-10.9755
 30
2.44274e-15
  70
    32
  0
VERTEX
  8
0
  5
5005
 10
-146.161
 20
-10.9527
 30
2.43742e-15
  70
    32
  0
VERTEX
  8
0
  5
5006
 10
-146.168
 20
-10.9300
 30
2.43212e-15
  70
    32
  0
VERTEX
  8
0
  5
5007
 10
-146.174
 20
-10.9074
 30
2.42684e-15
  70
    32
  0
VERTEX
  8
0
  5
5008
 10
-146.181
 20
-10.8848
 30
2.42158e-15
  70
    32
  0
VERTEX
  8
0
  5
5009
 10
-146.188
 20
-10.8623
 30
2.41633e-15
  70
    32
  0
VERTEX
  8
0
  5
500A
 10
-146.195
 20
-10.8399
 30
2.41111e-15
  70
    32
  0
VERTEX
  8
0
  5
500B
 10
-146.202
 20
-10.8176
 30
2.40590e-15
  70
    32
  0
VERTEX
  8
0
  5
500C
 10
-146.210
 20
-10.7954
 30
2.40071e-15
  70
    32
  0
VERTEX
  8
0
  5
500D
 10
-146.217
 20
-10.7732
 30
2.39554e-15
  70
    32
  0
VERTEX
  8
0
  5
500E
 10
-146.225
 20
-10.7512
 30
2.39040e-15
  70
    32
  0
VERTEX
  8
0
  5
500F
 10
-146.233
 20
-10.7292
 30
2.38527e-15
  70
    32
  0
VERTEX
  8
0
  5
5010
 10
-146.240
 20
-10.7073
 30
2.38017e-15
  70
    32
  0
VERTEX
  8
0
  5
5011
 10
-146.248
 20
-10.6856
 30
2.37508e-15
  70
    32
  0
VERTEX
  8
0
  5
5012
 10
-146.257
 20
-10.6639
 30
2.37002e-15
  70
    32
  0
VERTEX
  8
0
  5
5013
 10
-146.265
 20
-10.6423
 30
2.36498e-15
  70
    32
  0
VERTEX
  8
0
  5
5014
 10
-146.273
 20
-10.6208
 30
2.35997e-15
  70
    32
  0
VERTEX
  8
0
  5
5015
 10
-146.282
 20
-10.5994
 30
2.35497e-15
  70
    32
  0
VERTEX
  8
0
  5
5016
 10
-146.290
 20
-10.5781
 30
2.35000e-15
  70
    32
  0
SEQEND
  8
0
  5
5017
  0
LINE
  5
4A23
  8
0
  6
VERDECKT
 62
     1
 10
-149.2141298077087015
 20
-20.7400866306591496
 30
0.0000000000000046
 11
-146.2902432675022908
 21
-13.5780565413619208
 31
0.000000000000003
210
-0.0000000000000002
220
1.0
230
-0.0000000000000002
  0
LINE
  5
4A24
  8
0
  6
VERDECKT
 62
     1
 10
-247.305691006494186
 20
0.9119434586381794
 30
-0.0000000000000002
 11
-247.3083329137232056
 21
0.9141005668577145
 31
-0.0000000000000002
210
-0.0000000000000002
220
1.0
230
-0.0000000000000002
  0
LINE
  5
4A25
  8
0
  6
VERDECKT
 62
     1
 10
-257.9149346315213052
 20
0.9141005668577122
 30
-0.0000000000000002
 11
-247.3083329137230919
 21
0.9141005668577163
 31
-0.0000000000000002
210
-0.0000000000000002
220
1.0
230
-0.0000000000000002
  0
LINE
  5
4A26
  8
0
  6
VERDECKT
 62
     1
 10
-257.9149346315213052
 20
0.9141005668577122
 30
-0.0000000000000002
 11
-257.9122927242923993
 21
0.9119434586381771
 31
-0.0000000000000002
210
-0.0000000000000002
220
1.0
230
-0.0000000000000002
  0
LINE
  5
4A27
  8
0
  6
VERDECKT
 62
     1
 10
-247.3083329137230919
 20
0.9141005668577145
 30
-0.0000000000000002
 11
-251.9999864068958004
 21
-10.5780565413619794
 31
0.0000000000000023
210
-0.0000000000000002
220
1.0
230
-0.0000000000000002
  0
LINE
  5
4A28
  8
0
  6
VERDECKT
 62
     1
 10
-257.9158152672642927
 20
0.9119434586380351
 30
-0.0000000000000002
 11
-257.9149346315213052
 21
0.9141005668577122
 31
-0.0000000000000002
210
-0.0000000000000002
220
1.0
230
-0.0000000000000002
  0
POLYLINE
  5
4A29
  8
0
  6
VERDECKT
 62
     1
 10
-251.9999864068959141
 20
-10.5780565413618834
 30
0.0000000000000023
 66
     1
 70
     8
  0
VERTEX
  8
0
  5
5018
 10
-252.000
 20
-10.5781
 30
2.35000e-15
  70
    32
  0
VERTEX
  8
0
  5
5019
 10
-252.009
 20
-10.5994
 30
2.35497e-15
  70
    32
  0
VERTEX
  8
0
  5
501A
 10
-252.017
 20
-10.6208
 30
2.35997e-15
  70
    32
  0
VERTEX
  8
0
  5
501B
 10
-252.025
 20
-10.6423
 30
2.36498e-15
  70
    32
  0
VERTEX
  8
0
  5
501C
 10
-252.034
 20
-10.6639
 30
2.37002e-15
  70
    32
  0
VERTEX
  8
0
  5
501D
 10
-252.042
 20
-10.6856
 30
2.37508e-15
  70
    32
  0
VERTEX
  8
0
  5
501E
 10
-252.050
 20
-10.7073
 30
2.38017e-15
  70
    32
  0
VERTEX
  8
0
  5
501F
 10
-252.058
 20
-10.7292
 30
2.38527e-15
  70
    32
  0
VERTEX
  8
0
  5
5020
 10
-252.065
 20
-10.7512
 30
2.39040e-15
  70
    32
  0
VERTEX
  8
0
  5
5021
 10
-252.073
 20
-10.7732
 30
2.39554e-15
  70
    32
  0
VERTEX
  8
0
  5
5022
 10
-252.081
 20
-10.7954
 30
2.40071e-15
  70
    32
  0
VERTEX
  8
0
  5
5023
 10
-252.088
 20
-10.8176
 30
2.40590e-15
  70
    32
  0
VERTEX
  8
0
  5
5024
 10
-252.095
 20
-10.8399
 30
2.41111e-15
  70
    32
  0
VERTEX
  8
0
  5
5025
 10
-252.102
 20
-10.8623
 30
2.41633e-15
  70
    32
  0
VERTEX
  8
0
  5
5026
 10
-252.109
 20
-10.8848
 30
2.42158e-15
  70
    32
  0
VERTEX
  8
0
  5
5027
 10
-252.116
 20
-10.9074
 30
2.42684e-15
  70
    32
  0
VERTEX
  8
0
  5
5028
 10
-252.123
 20
-10.9300
 30
2.43212e-15
  70
    32
  0
VERTEX
  8
0
  5
5029
 10
-252.129
 20
-10.9527
 30
2.43742e-15
  70
    32
  0
VERTEX
  8
0
  5
502A
 10
-252.136
 20
-10.9755
 30
2.44274e-15
  70
    32
  0
VERTEX
  8
0
  5
502B
 10
-252.142
 20
-10.9984
 30
2.44807e-15
  70
    32
  0
VERTEX
  8
0
  5
502C
 10
-252.148
 20
-11.0213
 30
2.45342e-15
  70
    32
  0
VERTEX
  8
0
  5
502D
 10
-252.154
 20
-11.0443
 30
2.45879e-15
  70
    32
  0
VERTEX
  8
0
  5
502E
 10
-252.160
 20
-11.0674
 30
2.46418e-15
  70
    32
  0
VERTEX
  8
0
  5
502F
 10
-252.166
 20
-11.0905
 30
2.46958e-15
  70
    32
  0
VERTEX
  8
0
  5
5030
 10
-252.172
 20
-11.1137
 30
2.47499e-15
  70
    32
  0
VERTEX
  8
0
  5
5031
 10
-252.177
 20
-11.1370
 30
2.48042e-15
  70
    32
  0
VERTEX
  8
0
  5
5032
 10
-252.182
 20
-11.1603
 30
2.48587e-15
  70
    32
  0
VERTEX
  8
0
  5
5033
 10
-252.188
 20
-11.1837
 30
2.49133e-15
  70
    32
  0
VERTEX
  8
0
  5
5034
 10
-252.193
 20
-11.2072
 30
2.49680e-15
  70
    32
  0
VERTEX
  8
0
  5
5035
 10
-252.198
 20
-11.2307
 30
2.50229e-15
  70
    32
  0
VERTEX
  8
0
  5
5036
 10
-252.203
 20
-11.2543
 30
2.50779e-15
  70
    32
  0
VERTEX
  8
0
  5
5037
 10
-252.207
 20
-11.2779
 30
2.51330e-15
  70
    32
  0
VERTEX
  8
0
  5
5038
 10
-252.212
 20
-11.3016
 30
2.51883e-15
  70
    32
  0
VERTEX
  8
0
  5
5039
 10
-252.216
 20
-11.3253
 30
2.52436e-15
  70
    32
  0
VERTEX
  8
0
  5
503A
 10
-252.221
 20
-11.3491
 30
2.52991e-15
  70
    32
  0
VERTEX
  8
0
  5
503B
 10
-252.225
 20
-11.3729
 30
2.53547e-15
  70
    32
  0
VERTEX
  8
0
  5
503C
 10
-252.229
 20
-11.3968
 30
2.54105e-15
  70
    32
  0
VERTEX
  8
0
  5
503D
 10
-252.233
 20
-11.4208
 30
2.54663e-15
  70
    32
  0
VERTEX
  8
0
  5
503E
 10
-252.236
 20
-11.4447
 30
2.55222e-15
  70
    32
  0
VERTEX
  8
0
  5
503F
 10
-252.240
 20
-11.4687
 30
2.55782e-15
  70
    32
  0
VERTEX
  8
0
  5
5040
 10
-252.243
 20
-11.4928
 30
2.56344e-15
  70
    32
  0
VERTEX
  8
0
  5
5041
 10
-252.247
 20
-11.5169
 30
2.56906e-15
  70
    32
  0
VERTEX
  8
0
  5
5042
 10
-252.250
 20
-11.5410
 30
2.57469e-15
  70
    32
  0
VERTEX
  8
0
  5
5043
 10
-252.253
 20
-11.5652
 30
2.58033e-15
  70
    32
  0
VERTEX
  8
0
  5
5044
 10
-252.256
 20
-11.5894
 30
2.58597e-15
  70
    32
  0
VERTEX
  8
0
  5
5045
 10
-252.259
 20
-11.6136
 30
2.59163e-15
  70
    32
  0
VERTEX
  8
0
  5
5046
 10
-252.261
 20
-11.6379
 30
2.59729e-15
  70
    32
  0
VERTEX
  8
0
  5
5047
 10
-252.264
 20
-11.6622
 30
2.60296e-15
  70
    32
  0
VERTEX
  8
0
  5
5048
 10
-252.266
 20
-11.6865
 30
2.60863e-15
  70
    32
  0
VERTEX
  8
0
  5
5049
 10
-252.268
 20
-11.7108
 30
2.61431e-15
  70
    32
  0
VERTEX
  8
0
  5
504A
 10
-252.270
 20
-11.7352
 30
2.62000e-15
  70
    32
  0
VERTEX
  8
0
  5
504B
 10
-252.272
 20
-11.7596
 30
2.62569e-15
  70
    32
  0
VERTEX
  8
0
  5
504C
 10
-252.274
 20
-11.7840
 30
2.63139e-15
  70
    32
  0
VERTEX
  8
0
  5
504D
 10
-252.276
 20
-11.8084
 30
2.63709e-15
  70
    32
  0
VERTEX
  8
0
  5
504E
 10
-252.277
 20
-11.8329
 30
2.64280e-15
  70
    32
  0
VERTEX
  8
0
  5
504F
 10
-252.278
 20
-11.8574
 30
2.64850e-15
  70
    32
  0
VERTEX
  8
0
  5
5050
 10
-252.280
 20
-11.8818
 30
2.65422e-15
  70
    32
  0
VERTEX
  8
0
  5
5051
 10
-252.281
 20
-11.9063
 30
2.65993e-15
  70
    32
  0
VERTEX
  8
0
  5
5052
 10
-252.282
 20
-11.9309
 30
2.66565e-15
  70
    32
  0
VERTEX
  8
0
  5
5053
 10
-252.282
 20
-11.9554
 30
2.67137e-15
  70
    32
  0
VERTEX
  8
0
  5
5054
 10
-252.283
 20
-11.9799
 30
2.67710e-15
  70
    32
  0
VERTEX
  8
0
  5
5055
 10
-252.284
 20
-12.0044
 30
2.68282e-15
  70
    32
  0
VERTEX
  8
0
  5
5056
 10
-252.284
 20
-12.0290
 30
2.68855e-15
  70
    32
  0
VERTEX
  8
0
  5
5057
 10
-252.284
 20
-12.0535
 30
2.69427e-15
  70
    32
  0
VERTEX
  8
0
  5
5058
 10
-252.284
 20
-12.0781
 30
2.70000e-15
  70
    32
  0
VERTEX
  8
0
  5
5059
 10
-252.284
 20
-12.1026
 30
2.70573e-15
  70
    32
  0
VERTEX
  8
0
  5
505A
 10
-252.284
 20
-12.1271
 30
2.71145e-15
  70
    32
  0
VERTEX
  8
0
  5
505B
 10
-252.284
 20
-12.1517
 30
2.71718e-15
  70
    32
  0
VERTEX
  8
0
  5
505C
 10
-252.283
 20
-12.1762
 30
2.72290e-15
  70
    32
  0
VERTEX
  8
0
  5
505D
 10
-252.282
 20
-12.2007
 30
2.72863e-15
  70
    32
  0
VERTEX
  8
0
  5
505E
 10
-252.282
 20
-12.2253
 30
2.73435e-15
  70
    32
  0
VERTEX
  8
0
  5
505F
 10
-252.281
 20
-12.2498
 30
2.74007e-15
  70
    32
  0
VERTEX
  8
0
  5
5060
 10
-252.280
 20
-12.2743
 30
2.74578e-15
  70
    32
  0
VERTEX
  8
0
  5
5061
 10
-252.278
 20
-12.2988
 30
2.75150e-15
  70
    32
  0
VERTEX
  8
0
  5
5062
 10
-252.277
 20
-12.3232
 30
2.75720e-15
  70
    32
  0
VERTEX
  8
0
  5
5063
 10
-252.276
 20
-12.3477
 30
2.76291e-15
  70
    32
  0
VERTEX
  8
0
  5
5064
 10
-252.274
 20
-12.3721
 30
2.76861e-15
  70
    32
  0
VERTEX
  8
0
  5
5065
 10
-252.272
 20
-12.3965
 30
2.77431e-15
  70
    32
  0
VERTEX
  8
0
  5
5066
 10
-252.270
 20
-12.4209
 30
2.78000e-15
  70
    32
  0
VERTEX
  8
0
  5
5067
 10
-252.268
 20
-12.4453
 30
2.78569e-15
  70
    32
  0
VERTEX
  8
0
  5
5068
 10
-252.266
 20
-12.4696
 30
2.79137e-15
  70
    32
  0
VERTEX
  8
0
  5
5069
 10
-252.264
 20
-12.4940
 30
2.79704e-15
  70
    32
  0
VERTEX
  8
0
  5
506A
 10
-252.261
 20
-12.5182
 30
2.80271e-15
  70
    32
  0
VERTEX
  8
0
  5
506B
 10
-252.259
 20
-12.5425
 30
2.80837e-15
  70
    32
  0
VERTEX
  8
0
  5
506C
 10
-252.256
 20
-12.5667
 30
2.81403e-15
  70
    32
  0
VERTEX
  8
0
  5
506D
 10
-252.253
 20
-12.5909
 30
2.81967e-15
  70
    32
  0
VERTEX
  8
0
  5
506E
 10
-252.250
 20
-12.6151
 30
2.82531e-15
  70
    32
  0
VERTEX
  8
0
  5
506F
 10
-252.247
 20
-12.6392
 30
2.83094e-15
  70
    32
  0
VERTEX
  8
0
  5
5070
 10
-252.243
 20
-12.6633
 30
2.83656e-15
  70
    32
  0
VERTEX
  8
0
  5
5071
 10
-252.240
 20
-12.6874
 30
2.84218e-15
  70
    32
  0
VERTEX
  8
0
  5
5072
 10
-252.236
 20
-12.7114
 30
2.84778e-15
  70
    32
  0
VERTEX
  8
0
  5
5073
 10
-252.233
 20
-12.7354
 30
2.85337e-15
  70
    32
  0
VERTEX
  8
0
  5
5074
 10
-252.229
 20
-12.7593
 30
2.85895e-15
  70
    32
  0
VERTEX
  8
0
  5
5075
 10
-252.225
 20
-12.7832
 30
2.86453e-15
  70
    32
  0
VERTEX
  8
0
  5
5076
 10
-252.221
 20
-12.8070
 30
2.87009e-15
  70
    32
  0
VERTEX
  8
0
  5
5077
 10
-252.216
 20
-12.8308
 30
2.87564e-15
  70
    32
  0
VERTEX
  8
0
  5
5078
 10
-252.212
 20
-12.8545
 30
2.88117e-15
  70
    32
  0
VERTEX
  8
0
  5
5079
 10
-252.207
 20
-12.8782
 30
2.88670e-15
  70
    32
  0
VERTEX
  8
0
  5
507A
 10
-252.203
 20
-12.9018
 30
2.89221e-15
  70
    32
  0
VERTEX
  8
0
  5
507B
 10
-252.198
 20
-12.9254
 30
2.89771e-15
  70
    32
  0
VERTEX
  8
0
  5
507C
 10
-252.193
 20
-12.9489
 30
2.90320e-15
  70
    32
  0
VERTEX
  8
0
  5
507D
 10
-252.188
 20
-12.9724
 30
2.90867e-15
  70
    32
  0
VERTEX
  8
0
  5
507E
 10
-252.182
 20
-12.9958
 30
2.91413e-15
  70
    32
  0
VERTEX
  8
0
  5
507F
 10
-252.177
 20
-13.0191
 30
2.91958e-15
  70
    32
  0
VERTEX
  8
0
  5
5080
 10
-252.172
 20
-13.0424
 30
2.92501e-15
  70
    32
  0
VERTEX
  8
0
  5
5081
 10
-252.166
 20
-13.0656
 30
2.93042e-15
  70
    32
  0
VERTEX
  8
0
  5
5082
 10
-252.160
 20
-13.0887
 30
2.93582e-15
  70
    32
  0
VERTEX
  8
0
  5
5083
 10
-252.154
 20
-13.1118
 30
2.94121e-15
  70
    32
  0
VERTEX
  8
0
  5
5084
 10
-252.148
 20
-13.1348
 30
2.94658e-15
  70
    32
  0
VERTEX
  8
0
  5
5085
 10
-252.142
 20
-13.1577
 30
2.95193e-15
  70
    32
  0
VERTEX
  8
0
  5
5086
 10
-252.136
 20
-13.1806
 30
2.95726e-15
  70
    32
  0
VERTEX
  8
0
  5
5087
 10
-252.129
 20
-13.2034
 30
2.96258e-15
  70
    32
  0
VERTEX
  8
0
  5
5088
 10
-252.123
 20
-13.2261
 30
2.96788e-15
  70
    32
  0
VERTEX
  8
0
  5
5089
 10
-252.116
 20
-13.2487
 30
2.97316e-15
  70
    32
  0
VERTEX
  8
0
  5
508A
 10
-252.109
 20
-13.2713
 30
2.97842e-15
  70
    32
  0
VERTEX
  8
0
  5
508B
 10
-252.102
 20
-13.2938
 30
2.98367e-15
  70
    32
  0
VERTEX
  8
0
  5
508C
 10
-252.095
 20
-13.3162
 30
2.98889e-15
  70
    32
  0
VERTEX
  8
0
  5
508D
 10
-252.088
 20
-13.3385
 30
2.99410e-15
  70
    32
  0
VERTEX
  8
0
  5
508E
 10
-252.081
 20
-13.3607
 30
2.99929e-15
  70
    32
  0
VERTEX
  8
0
  5
508F
 10
-252.073
 20
-13.3829
 30
3.00446e-15
  70
    32
  0
VERTEX
  8
0
  5
5090
 10
-252.065
 20
-13.4049
 30
3.00960e-15
  70
    32
  0
VERTEX
  8
0
  5
5091
 10
-252.058
 20
-13.4269
 30
3.01473e-15
  70
    32
  0
VERTEX
  8
0
  5
5092
 10
-252.050
 20
-13.4488
 30
3.01983e-15
  70
    32
  0
VERTEX
  8
0
  5
5093
 10
-252.042
 20
-13.4706
 30
3.02492e-15
  70
    32
  0
VERTEX
  8
0
  5
5094
 10
-252.034
 20
-13.4922
 30
3.02998e-15
  70
    32
  0
VERTEX
  8
0
  5
5095
 10
-252.025
 20
-13.5138
 30
3.03502e-15
  70
    32
  0
VERTEX
  8
0
  5
5096
 10
-252.017
 20
-13.5353
 30
3.04003e-15
  70
    32
  0
VERTEX
  8
0
  5
5097
 10
-252.009
 20
-13.5568
 30
3.04503e-15
  70
    32
  0
VERTEX
  8
0
  5
5098
 10
-252.000
 20
-13.5781
 30
3.05000e-15
  70
    32
  0
SEQEND
  8
0
  5
5099
  0
LINE
  5
4A2A
  8
0
  6
VERDECKT
 62
     1
 10
-251.9999864068959141
 20
-13.5780565413619492
 30
0.000000000000003
 11
-249.0760998666895887
 21
-20.7400866306591816
 31
0.0000000000000046
210
-0.0000000000000002
220
1.0
230
-0.0000000000000002
  0
LINE
  5
4A2B
  8
0
  6
VERDECKT
 62
     1
 10
-272.5754796822650974
 20
0.9119434586380318
 30
-0.0000000000000002
 11
-272.5754796822650974
 21
-19.0880565413619685
 31
0.0000000000000042
210
-0.0000000000000002
220
1.0
230
-0.0000000000000002
  0
LINE
  5
4A2C
  8
0
  6
VERDECKT
 62
     1
 10
-132.3851148371990973
 20
0.9119434586381
 30
-0.0000000000000002
 11
-134.3451148371991053
 21
2.9119434586380901
 31
-0.0000000000000006
210
-0.0000000000000002
220
1.0
230
-0.0000000000000002
  0
LINE
  5
4A2D
  8
0
  6
VERDECKT
 62
     1
 10
-125.9051148371990934
 20
0.9119434586381014
 30
-0.0000000000000002
 11
-123.9451148371990001
 21
2.9119434586380981
 31
-0.0000000000000006
210
-0.0000000000000002
220
1.0
230
-0.0000000000000002
  0
LINE
  5
4A2E
  8
0
  6
VERDECKT
 62
     1
 10
-125.7147499921327949
 20
0.9119434586380929
 30
-0.0000000000000002
 11
-125.7147499921327949
 21
-19.0880565413619117
 31
0.0000000000000042
210
-0.0000000000000002
220
1.0
230
-0.0000000000000002
  0
ENDBLK
  5
4A30
  8
0
  0
ENDSEC
  0
SECTION
  2
ENTITIES
  0
TEXT
  5
1D14
  8
VOLL
 10
1006.077847837441027
 20
74.89541378373724
 30
0.0
 40
1.8
  1

  7
GREEKS
  0
TEXT
  5
1D15
  8
VOLL
 10
1127.4806165066220274
 20
282.215821828999708
 30
0.0
 40
1.8
  1

  7
GREEKS
  0
TEXT
  5
1D16
  8
VOLL
 10
1457.3138274710420319
 20
98.6263977949065662
 30
0.0
 40
1.8
  1

  7
GREEKS
  0
TEXT
  5
1D17
  8
VOLL
 10
1453.4815509567049503
 20
87.4225740664456907
 30
0.0
 40
1.8
  1

  7
GREEKS
  0
INSERT
  5
26FB
  8
ADSK_ASSOC_ENTITY_BACKUPS
  2
*S0
 10
0.0
 20
0.0
 30
0.0
  0
INSERT
  5
4991
  8
STEMPEL
  2
A$CADDE01B2
 10
195.448929197789397
 20
-276.0667216322885906
 30
0.0000000000000109
  0
INSERT
  5
49B9
  8
STEMPEL
  2
A$CBE4F9D1E
 10
195.448929197789397
 20
78.0142828906490422
 30
0.0000000000001208
  0
INSERT
  5
4A31
  8
STEMPEL
  2
A$C6EB8819F
 10
1213.9484383424301086
 20
78.014282890649099
 30
0.0000000000001208
  0
VIEWPORT
  5
241F
 67
     1
  8
0
 10
205.9349743957648116
 20
145.3178868056388069
 30
0.0
 40
533.9969448798290159
 41
299.1239570917758783
 68
     1
 69
     1
1001
ACAD
1000
MVIEW
1002
{
1070
    16
1010
0.0
1020
0.0
1030
0.0
1010
0.0
1020
0.0
1030
1.0
1040
0.0
1040
299.1239570917758783
1040
205.9349743957648116
1040
145.3178868056388069
1040
50.0
1040
0.0
1040
0.0
1070
     0
1070
  1500
1070
     1
1070
     1
1070
     0
1070
     0
1070
     0
1070
     0
1040
0.0
1040
0.0
1040
0.0
1040
10.0
1040
10.0
1040
10.0
1040
10.0
1070
     0
1002
{
1002
}
1002
}
  0
INSERT
  5
40A3
 67
     1
  8
BEM
 62
     2
  2
_NONE
 10
159.8764599517195109
 20
256.1374273565868975
 30
-0.0000000000000524
 41
3.0
 42
3.0
 43
3.0
 50
312.253688568195173
  0
INSERT
  5
40A8
 67
     1
  8
BEM
 62
     2
  2
_NONE
 10
76.85737312785173
 20
259.2235059106886865
 30
-0.0000000000000524
 41
3.0
 42
3.0
 43
3.0
 50
225.0000000000543992
  0
INSERT
  5
44BF
 67
     1
  8
BEM
 62
     2
  2
_NONE
 10
91.637534323232515
 20
185.5919002817115029
 30
0.0
 41
3.0
 42
3.0
 43
3.0
 50
315.6371644243066044
  0
INSERT
  5
458B
 67
     1
  8
BEM
 62
     2
  2
_NONE
 10
76.85737312785173
 20
259.2235059106886865
 30
0.0
 41
3.0
 42
3.0
 43
3.0
 50
225.0000000000543992
  0
INSERT
  5
4590
 67
     1
  8
BEM
 62
     2
  2
_NONE
 10
159.8764599517195109
 20
256.1374273565868975
 30
0.0
 41
3.0
 42
3.0
 43
3.0
 50
312.253688568195173
  0
ENDSEC
  0
EOF
