  0
SECTION
  2
HEADER
  9
$ACADVER
  1
AC1009
  9
$INSBASE
 10
0.0
 20
0.0
 30
0.0
  9
$EXTMIN
 10
430.835845947265625
 20
-222.6442565917969034
 30
-0.0000000000001447
  9
$EXTMAX
 10
1255.8358154296870453
 20
177.3557434082030966
 30
0.0000000000001114
  9
$LIMMIN
 10
0.0
 20
0.0
  9
$LIMMAX
 10
595.0
 20
421.0
  9
$ORTHOMODE
 70
     1
  9
$REGENMODE
 70
     1
  9
$FILLMODE
 70
     1
  9
$QTEXTMODE
 70
     0
  9
$MIRRTEXT
 70
     1
  9
$DRAGMODE
 70
     2
  9
$LTSCALE
 40
10.0
  9
$OSMODE
 70
  1279
  9
$ATTMODE
 70
     1
  9
$TEXTSIZE
 40
3.5
  9
$TRACEWID
 40
1.0
  9
$TEXTSTYLE
  7
STANDARD
  9
$CLAYER
  8
STEMPEL
  9
$CELTYPE
  6
BYLAYER
  9
$CECOLOR
 62
   256
  9
$DIMSCALE
 40
1.0
  9
$DIMASZ
 40
3.5
  9
$DIMEXO
 40
1.0
  9
$DIMDLI
 40
0.38
  9
$DIMRND
 40
0.0
  9
$DIMDLE
 40
0.0
  9
$DIMEXE
 40
1.0
  9
$DIMTP
 40
0.0
  9
$DIMTM
 40
0.000000001
  9
$DIMTXT
 40
3.5
  9
$DIMCEN
 40
0.09
  9
$DIMTSZ
 40
0.0
  9
$DIMTOL
 70
     0
  9
$DIMLIM
 70
     0
  9
$DIMTIH
 70
     0
  9
$DIMTOH
 70
     0
  9
$DIMSE1
 70
     0
  9
$DIMSE2
 70
     0
  9
$DIMTAD
 70
     1
  9
$DIMZIN
 70
     8
  9
$DIMBLK
  1

  9
$DIMASO
 70
     1
  9
$DIMSHO
 70
     0
  9
$DIMPOST
  1

  9
$DIMAPOST
  1

  9
$DIMALT
 70
     0
  9
$DIMALTD
 70
     2
  9
$DIMALTF
 40
25.3999999999999986
  9
$DIMLFAC
 40
2.0
  9
$DIMTOFL
 70
     1
  9
$DIMTVP
 40
0.0
  9
$DIMTIX
 70
     0
  9
$DIMSOXD
 70
     0
  9
$DIMSAH
 70
     0
  9
$DIMBLK1
  1

  9
$DIMBLK2
  1

  9
$DIMSTYLE
  2
LORO
  9
$DIMCLRD
 70
     0
  9
$DIMCLRE
 70
     0
  9
$DIMCLRT
 70
     1
  9
$DIMTFAC
 40
0.5
  9
$DIMGAP
 40
1.5
  9
$LUNITS
 70
     2
  9
$LUPREC
 70
     4
  9
$SKETCHINC
 40
1.0
  9
$FILLETRAD
 40
6.0
  9
$AUNITS
 70
     0
  9
$AUPREC
 70
     4
  9
$MENU
  1
ACAD
  9
$ELEVATION
 40
0.0
  9
$PELEVATION
 40
0.0
  9
$THICKNESS
 40
0.0
  9
$LIMCHECK
 70
     0
  9
$BLIPMODE
 70
     0
  9
$CHAMFERA
 40
0.0
  9
$CHAMFERB
 40
0.0
  9
$SKPOLY
 70
     0
  9
$TDCREATE
 40
2457905.5340046300552785
  9
$TDUPDATE
 40
2460518.3013194440864027
  9
$TDINDWG
 40
2.7305092593000002
  9
$TDUSRTIMER
 40
2.7305092593000002
  9
$USRTIMER
 70
     1
  9
$ANGBASE
 50
0.0
  9
$ANGDIR
 70
     0
  9
$PDMODE
 70
     0
  9
$PDSIZE
 40
0.0
  9
$PLINEWID
 40
0.0
  9
$COORDS
 70
     1
  9
$SPLFRAME
 70
     0
  9
$SPLINETYPE
 70
     6
  9
$SPLINESEGS
 70
     8
  9
$ATTDIA
 70
     1
  9
$ATTREQ
 70
     1
  9
$HANDLING
 70
     1
  9
$HANDSEED
  5
70455
  9
$SURFTAB1
 70
     6
  9
$SURFTAB2
 70
     6
  9
$SURFTYPE
 70
     6
  9
$SURFU
 70
     6
  9
$SURFV
 70
     6
  9
$UCSNAME
  2

  9
$UCSORG
 10
430.8358396717546839
 20
-22.6442492068264194
 30
0.0
  9
$UCSXDIR
 10
1.0
 20
0.0
 30
0.0
  9
$UCSYDIR
 10
0.0
 20
1.0
 30
0.0
  9
$PUCSNAME
  2

  9
$PUCSORG
 10
0.0
 20
0.0
 30
0.0
  9
$PUCSXDIR
 10
1.0
 20
0.0
 30
0.0
  9
$PUCSYDIR
 10
0.0
 20
1.0
 30
0.0
  9
$USERI1
 70
     0
  9
$USERI2
 70
     0
  9
$USERI3
 70
     0
  9
$USERI4
 70
     0
  9
$USERI5
 70
     0
  9
$USERR1
 40
0.0
  9
$USERR2
 40
0.0
  9
$USERR3
 40
0.0
  9
$USERR4
 40
0.0
  9
$USERR5
 40
0.0
  9
$WORLDVIEW
 70
     1
  9
$SHADEDGE
 70
     3
  9
$SHADEDIF
 70
    70
  9
$TILEMODE
 70
     1
  9
$MAXACTVP
 70
    16
  9
$PLIMCHECK
 70
     0
  9
$PEXTMIN
 10
1.0000000000000000E+20
 20
1.0000000000000000E+20
 30
1.0000000000000000E+20
  9
$PEXTMAX
 10
-1.0000000000000000E+20
 20
-1.0000000000000000E+20
 30
-1.0000000000000000E+20
  9
$PLIMMIN
 10
-0.25
 20
-0.2500000000000568
  9
$PLIMMAX
 10
593.75
 20
419.7499999999998863
  9
$UNITMODE
 70
     0
  9
$VISRETAIN
 70
     0
  9
$PLINEGEN
 70
     0
  9
$PSLTSCALE
 70
     0
  0
ENDSEC
  0
SECTION
  2
TABLES
  0
TABLE
  2
VPORT
 70
     1
  0
VPORT
  2
*ACTIVE
 70
     0
 10
0.0
 20
0.0
 11
1.0
 21
1.0
 12
0.0
 22
0.0
 13
0.0
 23
0.0
 14
1.0
 24
1.0
 15
10.0
 25
10.0
 16
-0.0000000000003411
 26
0.0
 36
1776.5138324570818895
 17
890.2416450146819216
 27
-58.1423366891880917
 37
200.0
 40
689.233828603280017
 41
1.92034632034632
 42
49.9999999999947491
 43
0.0
 44
0.0
 50
0.0
 51
0.0
 71
     0
 72
  1500
 73
     1
 74
     1
 75
     0
 76
     0
 77
     0
 78
     0
  0
ENDTAB
  0
TABLE
  2
LTYPE
 70
     3
  0
LTYPE
  2
CONTINUOUS
 70
     0
  3
Solid line
 72
    65
 73
     0
 40
0.0
  0
LTYPE
  2
STRICHPUNKT
 70
     0
  3
__ . __ . __ . __ . __ . __ . __ . __ . __ . __
 72
    65
 73
     4
 40
1.0
 49
0.5
 49
-0.25
 49
0.0
 49
-0.25
  0
LTYPE
  2
VERDECKT
 70
     0
  3
Verdeckt __ __ __ __ __ __ __ __ __ __ __ __ __
 72
    65
 73
     2
 40
9.5249999999999986
 49
6.3499999999999988
 49
-3.1749999999999989
  0
ENDTAB
  0
TABLE
  2
LAYER
 70
     8
  0
LAYER
  2
0
 70
     0
 62
     7
  6
CONTINUOUS
  0
LAYER
  2
STEMPEL
 70
     0
 62
     3
  6
CONTINUOUS
  0
LAYER
  2
ADSK_ASSOC_ENTITY_BACKUPS
 70
     1
 62
    -7
  6
CONTINUOUS
  0
LAYER
  2
DEFPOINTS
 70
     0
 62
     7
  6
CONTINUOUS
  0
ENDTAB
  0
TABLE
  2
STYLE
 70
     3
  0
STYLE
  2
STANDARD
 70
     0
 40
0.0
 41
0.8
 50
0.0
 71
     0
 42
3.5
  3
simplex.shx
  4

  0
STYLE
  2
GREEKS
 70
     0
 40
0.0
 41
0.8
 50
0.0
 71
     0
 42
2.5
  3
SIMPLEX.shx
  4

  0
ENDTAB
  0
TABLE
  2
VIEW
 70
     0
  0
ENDTAB
  0
TABLE
  2
UCS
 70
     0
  0
ENDTAB
  0
TABLE
  2
APPID
 70
    36
  0
APPID
  2
ACAD
 70
     0
  0
APPID
  2
ACAD_NAV_VCDISPLAY
 70
     0
  0
APPID
  2
ACAD_EXEMPT_FROM_CAD_STANDARDS
 70
     0
  0
APPID
  2
ACAD_PSEXT
 70
     0
  0
APPID
  2
ACAUTHENVIRON
 70
     0
  0
APPID
  2
ACDBDYNAMICBLOCKTRUENAME
 70
     0
  0
APPID
  2
ACDBDYNAMICBLOCKGUID
 70
     0
  0
APPID
  2
ACAECLAYERSTANDARD
 70
     0
  0
APPID
  2
ACCMTRANSPARENCY
 70
     0
  0
APPID
  2
ACAD_STEPID
 70
     0
  0
APPID
  2
ACSYNERGY
 70
     0
  0
APPID
  2
SYNERGY_BODY_TBR_ID
 70
     0
  0
APPID
  2
ACAD_VIEW_EDGE_ID
 70
     0
  0
APPID
  2
ACAD_DSTYLE_DIMJAG
 70
     0
  0
APPID
  2
ACAD_DSTYLE_DIMTALN
 70
     0
  0
APPID
  2
ACADANNOMONITORALERTICONDI
 70
     0
  0
APPID
  2
ACAD_ASSOCPERSSUBENTMANAGER
 70
     0
  0
APPID
  2
ACADANNOTATIVE
 70
     0
  0
APPID
  2
ACSYNERGYSKETCH
 70
     0
  0
APPID
  2
ACAD_MODELDOC_XFORM
 70
     0
  0
APPID
  2
ACAD_DIMASSOC_CALC_DIMLFAC
 70
     0
  0
APPID
  2
ACAD_DIMASSOC_DIMLFAC
 70
     0
  0
APPID
  2
ACAD_DIMASSOC_OVERRIDDEN_D
 70
     0
  0
APPID
  2
ACAD_DSTYLE_DIMRADIAL_EXTENSION
 70
     0
  0
APPID
  2
RAK
 70
     0
  0
APPID
  2
MCAD_NO_VIS
 70
     0
  0
APPID
  2
ACAD_TEMP_GRAPHIC
 70
     0
  0
APPID
  2
ACATTRIBSERVICES
 70
     0
  0
APPID
  2
DESIGNERASSEMBLIES
 70
     0
  0
APPID
  2
ACAD_DSTYLE_DIMBREAK
 70
     0
  0
APPID
  2
ACADANNOPO
 70
     0
  0
APPID
  2
ACADANNOAV
 70
     0
  0
APPID
  2
DCO15
 70
     0
  0
APPID
  2
PLOTTRANSPARENCY
 70
     0
  0
APPID
  2
ACAD_TC
 70
     0
  0
APPID
  2
ACAD_MLEADERVER
 70
     0
  0
ENDTAB
  0
TABLE
  2
DIMSTYLE
 70
     2
  0
DIMSTYLE
  2
LORO
 70
     0
  3

  4

  5

  6

  7

 40
1.0
 41
3.5
 42
1.0
 43
0.38
 44
1.0
 45
0.0
 46
0.0
 47
0.0
 48
0.000000001
140
3.5
141
0.09
142
0.0
143
25.3999999999999986
144
2.0
145
0.0
146
0.5
147
1.5
 71
     0
 72
     0
 73
     0
 74
     0
 75
     0
 76
     0
 77
     1
 78
     8
170
     0
171
     2
172
     1
173
     0
174
     0
175
     0
176
     0
177
     0
178
     1
  0
DIMSTYLE
  2
STANDARD
 70
     0
  3

  4

  5

  6

  7

 40
1.0
 41
0.18
 42
0.0625
 43
0.38
 44
0.18
 45
0.0
 46
0.0
 47
0.0
 48
0.0
140
0.18
141
0.09
142
0.0
143
25.3999999999999986
144
1.0
145
0.0
146
1.0
147
0.09
 71
     0
 72
     0
 73
     1
 74
     1
 75
     0
 76
     0
 77
     0
 78
     0
170
     0
171
     2
172
     0
173
     0
174
     0
175
     0
176
     0
177
     0
178
     0
  0
ENDTAB
  0
ENDSEC
  0
SECTION
  2
BLOCKS
  0
BLOCK
  8
0
  2
$MODEL_SPACE
 70
     0
 10
0.0
 20
0.0
 30
0.0
  3
$MODEL_SPACE
  1

  0
ENDBLK
  5
38
  8
0
  0
BLOCK
 67
     1
  8
0
  2
$PAPER_SPACE
 70
     0
 10
0.0
 20
0.0
 30
0.0
  3
$PAPER_SPACE
  1

  0
ENDBLK
  5
36
 67
     1
  8
0
  0
BLOCK
  8
0
  2
*S0
 70
     1
 10
0.0
 20
0.0
 30
0.0
  3
*S0
  1

  0
ENDBLK
  5
571
  8
0
  0
BLOCK
  8
0
  2
A$CBE989C7B
 70
     0
 10
0.0
 20
0.0
 30
0.0
  3
A$CBE989C7B
  1

  0
LINE
  5
702C6
  8
0
  6
CONTINUOUS
 62
     3
 10
-1.999999999999829
 20
254.5116634277254093
 30
-0.0000000000000711
 11
-1.999999999999829
 21
145.4883365722751023
 31
-0.0000000000000462
210
0.0
220
1.0
230
-0.0000000000000002
  0
LINE
  5
702C7
  8
0
  6
CONTINUOUS
 62
     3
 10
323.0000000000001137
 20
250.5000000000003126
 30
-0.0000000000000426
 11
323.0000000000001137
 21
149.500000000000199
 31
-0.0000000000000178
210
0.0
220
1.0
230
-0.0000000000000002
  0
LINE
  5
702C8
  8
0
  6
CONTINUOUS
 62
     3
 10
315.0000000000001137
 20
251.5000000000003126
 30
-0.0000000000000426
 11
315.0000000000001137
 21
148.500000000000199
 31
-0.0000000000000178
210
0.0
220
1.0
230
-0.0000000000000002
  0
ARC
  5
702C9
  8
0
  6
CONTINUOUS
 62
     3
 10
-10.60000000000184
 20
233.499999999997101
 30
0.0000000000000157
 40
24.5000000000035492
210
0.0
220
-0.0000000000000002
230
-1.0
 50
59.0502769211398615
 51
64.3639517221213424
  0
ARC
  5
702CA
  8
0
  6
CONTINUOUS
 62
     3
 10
-10.60000000000184
 20
166.5000000000032969
 30
0.0000000000000128
 40
24.5000000000034888
210
0.0
220
-0.0000000000000002
230
-1.0
 50
295.6360482778786718
 51
300.9497230788600746
  0
LINE
  5
702CB
  8
0
  6
CONTINUOUS
 62
     3
 10
323.0000000000001137
 20
149.500000000000199
 30
-0.0000000000000178
 11
315.0000000000001137
 21
148.500000000000199
 31
-0.0000000000000178
210
0.0
220
1.0
230
-0.0000000000000002
  0
LINE
  5
702CC
  8
0
  6
CONTINUOUS
 62
     3
 10
323.0000000000001137
 20
250.5000000000003126
 30
-0.0000000000000426
 11
315.0000000000001137
 21
251.5000000000003126
 31
-0.0000000000000426
210
0.0
220
1.0
230
-0.0000000000000002
  0
LINE
  5
702CD
  8
0
  6
CONTINUOUS
 62
     3
 10
315.0000000000001137
 20
148.500000000000199
 30
-0.0000000000000178
 11
212.9999999999998863
 21
148.500000000000199
 31
-0.0000000000000178
210
0.0
220
1.0
230
-0.0000000000000002
  0
LINE
  5
702CE
  8
0
  6
CONTINUOUS
 62
     3
 10
315.0000000000001137
 20
251.5000000000003126
 30
-0.0000000000000426
 11
212.9999999999998863
 21
251.5000000000003126
 31
-0.0000000000000426
210
0.0
220
1.0
230
-0.0000000000000002
  0
LINE
  5
702CF
  8
0
  6
CONTINUOUS
 62
     3
 10
211.0000000000001137
 20
133.4999999999994884
 30
-0.0000000000000142
 11
211.0000000000001137
 21
266.5
 31
-0.0000000000000462
210
0.0
220
1.0
230
-0.0000000000000002
  0
LINE
  5
702D0
  8
0
  6
CONTINUOUS
 62
     3
 10
1.000000000000113
 20
266.5
 30
-0.0000000000000462
 11
211.0000000000001137
 21
266.5
 31
-0.0000000000000462
210
0.0
220
1.0
230
-0.0000000000000002
  0
LINE
  5
702D1
  8
0
  6
CONTINUOUS
 62
     3
 10
1.000000000000113
 20
133.5
 30
-0.0000000000000142
 11
211.0000000000001137
 21
133.5
 31
-0.0000000000000142
210
0.0
220
1.0
230
-0.0000000000000002
  0
LINE
  5
702D2
  8
0
  6
CONTINUOUS
 62
     3
 10
212.9999999999998863
 20
134.4999999999998863
 30
-0.0000000000000426
 11
212.9999999999998863
 21
265.5
 31
-0.0000000000000746
210
0.0
220
1.0
230
-0.0000000000000002
  0
LINE
  5
702D3
  8
0
  6
CONTINUOUS
 62
     3
 10
210.9999999999998863
 20
265.4999999999998863
 30
-0.0000000000000746
 11
212.9999999999998863
 21
265.4999999999998863
 31
-0.0000000000000746
210
0.0
220
1.0
230
-0.0000000000000002
  0
LINE
  5
702D4
  8
0
  6
CONTINUOUS
 62
     3
 10
210.9999999999998863
 20
134.5
 30
-0.0000000000000426
 11
212.9999999999998863
 21
134.5
 31
-0.0000000000000426
210
0.0
220
1.0
230
-0.0000000000000002
  0
LINE
  5
702D5
  8
0
  6
CONTINUOUS
 62
     3
 10
1.0
 20
400.0000000000001137
 30
-0.0000000000000888
 11
0.0
 21
400.0000000000001137
 31
-0.0000000000000888
210
0.0
220
1.0
230
-0.0000000000000002
  0
LINE
  5
702D6
  8
0
  6
CONTINUOUS
 62
     3
 10
1.0
 20
400.0000000000002274
 30
-0.0000000000000888
 11
1.0
 21
380.0000000000001137
 31
-0.0000000000000853
210
0.0
220
1.0
230
-0.0000000000000002
  0
LINE
  5
702D7
  8
0
  6
CONTINUOUS
 62
     3
 10
0.0
 20
400.0000000000002274
 30
-0.0000000000000888
 11
0.0
 21
380.0000000000001137
 31
-0.0000000000000853
210
0.0
220
1.0
230
-0.0000000000000002
  0
LINE
  5
702D8
  8
0
  6
CONTINUOUS
 62
     3
 10
1.0
 20
20.0
 30
-0.0000000000000036
 11
1.0
 21
380.0000000000001137
 31
-0.0000000000000853
210
0.0
220
1.0
230
-0.0000000000000002
  0
LINE
  5
702D9
  8
0
  6
CONTINUOUS
 62
     3
 10
0.0
 20
20.0
 30
-0.0000000000000036
 11
0.0
 21
380.0000000000001137
 31
-0.0000000000000853
210
0.0
220
1.0
230
-0.0000000000000002
  0
LINE
  5
702DA
  8
0
  6
CONTINUOUS
 62
     3
 10
1.0
 20
20.0
 30
-0.0000000000000036
 11
1.0
 21
0.0000000000000015
 31
0.0
210
0.0
220
1.0
230
-0.0000000000000002
  0
LINE
  5
702DB
  8
0
  6
CONTINUOUS
 62
     3
 10
0.0
 20
20.0
 30
-0.0000000000000036
 11
0.0
 21
0.0000000000000015
 31
0.0
210
0.0
220
1.0
230
-0.0000000000000002
  0
LINE
  5
702DC
  8
0
  6
CONTINUOUS
 62
     3
 10
1.0
 20
0.0000000000000015
 30
0.0
 11
0.0
 21
0.0000000000000015
 31
0.0
210
0.0
220
1.0
230
-0.0000000000000002
  0
LINE
  5
702DD
  8
0
  6
VERDECKT
 62
     1
 10
-1.2285714285711711
 20
253.2252350545994091
 30
-0.0000000000000711
 11
-1.2285714285711711
 21
146.7747649454011025
 31
-0.0000000000000462
210
0.0
220
1.0
230
-0.0000000000000002
  0
LINE
  5
702DE
  8
0
  6
VERDECKT
 62
     1
 10
314.9066133775522758
 20
250.0000000000003126
 30
-0.0000000000000426
 11
314.9066133775522758
 21
150.000000000000199
 31
-0.0000000000000178
210
0.0
220
1.0
230
-0.0000000000000002
  0
LINE
  5
702DF
  8
0
  6
VERDECKT
 62
     1
 10
322.8139478981162256
 20
249.0115831849298047
 30
-0.0000000000000426
 11
322.8139478981162256
 21
150.9884168150707069
 31
-0.0000000000000178
210
0.0
220
1.0
230
-0.0000000000000002
  0
ARC
  5
702E0
  8
0
  6
VERDECKT
 62
     1
 10
-10.6000000000002998
 20
233.4999999999996874
 30
0.0000000000000157
 40
24.5000000000006288
210
0.0
220
-0.0000000000000002
230
-1.0
 50
64.363951722124412
 51
90.0
  0
ARC
  5
702E1
  8
0
  6
VERDECKT
 62
     1
 10
-10.6000000000001293
 20
166.5000000000003126
 30
0.0000000000000128
 40
24.5000000000000604
210
0.0
220
-0.0000000000000002
230
-1.0
 50
270.0
 51
295.6360482778756023
  0
LINE
  5
702E2
  8
0
  6
VERDECKT
 62
     1
 10
-1.2285714285711149
 20
146.7747649454011025
 30
-0.0000000000000462
 11
-1.999999999999772
 21
145.4883365722751023
 31
-0.0000000000000462
210
0.0
220
1.0
230
-0.0000000000000002
  0
LINE
  5
702E3
  8
0
  6
VERDECKT
 62
     1
 10
-1.2285714285711149
 20
253.2252350545994091
 30
-0.0000000000000711
 11
-1.999999999999772
 21
254.5116634277254093
 31
-0.0000000000000711
210
0.0
220
1.0
230
-0.0000000000000002
  0
ARC
  5
702E4
  8
0
  6
VERDECKT
 62
     1
 10
-10.6000000000003602
 20
233.4999999999996021
 30
0.0000000000000157
 40
23.0000000000006715
210
0.0
220
-0.0000000000000002
230
-1.0
 50
59.0502769211426823
 51
90.0
  0
ARC
  5
702E5
  8
0
  6
VERDECKT
 62
     1
 10
-10.6000000000002501
 20
166.5000000000005969
 30
0.0000000000000128
 40
23.0000000000002913
210
0.0
220
-0.0000000000000002
230
-1.0
 50
270.0
 51
300.9497230788572892
  0
LINE
  5
702E6
  8
0
  6
VERDECKT
 62
     1
 10
25.8000000000000718
 20
143.5000000000003126
 30
-0.0000000000000462
 11
10.6000000000001293
 21
143.5000000000003126
 31
-0.0000000000000462
210
0.0
220
1.0
230
-0.0000000000000002
  0
LINE
  5
702E7
  8
0
  6
VERDECKT
 62
     1
 10
25.8000000000000718
 20
256.5000000000002274
 30
-0.0000000000000711
 11
10.6000000000001293
 21
256.5000000000002274
 31
-0.0000000000000711
210
0.0
220
1.0
230
-0.0000000000000002
  0
ARC
  5
702E8
  8
0
  6
VERDECKT
 62
     1
 10
-25.7999999999993292
 20
233.499999999994003
 30
0.0000000000000157
 40
23.0000000000062812
210
0.0
220
-0.0000000000000002
230
-1.0
 50
90.0000000000032543
 51
103.6202174467454
  0
ARC
  5
702E9
  8
0
  6
VERDECKT
 62
     1
 10
-25.8000000000001215
 20
166.5000000000005116
 30
0.0000000000000128
 40
23.0000000000002309
210
0.0
220
-0.0000000000000002
230
-1.0
 50
256.3797825532512888
 51
270.0
  0
LINE
  5
702EA
  8
0
  6
VERDECKT
 62
     1
 10
39.3032090816142272
 20
146.1062915462096896
 30
-0.0000000000000462
 11
31.2161565087768587
 21
144.1468067455134019
 31
-0.0000000000000462
210
0.0
220
1.0
230
-0.0000000000000002
  0
LINE
  5
702EB
  8
0
  6
VERDECKT
 62
     1
 10
39.3032090816142272
 20
253.8937084537907936
 30
-0.0000000000000711
 11
31.2161565087768587
 21
255.8531932544871097
 31
-0.0000000000000711
210
0.0
220
1.0
230
-0.0000000000000002
  0
ARC
  5
702EC
  8
0
  6
VERDECKT
 62
     1
 10
-42.599999999999973
 20
267.4999999999984084
 30
0.0000000000000152
 40
13.9999999999982396
210
0.0
220
-0.0000000000000002
230
-1.0
 50
270.0
 51
283.6202174467488248
  0
ARC
  5
702ED
  8
0
  6
VERDECKT
 62
     1
 10
-42.599999999999973
 20
132.5000000000021032
 30
0.0000000000000132
 40
13.9999999999982396
210
0.0
220
-0.0000000000000002
230
-1.0
 50
76.379782553251232
 51
90.0
  0
LINE
  5
702EE
  8
0
  6
VERDECKT
 62
     1
 10
61.0000000000001208
 20
146.5000000000003126
 30
-0.0000000000000462
 11
42.6000000000001293
 21
146.5000000000003126
 31
-0.0000000000000462
210
0.0
220
1.0
230
-0.0000000000000002
  0
LINE
  5
702EF
  8
0
  6
VERDECKT
 62
     1
 10
61.0000000000001208
 20
253.500000000000199
 30
-0.0000000000000711
 11
42.6000000000001293
 21
253.500000000000199
 31
-0.0000000000000711
210
0.0
220
1.0
230
-0.0000000000000002
  0
ARC
  5
702F0
  8
0
  6
VERDECKT
 62
     1
 10
-61.0000000000000497
 20
240.4999999999998863
 30
0.0000000000000141
 40
13.0000000000002807
210
0.0
220
-0.0000000000000002
230
-1.0
 50
90.0
 51
112.6198649480389946
  0
ARC
  5
702F1
  8
0
  6
VERDECKT
 62
     1
 10
-61.0000000000000497
 20
159.5000000000005969
 30
0.0000000000000143
 40
13.0000000000002807
210
0.0
220
-0.0000000000000002
230
-1.0
 50
247.3801350519609912
 51
270.0
  0
LINE
  5
702F2
  8
0
  6
VERDECKT
 62
     1
 10
70.1538461538463025
 20
149.2307692307695106
 30
-0.0000000000000462
 11
66.0000000000001137
 21
147.5000000000003126
 31
-0.0000000000000462
210
0.0
220
1.0
230
-0.0000000000000002
  0
LINE
  5
702F3
  8
0
  6
VERDECKT
 62
     1
 10
70.1538461538463025
 20
250.769230769231001
 30
-0.0000000000000711
 11
66.0000000000001137
 21
252.5000000000003126
 31
-0.0000000000000711
210
0.0
220
1.0
230
-0.0000000000000002
  0
ARC
  5
702F4
  8
0
  6
VERDECKT
 62
     1
 10
-74.0000000000002842
 20
260.0000000000013074
 30
0.0000000000000133
 40
10.0000000000010196
210
0.0
220
-0.0000000000000002
230
-1.0
 50
270.0
 51
292.6198649480386962
  0
ARC
  5
702F5
  8
0
  6
VERDECKT
 62
     1
 10
-74.0
 20
140.0000000000005969
 30
0.0000000000000151
 40
9.9999999999996501
210
0.0
220
-0.0000000000000002
230
-1.0
 50
67.380135051960977
 51
90.0
  0
LINE
  5
702F6
  8
0
  6
VERDECKT
 62
     1
 10
314.9066133775522758
 20
150.0000000000003126
 30
-0.0000000000000178
 11
74.0000000000001705
 21
150.0000000000003126
 31
-0.0000000000000178
210
0.0
220
1.0
230
-0.0000000000000002
  0
LINE
  5
702F7
  8
0
  6
VERDECKT
 62
     1
 10
314.9066133775522758
 20
250.0000000000003126
 30
-0.0000000000000426
 11
74.0000000000001705
 21
250.0000000000003126
 31
-0.0000000000000426
210
0.0
220
1.0
230
-0.0000000000000002
  0
LINE
  5
702F8
  8
0
  6
VERDECKT
 62
     1
 10
322.8139478981162256
 20
150.9884168150707069
 30
-0.0000000000000178
 11
314.9066133775522189
 21
150.000000000000199
 31
-0.0000000000000178
210
0.0
220
1.0
230
-0.0000000000000002
  0
LINE
  5
702F9
  8
0
  6
VERDECKT
 62
     1
 10
322.8139478981162256
 20
249.0115831849298047
 30
-0.0000000000000426
 11
314.9066133775522189
 21
250.0000000000003126
 31
-0.0000000000000426
210
0.0
220
1.0
230
-0.0000000000000002
  0
LINE
  5
702FA
  8
0
  6
VERDECKT
 62
     1
 10
322.8139478981162256
 20
249.0115831849298047
 30
-0.0000000000000426
 11
323.0000000000001137
 21
250.5000000000003126
 31
-0.0000000000000426
210
0.0
220
1.0
230
-0.0000000000000002
  0
LINE
  5
702FB
  8
0
  6
VERDECKT
 62
     1
 10
322.8139478981162256
 20
150.9884168150707069
 30
-0.0000000000000178
 11
323.0000000000001137
 21
149.500000000000199
 31
-0.0000000000000178
210
0.0
220
1.0
230
-0.0000000000000002
  0
LINE
  5
702FC
  8
0
  6
VERDECKT
 62
     1
 10
212.9999999999998863
 20
148.500000000000199
 30
-0.0000000000000178
 11
74.0000000000001137
 21
148.500000000000199
 31
-0.0000000000000178
210
0.0
220
1.0
230
-0.0000000000000002
  0
LINE
  5
702FD
  8
0
  6
VERDECKT
 62
     1
 10
212.9999999999998863
 20
251.5000000000003126
 30
-0.0000000000000426
 11
74.0000000000001137
 21
251.5000000000003126
 31
-0.0000000000000426
210
0.0
220
1.0
230
-0.0000000000000002
  0
ARC
  5
702FE
  8
0
  6
VERDECKT
 62
     1
 10
-74.0000000000001705
 20
260.0000000000003979
 30
0.0000000000000133
 40
8.5000000000001705
210
0.0
220
-0.0000000000000002
230
-1.0
 50
270.0
 51
292.6198649480389236
  0
ARC
  5
702FF
  8
0
  6
VERDECKT
 62
     1
 10
-74.0000000000001705
 20
140.000000000000199
 30
0.0000000000000151
 40
8.5000000000000995
210
0.0
220
-0.0000000000000002
230
-1.0
 50
67.3801350519610054
 51
90.0
  0
LINE
  5
70300
  8
0
  6
VERDECKT
 62
     1
 10
70.7307692307693969
 20
147.8461538461540954
 30
-0.0000000000000462
 11
66.5769230769232081
 21
146.1153846153848122
 31
-0.0000000000000462
210
0.0
220
1.0
230
-0.0000000000000002
  0
LINE
  5
70301
  8
0
  6
VERDECKT
 62
     1
 10
70.7307692307693969
 20
252.1538461538463878
 30
-0.0000000000000711
 11
66.5769230769232081
 21
253.8846153846156994
 31
-0.0000000000000711
210
0.0
220
1.0
230
-0.0000000000000002
  0
ARC
  5
70302
  8
0
  6
VERDECKT
 62
     1
 10
-61.0000000000001705
 20
240.5000000000003979
 30
0.0000000000000141
 40
14.4999999999998295
210
0.0
220
-0.0000000000000002
230
-1.0
 50
90.0
 51
112.6198649480389946
  0
ARC
  5
70303
  8
0
  6
VERDECKT
 62
     1
 10
-61.0000000000001705
 20
159.5000000000001137
 30
0.0000000000000143
 40
14.4999999999998295
210
0.0
220
-0.0000000000000002
230
-1.0
 50
247.3801350519609059
 51
270.0
  0
LINE
  5
70304
  8
0
  6
VERDECKT
 62
     1
 10
61.0000000000001208
 20
145.000000000000199
 30
-0.0000000000000462
 11
42.6000000000001293
 21
145.000000000000199
 31
-0.0000000000000462
210
0.0
220
1.0
230
-0.0000000000000002
  0
LINE
  5
70305
  8
0
  6
VERDECKT
 62
     1
 10
61.0000000000001208
 20
255.0000000000003126
 30
-0.0000000000000711
 11
42.6000000000001293
 21
255.0000000000003126
 31
-0.0000000000000711
210
0.0
220
1.0
230
-0.0000000000000002
  0
ARC
  5
70306
  8
0
  6
VERDECKT
 62
     1
 10
-42.599999999999973
 20
267.4999999999982947
 30
0.0000000000000152
 40
12.4999999999981206
210
0.0
220
-0.0000000000000002
230
-1.0
 50
270.0
 51
283.6202174467488248
  0
ARC
  5
70307
  8
0
  6
VERDECKT
 62
     1
 10
-42.599999999999973
 20
132.5000000000021032
 30
0.0000000000000132
 40
12.4999999999981792
210
0.0
220
-0.0000000000000002
230
-1.0
 50
76.3797825532512178
 51
90.0
  0
LINE
  5
70308
  8
0
  6
VERDECKT
 62
     1
 10
39.6564366800128028
 20
144.6484745948301054
 30
-0.0000000000000462
 11
31.5693841071753312
 21
142.6889897941337892
 31
-0.0000000000000462
210
0.0
220
1.0
230
-0.0000000000000002
  0
LINE
  5
70309
  8
0
  6
VERDECKT
 62
     1
 10
39.6564366800128028
 20
255.3515254051704062
 30
-0.0000000000000711
 11
31.5693841071753312
 21
257.3110102058666939
 31
-0.0000000000000711
210
0.0
220
1.0
230
-0.0000000000000002
  0
ARC
  5
7030A
  8
0
  6
VERDECKT
 62
     1
 10
-25.79999999999945
 20
233.4999999999942872
 30
0.0000000000000157
 40
24.500000000006029
210
0.0
220
-0.0000000000000002
230
-1.0
 50
90.0
 51
103.6202174467454
  0
ARC
  5
7030B
  8
0
  6
VERDECKT
 62
     1
 10
-25.7999999999999012
 20
166.5000000000023874
 30
0.0000000000000128
 40
24.5000000000021316
210
0.0
220
-0.0000000000000002
230
-1.0
 50
256.3797825532512888
 51
270.0
  0
LINE
  5
7030C
  8
0
  6
VERDECKT
 62
     1
 10
25.8000000000001215
 20
142.0000000000003126
 30
-0.0000000000000462
 11
10.6000000000000796
 21
142.0000000000003126
 31
-0.0000000000000462
210
0.0
220
1.0
230
-0.0000000000000002
  0
LINE
  5
7030D
  8
0
  6
VERDECKT
 62
     1
 10
25.8000000000001215
 20
258.0000000000002842
 30
-0.0000000000000711
 11
10.6000000000000796
 21
258.0000000000002842
 31
-0.0000000000000711
210
0.0
220
1.0
230
-0.0000000000000002
  0
LINE
  5
7030E
  8
0
  6
VERDECKT
 62
     1
 10
193.5000000000001137
 20
135.4999999999998863
 30
-0.0000000000000426
 11
193.5000000000001137
 21
264.4999999999998863
 31
-0.0000000000000746
210
0.0
220
1.0
230
-0.0000000000000002
  0
LINE
  5
7030F
  8
0
  6
VERDECKT
 62
     1
 10
12.9999999999998792
 20
258.9999999999998863
 30
-0.0000000000000426
 11
12.9999999999998792
 21
140.9999999999998863
 31
-0.0000000000000178
210
0.0
220
1.0
230
-0.0000000000000002
  0
LINE
  5
70310
  8
0
  6
VERDECKT
 62
     1
 10
12.7999999999998995
 20
258.0
 30
-0.0000000000000426
 11
12.7999999999998995
 21
141.9999999999998863
 31
-0.0000000000000178
210
0.0
220
1.0
230
-0.0000000000000002
  0
ARC
  5
70311
  8
0
  6
VERDECKT
 62
     1
 10
-42.599999999999973
 20
267.4999999999978968
 30
-0.0000000000000132
 40
12.4999999999981206
210
0.0
220
-0.0000000000000002
230
-1.0
 50
270.0
 51
283.6202174467488248
  0
ARC
  5
70312
  8
0
  6
VERDECKT
 62
     1
 10
-42.599999999999973
 20
132.5000000000017906
 30
-0.0000000000000152
 40
12.4999999999981792
210
0.0
220
-0.0000000000000002
230
-1.0
 50
76.3797825532512178
 51
90.0
  0
LINE
  5
70313
  8
0
  6
VERDECKT
 62
     1
 10
39.6564366800128028
 20
144.6484745948297927
 30
-0.0000000000000178
 11
31.5693841071753312
 21
142.688989794133505
 31
-0.0000000000000178
210
0.0
220
1.0
230
-0.0000000000000002
  0
LINE
  5
70314
  8
0
  6
VERDECKT
 62
     1
 10
39.6564366800128028
 20
255.3515254051700083
 30
-0.0000000000000426
 11
31.5693841071753312
 21
257.311010205866296
 31
-0.0000000000000426
210
0.0
220
1.0
230
-0.0000000000000002
  0
ARC
  5
70315
  8
0
  6
VERDECKT
 62
     1
 10
-25.79999999999945
 20
233.4999999999938893
 30
-0.0000000000000128
 40
24.500000000006029
210
0.0
220
-0.0000000000000002
230
-1.0
 50
90.0
 51
103.6202174467454
  0
ARC
  5
70316
  8
0
  6
VERDECKT
 62
     1
 10
-25.7999999999999012
 20
166.5000000000019895
 30
-0.0000000000000157
 40
24.5000000000021316
210
0.0
220
-0.0000000000000002
230
-1.0
 50
256.3797825532512888
 51
270.0
  0
LINE
  5
70317
  8
0
  6
VERDECKT
 62
     1
 10
193.5000000000001137
 20
148.4999999999998863
 30
-0.0000000000000462
 11
74.0000000000001137
 21
148.4999999999998863
 31
-0.0000000000000462
210
0.0
220
1.0
230
-0.0000000000000002
  0
LINE
  5
70318
  8
0
  6
VERDECKT
 62
     1
 10
193.5000000000001137
 20
251.5
 30
-0.0000000000000711
 11
74.0000000000001137
 21
251.5
 31
-0.0000000000000711
210
0.0
220
1.0
230
-0.0000000000000002
  0
ARC
  5
70319
  8
0
  6
VERDECKT
 62
     1
 10
-74.0000000000001705
 20
260.0000000000001137
 30
-0.0000000000000151
 40
8.5000000000001705
210
0.0
220
-0.0000000000000002
230
-1.0
 50
270.0
 51
292.6198649480389236
  0
ARC
  5
7031A
  8
0
  6
VERDECKT
 62
     1
 10
-74.0000000000001705
 20
139.999999999999801
 30
-0.0000000000000133
 40
8.5000000000000995
210
0.0
220
-0.0000000000000002
230
-1.0
 50
67.3801350519610054
 51
90.0
  0
LINE
  5
7031B
  8
0
  6
VERDECKT
 62
     1
 10
70.7307692307693969
 20
147.8461538461536975
 30
-0.0000000000000178
 11
66.5769230769232081
 21
146.1153846153844995
 31
-0.0000000000000178
210
0.0
220
1.0
230
-0.0000000000000002
  0
LINE
  5
7031C
  8
0
  6
VERDECKT
 62
     1
 10
70.7307692307693969
 20
252.1538461538461036
 30
-0.0000000000000426
 11
66.5769230769232081
 21
253.8846153846153015
 31
-0.0000000000000426
210
0.0
220
1.0
230
-0.0000000000000002
  0
ARC
  5
7031D
  8
0
  6
VERDECKT
 62
     1
 10
-61.0000000000001705
 20
240.5000000000001137
 30
-0.0000000000000143
 40
14.4999999999998295
210
0.0
220
-0.0000000000000002
230
-1.0
 50
90.0
 51
112.6198649480389946
  0
ARC
  5
7031E
  8
0
  6
VERDECKT
 62
     1
 10
-61.0000000000001705
 20
159.499999999999801
 30
-0.0000000000000141
 40
14.4999999999998295
210
0.0
220
-0.0000000000000002
230
-1.0
 50
247.3801350519609059
 51
270.0
  0
LINE
  5
7031F
  8
0
  6
VERDECKT
 62
     1
 10
61.0000000000001208
 20
144.9999999999998863
 30
-0.0000000000000178
 11
42.6000000000001293
 21
144.9999999999998863
 31
-0.0000000000000178
210
0.0
220
1.0
230
-0.0000000000000002
  0
LINE
  5
70320
  8
0
  6
VERDECKT
 62
     1
 10
61.0000000000001208
 20
254.9999999999998863
 30
-0.0000000000000426
 11
42.6000000000001293
 21
254.9999999999998863
 31
-0.0000000000000426
210
0.0
220
1.0
230
-0.0000000000000002
  0
LINE
  5
70321
  8
0
  6
VERDECKT
 62
     1
 10
193.5000000000001137
 20
135.4999999999998863
 30
-0.0000000000000426
 11
0.9999999999998863
 21
135.4999999999998863
 31
-0.0000000000000426
210
0.0
220
1.0
230
-0.0000000000000002
  0
LINE
  5
70322
  8
0
  6
VERDECKT
 62
     1
 10
193.5000000000001137
 20
264.5
 30
-0.0000000000000746
 11
0.9999999999998863
 21
264.5
 31
-0.0000000000000746
210
0.0
220
1.0
230
-0.0000000000000002
  0
ARC
  5
70323
  8
0
  6
VERDECKT
 62
     1
 10
-1.999999999999772
 20
261.5999999999997954
 30
-0.0000000000000155
 40
0.9999999999998463
210
0.0
220
-0.0000000000000002
230
-1.0
 50
278.2229004996721073
 51
0.0000000000065185
  0
ARC
  5
70324
  8
0
  6
VERDECKT
 62
     1
 10
-1.999999999999829
 20
138.4000000000000057
 30
-0.000000000000013
 40
0.999999999999943
210
0.0
220
-0.0000000000000002
230
-1.0
 50
359.9999999999968168
 51
81.7770995003246099
  0
LINE
  5
70325
  8
0
  6
VERDECKT
 62
     1
 10
12.9999999999998792
 20
140.9999999999998863
 30
-0.0000000000000178
 11
1.8569754749070171
 21
139.389719144617203
 31
-0.0000000000000178
210
0.0
220
1.0
230
-0.0000000000000002
  0
LINE
  5
70326
  8
0
  6
VERDECKT
 62
     1
 10
12.9999999999998792
 20
258.9999999999998863
 30
-0.0000000000000426
 11
1.8569754749070171
 21
260.610280855382598
 31
-0.0000000000000426
210
0.0
220
1.0
230
-0.0000000000000002
  0
LINE
  5
70327
  8
0
  6
VERDECKT
 62
     1
 10
12.7999999999998408
 20
258.0
 30
-0.0000000000000426
 11
12.9999999999998792
 21
258.9999999999998863
 31
-0.0000000000000426
210
0.0
220
1.0
230
-0.0000000000000002
  0
LINE
  5
70328
  8
0
  6
VERDECKT
 62
     1
 10
12.7999999999998408
 20
141.9999999999998863
 30
-0.0000000000000178
 11
12.9999999999998792
 21
140.9999999999998863
 31
-0.0000000000000178
210
0.0
220
1.0
230
-0.0000000000000002
  0
LINE
  5
70329
  8
0
  6
VERDECKT
 62
     1
 10
25.8000000000001215
 20
141.9999999999998863
 30
-0.0000000000000178
 11
12.7999999999998995
 21
141.9999999999998863
 31
-0.0000000000000178
210
0.0
220
1.0
230
-0.0000000000000002
  0
LINE
  5
7032A
  8
0
  6
VERDECKT
 62
     1
 10
25.8000000000001215
 20
258.0
 30
-0.0000000000000426
 11
12.7999999999998995
 21
258.0
 31
-0.0000000000000426
210
0.0
220
1.0
230
-0.0000000000000002
  0
LINE
  5
7032B
  8
0
  6
VERDECKT
 62
     1
 10
1.0000000000002269
 20
264.5
 30
-0.0000000000000462
 11
211.0
 21
264.5
 31
-0.0000000000000462
210
0.0
220
1.0
230
-0.0000000000000002
  0
LINE
  5
7032C
  8
0
  6
VERDECKT
 62
     1
 10
1.0000000000002269
 20
135.5
 30
-0.0000000000000142
 11
211.0
 21
135.5
 31
-0.0000000000000142
210
0.0
220
1.0
230
-0.0000000000000002
  0
LINE
  5
7032D
  8
0
  6
VERDECKT
 62
     1
 10
194.9999999999998863
 20
135.9999999999998863
 30
-0.0000000000000426
 11
194.9999999999998863
 21
264.0
 31
-0.0000000000000711
210
0.0
220
1.0
230
-0.0000000000000002
  0
LINE
  5
7032E
  8
0
  6
VERDECKT
 62
     1
 10
204.9999999999998863
 20
143.9999999999998863
 30
-0.0000000000000462
 11
204.9999999999998863
 21
256.0
 31
-0.0000000000000711
210
0.0
220
1.0
230
-0.0000000000000002
  0
LINE
  5
7032F
  8
0
  6
VERDECKT
 62
     1
 10
193.4999999999998863
 20
262.4999999999998863
 30
-0.0000000000000711
 11
194.9999999999998863
 21
264.0
 31
-0.0000000000000711
210
0.0
220
1.0
230
-0.0000000000000002
  0
LINE
  5
70330
  8
0
  6
VERDECKT
 62
     1
 10
193.4999999999998863
 20
137.5
 30
-0.0000000000000462
 11
194.9999999999998863
 21
135.9999999999998863
 31
-0.0000000000000426
210
0.0
220
1.0
230
-0.0000000000000002
  0
LINE
  5
70331
  8
0
  6
VERDECKT
 62
     1
 10
194.9999999999998863
 20
264.0
 30
-0.0000000000000711
 11
210.9999999999998863
 21
264.0
 31
-0.0000000000000711
210
0.0
220
1.0
230
-0.0000000000000002
  0
LINE
  5
70332
  8
0
  6
VERDECKT
 62
     1
 10
194.9999999999998863
 20
135.9999999999998863
 30
-0.0000000000000426
 11
210.9999999999998863
 21
135.9999999999998863
 31
-0.0000000000000426
210
0.0
220
1.0
230
-0.0000000000000002
  0
LINE
  5
70333
  8
0
  6
VERDECKT
 62
     1
 10
204.9999999999998863
 20
256.0
 30
-0.0000000000000711
 11
212.9999999999998863
 21
260.618802153516981
 31
-0.0000000000000711
210
0.0
220
1.0
230
-0.0000000000000002
  0
LINE
  5
70334
  8
0
  6
VERDECKT
 62
     1
 10
204.9999999999998863
 20
143.9999999999998863
 30
-0.0000000000000462
 11
212.9999999999998863
 21
139.3811978464829906
 31
-0.0000000000000462
210
0.0
220
1.0
230
-0.0000000000000002
  0
LINE
  5
70335
  8
0
  6
VERDECKT
 62
     1
 10
194.9999999999998863
 20
251.0
 30
-0.0000000000000711
 11
204.9999999999998863
 21
251.0
 31
-0.0000000000000711
210
0.0
220
1.0
230
-0.0000000000000002
  0
LINE
  5
70336
  8
0
  6
VERDECKT
 62
     1
 10
194.9999999999998863
 20
149.0
 30
-0.0000000000000462
 11
204.9999999999998863
 21
149.0
 31
-0.0000000000000462
210
0.0
220
1.0
230
-0.0000000000000002
  0
LINE
  5
70337
  8
0
  6
VERDECKT
 62
     1
 10
194.9999999999998863
 20
254.5
 30
-0.0000000000000711
 11
198.9999999999998863
 21
254.5
 31
-0.0000000000000711
210
0.0
220
1.0
230
-0.0000000000000002
  0
LINE
  5
70338
  8
0
  6
VERDECKT
 62
     1
 10
194.9999999999998863
 20
145.5
 30
-0.0000000000000462
 11
198.9999999999998863
 21
145.5
 31
-0.0000000000000462
210
0.0
220
1.0
230
-0.0000000000000002
  0
ARC
  5
70339
  8
0
  6
VERDECKT
 62
     1
 10
-198.9999999999998863
 20
142.5
 30
0.0000000000000145
 40
2.9999999999999711
210
0.0
220
-0.0000000000000002
230
-1.0
 50
90.0
 51
180.0000000000005116
  0
ARC
  5
7033A
  8
0
  6
VERDECKT
 62
     1
 10
-198.9999999999998863
 20
142.4999999999998863
 30
0.0000000000000145
 40
3.0
210
0.0
220
-0.0000000000000002
230
-1.0
 50
179.9999999999994031
 51
270.0
  0
ARC
  5
7033B
  8
0
  6
VERDECKT
 62
     1
 10
-198.9999999999998863
 20
257.5000000000001137
 30
0.0000000000000139
 40
2.9999999999999432
210
0.0
220
-0.0000000000000002
230
-1.0
 50
90.0
 51
180.0000000000009948
  0
ARC
  5
7033C
  8
0
  6
VERDECKT
 62
     1
 10
-198.9999999999998863
 20
257.5
 30
0.0000000000000139
 40
3.0
210
0.0
220
-0.0000000000000002
230
-1.0
 50
180.0
 51
270.0
  0
LINE
  5
7033D
  8
0
  6
VERDECKT
 62
     1
 10
201.9999999999998863
 20
142.5
 30
-0.0000000000000462
 11
201.9999999999998863
 21
257.5
 31
-0.0000000000000711
210
0.0
220
1.0
230
-0.0000000000000002
  0
LINE
  5
7033E
  8
0
  6
VERDECKT
 62
     1
 10
193.4999999999998863
 20
260.4999999999998863
 30
-0.0000000000000711
 11
198.9999999999998863
 21
260.4999999999998863
 31
-0.0000000000000711
210
0.0
220
1.0
230
-0.0000000000000002
  0
LINE
  5
7033F
  8
0
  6
VERDECKT
 62
     1
 10
193.4999999999998863
 20
139.4999999999998863
 30
-0.0000000000000462
 11
198.9999999999998863
 21
139.4999999999998863
 31
-0.0000000000000462
210
0.0
220
1.0
230
-0.0000000000000002
  0
LINE
  5
70340
  8
0
  6
VERDECKT
 62
     1
 10
12.9959648863658703
 20
141.0112107132229937
 30
-0.0000000000000178
 11
12.9959648863657495
 21
258.9887892867770915
 31
-0.0000000000000426
210
0.0
220
1.0
230
-0.0000000000000002
  0
LINE
  5
70341
  8
0
  6
VERDECKT
 62
     1
 10
12.8496575243769904
 20
142.0004498935165884
 30
-0.0000000000000178
 11
12.8496575243768802
 21
257.9995501064835821
 31
-0.0000000000000426
210
0.0
220
1.0
230
-0.0000000000000002
  0
LINE
  5
70342
  8
0
  6
VERDECKT
 62
     1
 10
12.9959648863658099
 20
141.0112107132229085
 30
-0.0000000000000178
 11
1.8536926380114089
 21
139.3632811814244121
 31
-0.0000000000000178
210
0.0
220
1.0
230
-0.0000000000000002
  0
LINE
  5
70343
  8
0
  6
VERDECKT
 62
     1
 10
12.9959648863657495
 20
258.9887892867770915
 30
-0.0000000000000426
 11
1.8536926380113521
 21
260.6367188185756163
 31
-0.0000000000000426
210
0.0
220
1.0
230
-0.0000000000000002
  0
LINE
  5
70344
  8
0
  6
VERDECKT
 62
     1
 10
12.8496575243768802
 20
257.9995501064835821
 30
-0.0000000000000426
 11
12.9959648863657495
 21
258.9887892867770915
 31
-0.0000000000000426
210
0.0
220
1.0
230
-0.0000000000000002
  0
LINE
  5
70345
  8
0
  6
VERDECKT
 62
     1
 10
12.8496575243769904
 20
142.0004498935165032
 30
-0.0000000000000178
 11
12.9959648863658703
 21
141.0112107132229085
 31
-0.0000000000000178
210
0.0
220
1.0
230
-0.0000000000000002
  0
LINE
  5
70346
  8
0
  6
VERDECKT
 62
     1
 10
12.8496575243769406
 20
142.0004498935165032
 30
-0.0000000000000178
 11
1.7073852760229891
 21
140.3525203617180068
 31
-0.0000000000000178
210
0.0
220
1.0
230
-0.0000000000000002
  0
LINE
  5
70347
  8
0
  6
VERDECKT
 62
     1
 10
12.8496575243768802
 20
257.9995501064835821
 30
-0.0000000000000426
 11
1.707385276022932
 21
259.6474796382821069
 31
-0.0000000000000426
210
0.0
220
1.0
230
-0.0000000000000002
  0
ARC
  5
70348
  8
0
  6
VERDECKT
 62
     1
 10
-2.0000000000004539
 20
138.3740420011307037
 30
-0.000000000000013
 40
2.0000000000001128
210
0.0
220
-0.0000000000000002
230
-1.0
 50
0.0000000000048853
 51
81.5870070420221651
  0
ARC
  5
70349
  8
0
  6
VERDECKT
 62
     1
 10
-2.0000000000002842
 20
261.6259579988692963
 30
-0.0000000000000155
 40
2.0000000000000839
210
0.0
220
-0.0000000000000002
230
-1.0
 50
278.412992957974609
 51
359.9999999999968168
  0
ARC
  5
7034A
  8
0
  6
VERDECKT
 62
     1
 10
-2.0000000000003411
 20
138.374042001130789
 30
-0.000000000000013
 40
1.000000000000056
210
0.0
220
-0.0000000000000002
230
-1.0
 50
0.0000000000032569
 51
81.5870070420090343
  0
ARC
  5
7034B
  8
0
  6
VERDECKT
 62
     1
 10
-2.0000000000001128
 20
261.6259579988691257
 30
-0.0000000000000155
 40
0.9999999999999424
210
0.0
220
-0.0000000000000002
230
-1.0
 50
278.4129929579810891
 51
0.0000000000032429
  0
LINE
  5
7034C
  8
0
  6
VERDECKT
 62
     1
 10
1.0
 20
377.0
 30
-0.0000000000000853
 11
0.0
 21
377.0
 31
-0.0000000000000853
210
0.0
220
1.0
230
-0.0000000000000002
  0
LINE
  5
7034D
  8
0
  6
VERDECKT
 62
     1
 10
1.0
 20
383.0
 30
-0.0000000000000853
 11
0.0
 21
383.0
 31
-0.0000000000000853
210
0.0
220
1.0
230
-0.0000000000000002
  0
LINE
  5
7034E
  8
0
  6
VERDECKT
 62
     1
 10
1.0
 20
17.0
 30
-0.0000000000000036
 11
0.0
 21
17.0
 31
-0.0000000000000036
210
0.0
220
1.0
230
-0.0000000000000002
  0
LINE
  5
7034F
  8
0
  6
VERDECKT
 62
     1
 10
1.0
 20
23.0
 30
-0.0000000000000036
 11
0.0
 21
23.0
 31
-0.0000000000000036
210
0.0
220
1.0
230
-0.0000000000000002
  0
ENDBLK
  5
70351
  8
0
  0
BLOCK
  8
0
  2
A$CECC7A34B
 70
     0
 10
0.0
 20
0.0
 30
0.0
  3
A$CECC7A34B
  1

  0
CIRCLE
  5
7037F
  8
0
  6
CONTINUOUS
 62
     3
 10
-179.9999999999994031
 20
200.0000000000003126
 30
-0.0000000000000568
 40
54.5116634277251109
  0
CIRCLE
  5
70380
  8
0
  6
CONTINUOUS
 62
     3
 10
-179.9999999999994031
 20
200.0000000000003126
 30
-0.0000000000000568
 40
57.9999999999999787
  0
CIRCLE
  5
70381
  8
0
  6
CONTINUOUS
 62
     3
 10
-179.9999999999994031
 20
200.0000000000003126
 30
-0.0000000000000568
 40
53.2252350545991106
  0
CIRCLE
  5
70382
  8
0
  6
CONTINUOUS
 62
     3
 10
-179.9999999999994031
 20
200.0000000000003126
 30
-0.0000000000000568
 40
49.9999999999999574
  0
CIRCLE
  5
70383
  8
0
  6
CONTINUOUS
 62
     3
 10
-179.9999999999994031
 20
200.0000000000003126
 30
-0.0000000000000568
 40
49.0115831849295134
  0
CIRCLE
  5
70384
  8
0
  6
CONTINUOUS
 62
     3
 10
0.0000000000001954
 20
380.0000000000002274
 30
-0.0000000000000275
 40
3.0
210
0.0
220
-0.0000000000000002
230
-1.0
  0
CIRCLE
  5
70385
  8
0
  6
CONTINUOUS
 62
     3
 10
360.0000000000002274
 20
380.0000000000001137
 30
-0.0000000000000275
 40
3.0
210
0.0
220
-0.0000000000000002
230
-1.0
  0
CIRCLE
  5
70386
  8
0
  6
CONTINUOUS
 62
     3
 10
360.0000000000002274
 20
19.9999999999999289
 30
-0.0000000000000044
 40
3.0
210
0.0
220
-0.0000000000000002
230
-1.0
  0
CIRCLE
  5
70387
  8
0
  6
CONTINUOUS
 62
     3
 10
0.0000000000001137
 20
20.0000000000000107
 30
-0.0000000000000044
 40
3.0
210
0.0
220
-0.0000000000000002
230
-1.0
  0
LINE
  5
70388
  8
0
  6
CONTINUOUS
 62
     3
 10
-380.0000000000002274
 20
380.0000000000001137
 30
-0.0000000000000568
 11
-380.0000000000002274
 21
19.9999999999999289
 31
0.0
210
-0.0000000000000002
220
1.0
230
-0.0000000000000002
  0
ARC
  5
70389
  8
0
  6
CONTINUOUS
 62
     3
 10
-359.9999999999997726
 20
379.9999999999997158
 30
-0.0000000000000568
 40
20.0000000000004583
 50
90.0000000000012221
 51
179.9999999999986073
  0
LINE
  5
7038A
  8
0
  6
CONTINUOUS
 62
     3
 10
-0.000000000000199
 20
400.0000000000001137
 30
-0.0000000000001137
 11
-360.0000000000002842
 21
400.0
 31
-0.0000000000001137
210
-0.0000000000000002
220
1.0
230
-0.0000000000000002
  0
ARC
  5
7038B
  8
0
  6
CONTINUOUS
 62
     3
 10
0.000000000000032
 20
380.0000000000005116
 30
-0.0000000000000568
 40
19.9999999999997691
 50
359.9999999999989768
 51
90.0000000000006253
  0
LINE
  5
7038C
  8
0
  6
CONTINUOUS
 62
     3
 10
19.9999999999998792
 20
20.0000000000000213
 30
0.0
 11
19.9999999999998295
 21
380.0000000000002274
 31
-0.0000000000000568
210
-0.0000000000000002
220
1.0
230
-0.0000000000000002
  0
ARC
  5
7038D
  8
0
  6
CONTINUOUS
 62
     3
 10
0.0000000000001137
 20
19.9999999999997797
 30
0.0
 40
19.9999999999997691
 50
270.0
 51
0.0000000000013231
  0
LINE
  5
7038E
  8
0
  6
CONTINUOUS
 62
     3
 10
-360.0000000000002274
 20
-0.0000000000000711
 30
0.0
 11
-0.0000000000001101
 21
-0.0000000000000132
 31
0.0
210
-0.0000000000000002
220
1.0
230
-0.0000000000000002
  0
ARC
  5
7038F
  8
0
  6
CONTINUOUS
 62
     3
 10
-360.0000000000006253
 20
19.9999999999994813
 30
0.0
 40
19.9999999999995417
 50
179.9999999999986073
 51
270.0000000000011937
  0
CIRCLE
  5
70390
  8
0
  6
VERDECKT
 62
     1
 10
-179.9999999999994031
 20
200.0000000000003126
 30
-0.0000000000000568
 40
56.4999999999999503
  0
CIRCLE
  5
70391
  8
0
  6
VERDECKT
 62
     1
 10
-179.9999999999994031
 20
200.0000000000003126
 30
-0.0000000000000568
 40
53.4999999999999289
  0
CIRCLE
  5
70392
  8
0
  6
VERDECKT
 62
     1
 10
-179.9999999999994031
 20
200.0000000000003126
 30
-0.0000000000000568
 40
50.5000000000000213
  0
CIRCLE
  5
70393
  8
0
  6
VERDECKT
 62
     1
 10
-179.9999999999994031
 20
200.0000000000003126
 30
-0.0000000000000568
 40
51.5
  0
CIRCLE
  5
70394
  8
0
  6
VERDECKT
 62
     1
 10
-179.9999999999994031
 20
200.0000000000003126
 30
-0.0000000000000568
 40
55.0
  0
CIRCLE
  5
70395
  8
0
  6
VERDECKT
 62
     1
 10
-180.0000000000003126
 20
199.9999999999998863
 30
-0.0000000000000568
 40
55.0
  0
CIRCLE
  5
70396
  8
0
  6
VERDECKT
 62
     1
 10
-180.0000000000003126
 20
199.9999999999998863
 30
-0.0000000000000568
 40
51.5
  0
CIRCLE
  5
70397
  8
0
  6
VERDECKT
 62
     1
 10
-180.0000000000003126
 20
199.9999999999998863
 30
-0.0000000000000568
 40
64.4999999999999716
  0
CIRCLE
  5
70398
  8
0
  6
VERDECKT
 62
     1
 10
-180.0000000000003126
 20
199.9999999999998863
 30
-0.0000000000000568
 40
58.9999999999999787
  0
CIRCLE
  5
70399
  8
0
  6
VERDECKT
 62
     1
 10
-180.000000000000199
 20
200.0
 30
-0.0000000000000568
 40
66.5000000000000142
  0
CIRCLE
  5
7039A
  8
0
  6
VERDECKT
 62
     1
 10
180.000000000000199
 20
200.0
 30
0.0000000000000124
 40
64.5000000000000142
210
0.0
220
-0.0000000000000002
230
-1.0
  0
CIRCLE
  5
7039B
  8
0
  6
VERDECKT
 62
     1
 10
180.0000000000003126
 20
199.9999999999998863
 30
0.0000000000000124
 40
62.4999999999999005
210
0.0
220
-0.0000000000000002
230
-1.0
  0
CIRCLE
  5
7039C
  8
0
  6
VERDECKT
 62
     1
 10
180.0000000000003126
 20
199.9999999999998863
 30
0.0000000000000124
 40
64.0000000000000142
210
0.0
220
-0.0000000000000002
230
-1.0
  0
CIRCLE
  5
7039D
  8
0
  6
VERDECKT
 62
     1
 10
180.0000000000003126
 20
200.0
 30
0.0000000000000124
 40
65.4999999999999574
210
0.0
220
-0.0000000000000002
230
-1.0
  0
CIRCLE
  5
7039E
  8
0
  6
VERDECKT
 62
     1
 10
180.0000000000003126
 20
200.0
 30
0.0000000000000124
 40
60.6188021535169881
210
0.0
220
-0.0000000000000002
230
-1.0
  0
CIRCLE
  5
7039F
  8
0
  6
VERDECKT
 62
     1
 10
180.0000000000003126
 20
200.0
 30
0.0000000000000124
 40
56.0000000000000071
210
0.0
220
-0.0000000000000002
230
-1.0
  0
CIRCLE
  5
703A0
  8
0
  6
VERDECKT
 62
     1
 10
180.0000000000003126
 20
199.9999999999998863
 30
0.0000000000000124
 40
51.0000000000000071
210
0.0
220
-0.0000000000000002
230
-1.0
  0
CIRCLE
  5
703A1
  8
0
  6
VERDECKT
 62
     1
 10
180.0000000000003126
 20
199.9999999999998863
 30
0.0000000000000124
 40
54.5000000000000071
210
0.0
220
-0.0000000000000002
230
-1.0
  0
CIRCLE
  5
703A2
  8
0
  6
VERDECKT
 62
     1
 10
180.0000000000003126
 20
199.9999999999998863
 30
0.0000000000000124
 40
60.5000000000000071
210
0.0
220
-0.0000000000000002
230
-1.0
  0
CIRCLE
  5
703A3
  8
0
  6
VERDECKT
 62
     1
 10
180.000000000000199
 20
200.0
 30
0.0000000000000124
 40
58.9887892867771129
210
0.0
220
-0.0000000000000002
230
-1.0
  0
CIRCLE
  5
703A4
  8
0
  6
VERDECKT
 62
     1
 10
180.000000000000199
 20
200.0
 30
0.0000000000000124
 40
57.9995501064835395
210
0.0
220
-0.0000000000000002
230
-1.0
  0
ENDBLK
  5
703A6
  8
0
  0
ENDSEC
  0
SECTION
  2
ENTITIES
  0
INSERT
  5
573
  8
ADSK_ASSOC_ENTITY_BACKUPS
  2
*S0
 10
0.0
 20
0.0
 30
0.0
  0
INSERT
  5
70352
  8
STEMPEL
  2
A$CBE989C7B
 10
432.835839671754627
 20
-222.6442492068266858
 30
0.0000000000000568
  0
INSERT
  5
703A7
  8
STEMPEL
  2
A$CECC7A34B
 10
1235.8358396717549113
 20
-222.6442492068262879
 30
-0.0000000000001421
  0
VIEWPORT
  5
45D
 67
     1
  8
0
 10
296.75
 20
209.75
 30
0.0
 40
810.7316766278704563
 41
422.1799307958477812
 68
     1
 69
     1
1001
ACAD
1000
MVIEW
1002
{
1070
    16
1010
0.0
1020
0.0
1030
0.0
1010
0.0
1020
0.0
1030
1.0
1040
0.0
1040
422.1799307958477812
1040
296.75
1040
209.75
1040
50.0
1040
0.0
1040
0.0
1070
     0
1070
  1500
1070
     1
1070
     1
1070
     0
1070
     0
1070
     0
1070
     0
1040
0.0
1040
0.0
1040
0.0
1040
10.0
1040
10.0
1040
10.0
1040
10.0
1070
     0
1002
{
1002
}
1002
}
  0
ENDSEC
  0
EOF
