  0
SECTION
  2
HEADER
  9
$ACADVER
  1
AC1009
  9
$INSBASE
 10
509.9391017861535147
 20
-118.0350180316795985
 30
403.1361558984037856
  9
$EXTMIN
 10
-363.7188720703125
 20
-150.0000000000007958
 30
-0.0000000000000382
  9
$EXTMAX
 10
718.0000000000012506
 20
302.85986328125
 30
368.3377075195313068
  9
$LIMMIN
 10
0.0
 20
0.000000000000008
  9
$LIMMAX
 10
594.0
 20
840.0
  9
$ORTHOMODE
 70
     1
  9
$REGENMODE
 70
     1
  9
$FILLMODE
 70
     1
  9
$QTEXTMODE
 70
     0
  9
$MIRRTEXT
 70
     1
  9
$DRAGMODE
 70
     2
  9
$LTSCALE
 40
20.0
  9
$OSMODE
 70
  1279
  9
$ATTMODE
 70
     1
  9
$TEXTSIZE
 40
3.5
  9
$TRACEWID
 40
1.0
  9
$TEXTSTYLE
  7
STANDARD
  9
$CLAYER
  8
0
  9
$CELTYPE
  6
BYLAYER
  9
$CECOLOR
 62
   256
  9
$DIMSCALE
 40
2.0
  9
$DIMASZ
 40
1.75
  9
$DIMEXO
 40
1.0
  9
$DIMDLI
 40
7.0
  9
$DIMRND
 40
0.0
  9
$DIMDLE
 40
0.0
  9
$DIMEXE
 40
1.0
  9
$DIMTP
 40
0.0
  9
$DIMTM
 40
0.0
  9
$DIMTXT
 40
3.5
  9
$DIMCEN
 40
1.5
  9
$DIMTSZ
 40
0.0
  9
$DIMTOL
 70
     0
  9
$DIMLIM
 70
     0
  9
$DIMTIH
 70
     0
  9
$DIMTOH
 70
     0
  9
$DIMSE1
 70
     0
  9
$DIMSE2
 70
     0
  9
$DIMTAD
 70
     1
  9
$DIMZIN
 70
     8
  9
$DIMBLK
  1

  9
$DIMASO
 70
     1
  9
$DIMSHO
 70
     0
  9
$DIMPOST
  1

  9
$DIMAPOST
  1

  9
$DIMALT
 70
     0
  9
$DIMALTD
 70
     2
  9
$DIMALTF
 40
25.3999999999999986
  9
$DIMLFAC
 40
2.0
  9
$DIMTOFL
 70
     1
  9
$DIMTVP
 40
0.0
  9
$DIMTIX
 70
     0
  9
$DIMSOXD
 70
     0
  9
$DIMSAH
 70
     0
  9
$DIMBLK1
  1

  9
$DIMBLK2
  1

  9
$DIMSTYLE
  2
STANDARD
  9
$DIMCLRD
 70
     0
  9
$DIMCLRE
 70
     0
  9
$DIMCLRT
 70
     1
  9
$DIMTFAC
 40
0.5142857142857143
  9
$DIMGAP
 40
0.75
  9
$LUNITS
 70
     2
  9
$LUPREC
 70
     2
  9
$SKETCHINC
 40
1.0
  9
$FILLETRAD
 40
6.5
  9
$AUNITS
 70
     0
  9
$AUPREC
 70
     0
  9
$MENU
  1
ACAD
  9
$ELEVATION
 40
0.0
  9
$PELEVATION
 40
0.0
  9
$THICKNESS
 40
0.0
  9
$LIMCHECK
 70
     0
  9
$BLIPMODE
 70
     0
  9
$CHAMFERA
 40
0.0
  9
$CHAMFERB
 40
0.0
  9
$SKPOLY
 70
     0
  9
$TDCREATE
 40
2455397.867048610933125
  9
$TDUPDATE
 40
2460518.3117476850748062
  9
$TDINDWG
 40
2.1048101505000001
  9
$TDUSRTIMER
 40
2.1048101505000001
  9
$USRTIMER
 70
     1
  9
$ANGBASE
 50
0.0
  9
$ANGDIR
 70
     0
  9
$PDMODE
 70
     0
  9
$PDSIZE
 40
0.0
  9
$PLINEWID
 40
0.0
  9
$COORDS
 70
     1
  9
$SPLFRAME
 70
     0
  9
$SPLINETYPE
 70
     6
  9
$SPLINESEGS
 70
     8
  9
$ATTDIA
 70
     1
  9
$ATTREQ
 70
     1
  9
$HANDLING
 70
     1
  9
$HANDSEED
  5
37AFE
  9
$SURFTAB1
 70
     6
  9
$SURFTAB2
 70
     6
  9
$SURFTYPE
 70
     6
  9
$SURFU
 70
     6
  9
$SURFV
 70
     6
  9
$UCSNAME
  2

  9
$UCSORG
 10
0.0
 20
0.0
 30
0.0
  9
$UCSXDIR
 10
1.0
 20
0.0
 30
0.0
  9
$UCSYDIR
 10
0.0
 20
1.0
 30
0.0
  9
$PUCSNAME
  2

  9
$PUCSORG
 10
0.0
 20
0.0
 30
0.0
  9
$PUCSXDIR
 10
1.0
 20
0.0
 30
0.0
  9
$PUCSYDIR
 10
0.0
 20
1.0
 30
0.0
  9
$USERI1
 70
     0
  9
$USERI2
 70
     0
  9
$USERI3
 70
     0
  9
$USERI4
 70
     0
  9
$USERI5
 70
     0
  9
$USERR1
 40
0.0
  9
$USERR2
 40
0.0
  9
$USERR3
 40
0.0
  9
$USERR4
 40
0.0
  9
$USERR5
 40
0.0
  9
$WORLDVIEW
 70
     1
  9
$SHADEDGE
 70
     3
  9
$SHADEDIF
 70
    70
  9
$TILEMODE
 70
     1
  9
$MAXACTVP
 70
    16
  9
$PLIMCHECK
 70
     0
  9
$PEXTMIN
 10
1.0000000000000000E+20
 20
1.0000000000000000E+20
 30
1.0000000000000000E+20
  9
$PEXTMAX
 10
-1.0000000000000000E+20
 20
-1.0000000000000000E+20
 30
-1.0000000000000000E+20
  9
$PLIMMIN
 10
-593.25
 20
-593.2447509765625
  9
$PLIMMAX
 10
-173.25
 20
-296.2447509765625
  9
$UNITMODE
 70
     0
  9
$VISRETAIN
 70
     0
  9
$PLINEGEN
 70
     0
  9
$PSLTSCALE
 70
     0
  0
ENDSEC
  0
SECTION
  2
TABLES
  0
TABLE
  2
VPORT
 70
     1
  0
VPORT
  2
*ACTIVE
 70
     0
 10
0.0
 20
0.0
 11
1.0
 21
1.0
 12
0.0
 22
0.0
 13
0.0
 23
0.0
 14
1.0
 24
1.0
 15
10.0
 25
10.0
 16
-0.0000000000014779
 26
0.0
 36
6624.0631303243762886
 17
395.9641710752218842
 27
-19.7415264089888005
 37
184.1688537597655966
 40
617.8473550493190487
 41
1.92034632034632
 42
207.9750642040528135
 43
0.0
 44
0.0
 50
0.0
 51
0.0
 71
     0
 72
  1500
 73
     1
 74
     0
 75
     0
 76
     0
 77
     0
 78
     0
  0
ENDTAB
  0
TABLE
  2
LTYPE
 70
    13
  0
LTYPE
  2
CONTINUOUS
 70
     0
  3
Solid line
 72
    65
 73
     0
 40
0.0
  0
LTYPE
  2
STRICHPUNKT
 70
     0
  3
__ . __ . __ . __ . __ . __ . __ . __ . __ . __
 72
    65
 73
     4
 40
1.0
 49
0.5
 49
-0.25
 49
0.0
 49
-0.25
  0
LTYPE
  2
HIDDEN
 70
     0
  3
Hidden __ __ __ __ __ __ __ __ __ __ __ __ __ __
 72
    65
 73
     2
 40
0.375
 49
0.25
 49
-0.125
  0
LTYPE
  2
PHANTOM2
 70
     0
  3
Phantom (.5x) ___ _ _ ___ _ _ ___ _ _ ___ _ _
 72
    65
 73
     6
 40
1.25
 49
0.625
 49
-0.125
 49
0.125
 49
-0.125
 49
0.125
 49
-0.125
  0
LTYPE
  2
CENTER
 70
     0
  3
Center ____ _ ____ _ ____ _ ____ _ ____ _ ____
 72
    65
 73
     4
 40
2.0
 49
1.25
 49
-0.25
 49
0.25
 49
-0.25
  0
LTYPE
  2
AMCONSTR
 70
     0
  3
_______________________
 72
    65
 73
     2
 40
9999.0
 49
9999.0
 49
0.0
  0
LTYPE
  2
CENTER2
 70
     0
  3
Center (.5x) ___ _ ___ _ ___ _ ___ _ ___ _ ___
 72
    65
 73
     4
 40
1.125
 49
0.75
 49
-0.125
 49
0.125
 49
-0.125
  0
LTYPE
  2
HIDDEN2
 70
     0
  3
Hidden (.5x) _ _ _ _ _ _ _ _ _ _ _ _ _ _ _ _ _
 72
    65
 73
     2
 40
0.1875
 49
0.125
 49
-0.0625
  0
LTYPE
  2
AMZIGZAG2
 70
     0
  3
/\/-/\/-/\/-/\/-/\/-/\/
 72
    65
 73
     2
 40
0.4401
 49
0.0001
 49
-0.4400000000000001
  0
LTYPE
  2
ACANSTGB
 70
     0
  3
__ . . __ . .
 72
    65
 73
     6
 40
0.35433070866
 49
0.15748031496
 49
-0.03937007874
 49
0.03937007874
 49
-0.03937007874
 49
0.03937007874
 49
-0.03937007874
  0
LTYPE
  2
ACANSTGL
 70
     0
  3
_ _ _ _ _
 72
    65
 73
     2
 40
0.11811023622
 49
0.07874015748
 49
-0.03937007874
  0
LTYPE
  2
AUSGEZOGEN
 70
     0
  3
Ausgezogene Linie
 72
    65
 73
     0
 40
0.0
  0
LTYPE
  2
VERDECKT
 70
     0
  3
Verdeckt __ __ __ __ __ __ __ __ __ __ __ __ __
 72
    65
 73
     2
 40
0.375
 49
0.25
 49
-0.125
  0
ENDTAB
  0
TABLE
  2
LAYER
 70
     8
  0
LAYER
  2
0
 70
     0
 62
     7
  6
CONTINUOUS
  0
LAYER
  2
VOLL
 70
     0
 62
     1
  6
CONTINUOUS
  0
LAYER
  2
DEFPOINTS
 70
     0
 62
     7
  6
CONTINUOUS
  0
LAYER
  2
ROHR
 70
     0
 62
   254
  6
CONTINUOUS
  0
LAYER
  2
ADSK_ASSOC_ENTITY_BACKUPS
 70
     1
 62
    -7
  6
CONTINUOUS
  0
LAYER
  2
FLANSCH
 70
     0
 62
   254
  6
CONTINUOUS
  0
LAYER
  2
ZENTRIERRING
 70
     0
 62
   254
  6
CONTINUOUS
  0
LAYER
  2
SCHAUM
 70
     0
 62
    41
  6
CONTINUOUS
  0
ENDTAB
  0
TABLE
  2
STYLE
 70
     5
  0
STYLE
  2
STANDARD
 70
     0
 40
3.5
 41
0.8
 50
0.0
 71
     0
 42
3.5
  3
simplex.shx
  4

  0
STYLE
  2
GREEKS
 70
     0
 40
0.0
 41
0.8
 50
0.0
 71
     0
 42
2.5
  3
SIMPLEX.shx
  4

  0
STYLE
  2

 70
     1
 40
0.0
 41
1.0
 50
0.0
 71
     0
 42
2.5
  3
genltshp.shx
  4

  0
STYLE
  2
ACANSGDT
 70
     0
 40
0.0
 41
1.0
 50
0.0
 71
     0
 42
2.5
  3
amgdt.shx
  4

  0
STYLE
  2

 70
     1
 40
0.0
 41
1.0
 50
0.0
 71
     0
 42
3.5
  3
ltypeshp.shx
  4

  0
ENDTAB
  0
TABLE
  2
VIEW
 70
     2
  0
ENDTAB
  0
TABLE
  2
UCS
 70
     0
  0
ENDTAB
  0
TABLE
  2
APPID
 70
    49
  0
APPID
  2
ACAD
 70
     0
  0
APPID
  2
ACAD_NAV_VCDISPLAY
 70
     0
  0
APPID
  2
GRADIENTCOLOR1ACI
 70
     0
  0
APPID
  2
GRADIENTCOLOR2ACI
 70
     0
  0
APPID
  2
ACAD_DSTYLE_DIMRADIAL_EXTENSION
 70
     0
  0
APPID
  2
ACADANNOMONITORALERTICONDI
 70
     0
  0
APPID
  2
ACAD_EXEMPT_FROM_CAD_STANDARDS
 70
     0
  0
APPID
  2
ACAD_MLEADERVER
 70
     0
  0
APPID
  2
ACAD_PSEXT
 70
     0
  0
APPID
  2
ACAECLAYERSTANDARD
 70
     0
  0
APPID
  2
ACCMTRANSPARENCY
 70
     0
  0
APPID
  2
ACAD_OBJECT_CHANGE_GUID
 70
     0
  0
APPID
  2
MCAD_NO_VIS
 70
     0
  0
APPID
  2
ACAD_TEMP_GRAPHIC
 70
     0
  0
APPID
  2
ACATTRIBSERVICES
 70
     0
  0
APPID
  2
DESIGNERASSEMBLIES
 70
     0
  0
APPID
  2
ACAD_DSTYLE_DIMJAG
 70
     0
  0
APPID
  2
ACAD_DSTYLE_DIMBREAK
 70
     0
  0
APPID
  2
GENIUS_GENSCREG_15
 70
     0
  0
APPID
  2
GENIUS_GENOBJ-N-SDF_13
 70
     0
  0
APPID
  2
GENIUS_GENODEF_13
 70
     0
  0
APPID
  2
ACAD_STEPID
 70
     0
  0
APPID
  2
ACAD_DSTYLE_DIMARC_LENGTH_
 70
     0
  0
APPID
  2
ACAD_DSTYLE_DIM_LINETYPE
 70
     0
  0
APPID
  2
ACAD_DSTYLE_DIM_EXT1_LINETYPE
 70
     0
  0
APPID
  2
ACAD_DSTYLE_DIM_EXT2_LINETYPE
 70
     0
  0
APPID
  2
RAK
 70
     0
  0
APPID
  2
ACADANNOPO
 70
     0
  0
APPID
  2
ACSYNERGY
 70
     0
  0
APPID
  2
SYNERGY_BODY_TBR_ID
 70
     0
  0
APPID
  2
ACAD_VIEW_EDGE_ID
 70
     0
  0
APPID
  2
ACSYNERGYSKETCH
 70
     0
  0
APPID
  2
ACAD_MODELDOC_XFORM
 70
     0
  0
APPID
  2
GENIUS_GENDTOL_13
 70
     0
  0
APPID
  2
ACAD_DSTYLE_DIMINSPECT
 70
     0
  0
APPID
  2
ACAD_DSTYLE_DIMANGULAR_EXT
 70
     0
  0
APPID
  2
PLOTTRANSPARENCY
 70
     0
  0
APPID
  2
ACAUTHENVIRON
 70
     0
  0
APPID
  2
ACDBDYNAMICBLOCKTRUENAME
 70
     0
  0
APPID
  2
ACDBDYNAMICBLOCKGUID
 70
     0
  0
APPID
  2
PE_URL
 70
     0
  0
APPID
  2
ACADANNOAV
 70
     0
  0
APPID
  2
ACAD_TC
 70
     0
  0
APPID
  2
ACAD_DIMASSOC_CALC_DIMLFAC
 70
     0
  0
APPID
  2
ACAD_DIMASSOC_DIMLFAC
 70
     0
  0
APPID
  2
ACAD_DIMASSOC_OVERRIDDEN_D
 70
     0
  0
APPID
  2
ACAD_DSTYLE_DIMTALN
 70
     0
  0
APPID
  2
ACADANNOTATIVE
 70
     0
  0
APPID
  2
HATCHBACKGROUNDCOLOR
 70
     0
  0
ENDTAB
  0
TABLE
  2
DIMSTYLE
 70
     8
  0
DIMSTYLE
  2
STANDARD
 70
     0
  3

  4

  5

  6

  7

 40
1.0
 41
0.18
 42
0.0625
 43
0.38
 44
0.18
 45
0.0
 46
0.0
 47
0.0
 48
0.0
140
0.18
141
0.09
142
0.0
143
25.3999999999999986
144
1.0
145
0.0
146
1.0
147
0.09
 71
     0
 72
     0
 73
     1
 74
     1
 75
     0
 76
     0
 77
     0
 78
     0
170
     0
171
     2
172
     0
173
     0
174
     0
175
     0
176
     0
177
     0
178
     0
  0
DIMSTYLE
  2
AM_ANSI
 70
     0
  3

  4
mm
  5

  6

  7

 40
1.0
 41
0.12
 42
0.05
 43
0.5
 44
0.1
 45
0.0
 46
0.0
 47
0.1
 48
0.1
140
0.12
141
0.0
142
0.0
143
25.3999999999999986
144
1.0
145
0.0
146
0.71
147
0.06
 71
     0
 72
     0
 73
     1
 74
     1
 75
     0
 76
     0
 77
     0
 78
     7
170
     0
171
     2
172
     0
173
     0
174
     0
175
     0
176
   256
177
   256
178
   255
  0
DIMSTYLE
  2
AM_ANSI$3
 70
     0
  3

  4
mm
  5

  6

  7

 40
1.0
 41
0.12
 42
0.05
 43
0.5
 44
0.1
 45
0.0
 46
0.0
 47
0.1
 48
0.1
140
0.12
141
0.0
142
0.0
143
25.3999999999999986
144
1.0
145
0.0
146
0.71
147
0.06
 71
     0
 72
     0
 73
     1
 74
     1
 75
     0
 76
     0
 77
     0
 78
     7
170
     0
171
     2
172
     0
173
     0
174
     0
175
     0
176
   256
177
   256
178
   255
  0
DIMSTYLE
  2
AM_ANSI$4
 70
     0
  3

  4
mm
  5

  6

  7

 40
1.0
 41
0.12
 42
0.05
 43
0.5
 44
0.1
 45
0.0
 46
0.0
 47
0.1
 48
0.1
140
0.12
141
0.0
142
0.0
143
25.3999999999999986
144
1.0
145
0.0
146
0.71
147
0.06
 71
     0
 72
     0
 73
     1
 74
     1
 75
     0
 76
     0
 77
     0
 78
     7
170
     0
171
     2
172
     0
173
     0
174
     0
175
     0
176
   256
177
   256
178
   255
  0
DIMSTYLE
  2
AM_ANSI$7
 70
     0
  3

  4
mm
  5

  6

  7

 40
1.0
 41
0.12
 42
0.05
 43
0.5
 44
0.1
 45
0.0
 46
0.0
 47
0.1
 48
0.1
140
0.12
141
0.0
142
0.0
143
25.3999999999999986
144
1.0
145
0.0
146
0.71
147
0.06
 71
     0
 72
     0
 73
     1
 74
     1
 75
     0
 76
     0
 77
     0
 78
     7
170
     0
171
     2
172
     0
173
     0
174
     0
175
     0
176
   256
177
   256
178
   255
  0
DIMSTYLE
  2
AM_ANSI$SF
 70
     0
  3

  4
mm
  5

  6

  7

 40
1.0
 41
0.12
 42
0.05
 43
0.5
 44
0.1
 45
0.0
 46
0.0
 47
0.1
 48
0.1
140
0.12
141
0.0
142
0.0
143
25.3999999999999986
144
1.0
145
0.0
146
0.71
147
0.06
 71
     0
 72
     0
 73
     1
 74
     1
 75
     1
 76
     1
 77
     0
 78
     7
170
     0
171
     2
172
     0
173
     0
174
     0
175
     0
176
   256
177
   256
178
   255
  0
DIMSTYLE
  2
AM_ANSI$SH
 70
     0
  3

  4
mm
  5

  6
GENAXEH
  7

 40
1.0
 41
0.12
 42
0.05
 43
0.5
 44
0.1
 45
0.0
 46
0.0
 47
0.1
 48
0.1
140
0.12
141
0.0
142
0.0
143
25.3999999999999986
144
1.0
145
0.0
146
0.71
147
0.06
 71
     0
 72
     0
 73
     1
 74
     1
 75
     1
 76
     1
 77
     0
 78
     7
170
     0
171
     2
172
     0
173
     1
174
     0
175
     0
176
   256
177
   256
178
   255
  0
DIMSTYLE
  2
AM_ANSI$0
 70
     0
  3

  4
"
  5

  6

  7

 40
1.0
 41
3.5
 42
1.0
 43
10.0
 44
1.0
 45
0.0
 46
0.0
 47
0.1
 48
0.1
140
3.5
141
0.0
142
0.0
143
0.0393701
144
1.0
145
0.0
146
0.71
147
1.5
 71
     0
 72
     0
 73
     1
 74
     1
 75
     0
 76
     0
 77
     0
 78
     8
170
     0
171
     2
172
     0
173
     0
174
     0
175
     0
176
   256
177
   256
178
     2
  0
ENDTAB
  0
ENDSEC
  0
SECTION
  2
BLOCKS
  0
BLOCK
  8
0
  2
$MODEL_SPACE
 70
     0
 10
0.0
 20
0.0
 30
0.0
  3
$MODEL_SPACE
  1

  0
ENDBLK
  5
38
  8
0
  0
BLOCK
 67
     1
  8
0
  2
$PAPER_SPACE
 70
     2
 10
0.0
 20
0.0
 30
0.0
  3
$PAPER_SPACE
  1

  0
ENDBLK
  5
36
 67
     1
  8
0
  0
BLOCK
  8
0
  2
GENAXEH
 70
     0
 10
0.0
 20
0.0
 30
0.0
  3
GENAXEH
  1

  0
LINE
  5
1721
  8
0
 10
-1.0
 20
0.0
 30
0.0
 11
1.0
 21
0.0
 31
0.0
  0
ENDBLK
  5
1723
  8
0
  0
BLOCK
  8
0
  2
*S1
 70
     1
 10
0.0
 20
0.0
 30
0.0
  3
*S1
  1

  0
ENDBLK
  5
2101
  8
0
  0
BLOCK
  8
0
  2
*U2
 70
     1
 10
0.0
 20
0.0
 30
0.0
  3
*U2
  1

  0
ENDBLK
  5
3EBB
  8
0
  0
BLOCK
  8
0
  2
A$C83A462D1
 70
     0
 10
0.0
 20
0.0
 30
0.0
  3
A$C83A462D1
  1

  0
LINE
  5
3769A
  8
0
  6
CONTINUOUS
 62
     3
 10
218.0000000000013074
 20
98.9980577112196869
 30
-0.000000000000022
 11
218.0000000000013074
 21
200.9980577112197011
 31
-0.0000000000000446
210
0.0
220
1.0
230
-0.0000000000000002
  0
LINE
  5
3769B
  8
0
  6
CONTINUOUS
 62
     3
 10
216.0000000000013074
 20
200.9980577112197011
 30
-0.0000000000000446
 11
218.0000000000013074
 21
200.9980577112197011
 31
-0.0000000000000446
210
0.0
220
1.0
230
-0.0000000000000002
  0
LINE
  5
3769C
  8
0
  6
CONTINUOUS
 62
     3
 10
216.0000000000013074
 20
98.9980577112196869
 30
-0.000000000000022
 11
218.0000000000013074
 21
98.9980577112196869
 31
-0.000000000000022
210
0.0
220
1.0
230
-0.0000000000000002
  0
LINE
  5
3769D
  8
0
  6
CONTINUOUS
 62
     3
 10
0.9999999999987437
 20
19.9999999999994102
 30
-0.0000000000000044
 11
0.9999999999987284
 21
-0.000000000000643
 31
0.0
210
0.0
220
1.0
230
-0.0000000000000002
  0
LINE
  5
3769E
  8
0
  6
CONTINUOUS
 62
     3
 10
-0.0000000000012733
 20
-0.0000000000006111
 30
0.0
 11
-0.000000000001258
 21
19.9999999999994102
 31
-0.0000000000000044
210
0.0
220
1.0
230
-0.0000000000000002
  0
LINE
  5
3769F
  8
0
  6
CONTINUOUS
 62
     3
 10
-0.0000000000013642
 20
-0.0000000000006821
 30
0.0
 11
0.9999999999986384
 21
-0.0000000000006833
 31
0.0
210
0.0
220
1.0
230
-0.0000000000000002
  0
LINE
  5
376A0
  8
0
  6
CONTINUOUS
 62
     3
 10
1.000000000000115
 20
300.0000000000006821
 30
-0.0000000000000666
 11
0.0000000000001128
 21
300.0000000000006821
 31
-0.0000000000000666
210
0.0
220
1.0
230
-0.0000000000000002
  0
LINE
  5
376A1
  8
0
  6
CONTINUOUS
 62
     3
 10
1.0000000000001379
 20
300.0000000000006821
 30
-0.0000000000000666
 11
1.0000000000001079
 21
280.0000000000006253
 31
-0.0000000000000622
210
0.0
220
1.0
230
-0.0000000000000002
  0
LINE
  5
376A2
  8
0
  6
CONTINUOUS
 62
     3
 10
0.0000000000001063
 20
280.0000000000006253
 30
-0.0000000000000622
 11
0.0000000000001364
 21
300.0000000000006821
 31
-0.0000000000000666
210
0.0
220
1.0
230
-0.0000000000000002
  0
LINE
  5
376A3
  8
0
  6
CONTINUOUS
 62
     3
 10
0.9999999999988649
 20
280.0000000000002842
 30
-0.0000000000000622
 11
0.9999999999987972
 21
19.9999999999993214
 31
-0.0000000000000044
210
0.0
220
1.0
230
-0.0000000000000002
  0
LINE
  5
376A4
  8
0
  6
CONTINUOUS
 62
     3
 10
-0.0000000000001137
 20
19.9999999999995808
 30
-0.0000000000000044
 11
0.0000000000001814
 21
280.0000000000006821
 31
-0.0000000000000622
210
0.0
220
1.0
230
-0.0000000000000002
  0
LINE
  5
376A5
  8
0
  6
CONTINUOUS
 62
     3
 10
316.0000000000036948
 20
114.1982020413708057
 30
-0.0000000000000254
 11
316.0000000000036948
 21
185.7979133810706003
 31
-0.0000000000000413
210
0.0
220
1.0
230
-0.0000000000000002
  0
LINE
  5
376A6
  8
0
  6
CONTINUOUS
 62
     3
 10
-1.9999999999975011
 20
110.3430086966748007
 30
-0.0000000000000245
 11
-1.999999999997496
 21
189.6531067257666905
 31
-0.0000000000000421
210
0.0
220
1.0
230
-0.0000000000000002
  0
LINE
  5
376A7
  8
0
  6
CONTINUOUS
 62
     3
 10
316.0000000000036948
 20
114.1982020413708057
 30
-0.0000000000000254
 11
308.3670194855394016
 21
113.5304027774408979
 31
-0.0000000000000252
210
0.0
220
1.0
230
-0.0000000000000002
  0
LINE
  5
376A8
  8
0
  6
CONTINUOUS
 62
     3
 10
316.0000000000036948
 20
185.7979133810706003
 30
-0.0000000000000413
 11
308.3670194855395152
 21
186.465712645000508
 31
-0.0000000000000414
210
0.0
220
1.0
230
-0.0000000000000002
  0
ARC
  5
376A9
  8
0
  6
CONTINUOUS
 62
     3
 10
-307.6261956721839965
 20
121.9980577112293929
 30
0.0
 40
8.5000000000086988
210
0.0
220
-0.0000000000000002
230
-1.0
 50
265.0000000000026716
 51
269.9999999999977263
  0
ARC
  5
376AA
  8
0
  6
CONTINUOUS
 62
     3
 10
-307.6261956721846218
 20
177.9980577112268918
 30
0.0
 40
8.4999999999938041
210
0.0
220
-0.0000000000000002
230
-1.0
 50
89.9999999999976978
 51
95.0000000000015348
  0
LINE
  5
376AB
  8
0
  6
CONTINUOUS
 62
     3
 10
218.0000000000013074
 20
186.4980577112206959
 30
-0.0000000000000414
 11
307.6261956721842807
 21
186.4980577112206959
 31
-0.0000000000000414
210
0.0
220
1.0
230
-0.0000000000000002
  0
LINE
  5
376AC
  8
0
  6
CONTINUOUS
 62
     3
 10
218.0000000000013074
 20
113.4980577112206959
 30
-0.0000000000000252
 11
307.6261956721842807
 21
113.4980577112206959
 31
-0.0000000000000252
210
0.0
220
1.0
230
-0.0000000000000002
  0
ARC
  5
376AD
  8
0
  6
CONTINUOUS
 62
     3
 10
-8.5489224070768675
 20
132.8980577112317008
 30
0.0
 40
24.8999999999907615
210
0.0
220
-0.0000000000000002
230
-1.0
 50
290.0798992965396224
 51
295.0653377150829897
  0
ARC
  5
376AE
  8
0
  6
CONTINUOUS
 62
     3
 10
-8.5489224070699805
 20
167.0980577112264029
 30
0.0
 40
24.899999999972799
210
0.0
220
-0.0000000000000002
230
-1.0
 50
64.9346622849151629
 51
69.9201007034624524
  0
LINE
  5
376AF
  8
0
  6
CONTINUOUS
 62
     3
 10
216.0000000000013074
 20
201.4980577112202127
 30
-0.0000000000000447
 11
216.0000000000013074
 21
98.4980577112201416
 31
-0.0000000000000219
210
0.0
220
1.0
230
-0.0000000000000002
  0
LINE
  5
376B0
  8
0
  6
CONTINUOUS
 62
     3
 10
216.0000000000013074
 20
98.4980577112201416
 30
-0.0000000000000219
 11
1.000000000001307
 21
98.4980577112201416
 31
-0.0000000000000219
210
0.0
220
1.0
230
-0.0000000000000002
  0
LINE
  5
376B1
  8
0
  6
CONTINUOUS
 62
     3
 10
216.0000000000013074
 20
201.4980577112202127
 30
-0.0000000000000447
 11
1.000000000001307
 21
201.4980577112202127
 31
-0.0000000000000447
210
0.0
220
1.0
230
-0.0000000000000002
  0
LINE
  5
376B2
  8
0
  6
VERDECKT
 62
     1
 10
207.0000000000025011
 20
106.7480577112217048
 30
-0.0000000000000237
 11
207.0000000000025011
 21
193.2480577112181095
 31
-0.0000000000000429
210
0.0
220
1.0
230
-0.0000000000000002
  0
LINE
  5
376B3
  8
0
  6
VERDECKT
 62
     1
 10
200.0000000000025011
 20
101.5567900230886949
 30
-0.0000000000000226
 11
200.0000000000025011
 21
198.4393253993509916
 31
-0.0000000000000441
210
0.0
220
1.0
230
-0.0000000000000002
  0
LINE
  5
376B4
  8
0
  6
VERDECKT
 62
     1
 10
216.0348782368747038
 20
100.9968397363516033
 30
-0.0000000000000224
 11
216.0348782368747038
 21
198.9992756860881968
 31
-0.0000000000000442
210
0.0
220
1.0
230
-0.0000000000000002
  0
LINE
  5
376B5
  8
0
  6
VERDECKT
 62
     1
 10
13.86082689904128
 20
106.8980577112212984
 30
-0.0000000000000237
 11
13.86082689904128
 21
193.0980577112185017
 31
-0.0000000000000429
210
0.0
220
1.0
230
-0.0000000000000002
  0
LINE
  5
376B6
  8
0
  6
VERDECKT
 62
     1
 10
14.0000000000013607
 20
105.9077896424802958
 30
-0.0000000000000235
 11
14.0000000000013696
 21
194.0883257799594048
 31
-0.0000000000000431
210
0.0
220
1.0
230
-0.0000000000000002
  0
LINE
  5
376B7
  8
0
  6
VERDECKT
 62
     1
 10
200.0000000000025011
 20
190.2480577112181095
 30
-0.0000000000000422
 11
207.0000000000025011
 21
190.2480577112181095
 31
-0.0000000000000422
210
0.0
220
1.0
230
-0.0000000000000002
  0
LINE
  5
376B8
  8
0
  6
VERDECKT
 62
     1
 10
200.0000000000025011
 20
109.7480577112217048
 30
-0.0000000000000244
 11
207.0000000000025011
 21
109.7480577112217048
 31
-0.0000000000000244
210
0.0
220
1.0
230
-0.0000000000000002
  0
LINE
  5
376B9
  8
0
  6
VERDECKT
 62
     1
 10
207.0000000000025011
 20
106.7480577112217048
 30
-0.0000000000000237
 11
200.0000000000025011
 21
103.776733997754306
 31
-0.000000000000023
210
0.0
220
1.0
230
-0.0000000000000002
  0
LINE
  5
376BA
  8
0
  6
VERDECKT
 62
     1
 10
207.0000000000025011
 20
193.2480577112181095
 30
-0.0000000000000429
 11
200.0000000000025011
 21
196.2193814246855084
 31
-0.0000000000000436
210
0.0
220
1.0
230
-0.0000000000000002
  0
LINE
  5
376BB
  8
0
  6
VERDECKT
 62
     1
 10
200.0000000000025011
 20
198.4393253993509916
 30
-0.0000000000000441
 11
216.0348782368747038
 21
198.9992756860881968
 31
-0.0000000000000442
210
0.0
220
1.0
230
-0.0000000000000002
  0
LINE
  5
376BC
  8
0
  6
VERDECKT
 62
     1
 10
200.0000000000025011
 20
101.5567900230886949
 30
-0.0000000000000226
 11
216.0348782368747038
 21
100.9968397363516033
 31
-0.0000000000000224
210
0.0
220
1.0
230
-0.0000000000000002
  0
LINE
  5
376BD
  8
0
  6
VERDECKT
 62
     1
 10
216.0348782368747038
 20
100.9968397363516033
 30
-0.0000000000000224
 11
216.0000000000025011
 21
99.998057711221719
 31
-0.0000000000000222
210
0.0
220
1.0
230
-0.0000000000000002
  0
LINE
  5
376BE
  8
0
  6
VERDECKT
 62
     1
 10
216.0348782368747038
 20
198.9992756860881968
 30
-0.0000000000000442
 11
216.0000000000025011
 21
199.9980577112181095
 31
-0.0000000000000444
210
0.0
220
1.0
230
-0.0000000000000002
  0
ARC
  5
376BF
  8
0
  6
VERDECKT
 62
     1
 10
-58.1266200083302635
 20
105.4980577112176974
 30
0.0
 40
8.0000000000022027
210
0.0
220
-0.0000000000000002
230
-1.0
 50
58.1297797402354632
 51
89.9999999999985647
  0
ARC
  5
376C0
  8
0
  6
VERDECKT
 62
     1
 10
-58.1266200083303417
 20
194.4980577112222875
 30
0.0
 40
8.0000000000023874
210
0.0
220
-0.0000000000000002
230
-1.0
 50
270.0000000000019895
 51
301.8702202597643804
  0
ARC
  5
376C1
  8
0
  6
VERDECKT
 62
     1
 10
-47.6194795790768381
 20
122.3980577112264001
 30
0.0
 40
11.9000000000064698
210
0.0
220
-0.0000000000000002
230
-1.0
 50
238.129779740235989
 51
269.9999999999890861
  0
ARC
  5
376C2
  8
0
  6
VERDECKT
 62
     1
 10
-47.6194795790767529
 20
177.5980577112131016
 30
0.0
 40
11.9000000000068002
210
0.0
220
-0.0000000000000002
230
-1.0
 50
90.0000000000113545
 51
121.8702202597635988
  0
LINE
  5
376C3
  8
0
  6
VERDECKT
 62
     1
 10
26.6700000000048512
 20
189.4980577112199001
 30
-0.0000000000000421
 11
47.6194795790790906
 21
189.4980577112199001
 31
-0.0000000000000421
210
0.0
220
1.0
230
-0.0000000000000002
  0
LINE
  5
376C4
  8
0
  6
VERDECKT
 62
     1
 10
26.6700000000048512
 20
110.4980577112199001
 30
-0.0000000000000245
 11
47.6194795790790906
 21
110.4980577112199001
 31
-0.0000000000000245
210
0.0
220
1.0
230
-0.0000000000000002
  0
ARC
  5
376C5
  8
0
  6
VERDECKT
 62
     1
 10
-26.6700000000046593
 20
98.3980577112225205
 30
0.0
 40
12.0999999999973795
210
0.0
220
-0.0000000000000002
230
-1.0
 50
68.8168456069590064
 51
90.0000000000008669
  0
ARC
  5
376C6
  8
0
  6
VERDECKT
 62
     1
 10
-26.6700000000046415
 20
201.5980577112169101
 30
0.0
 40
12.0999999999970296
210
0.0
220
-0.0000000000000002
230
-1.0
 50
269.9999999999989768
 51
291.1831543930414909
  0
ARC
  5
376C7
  8
0
  6
VERDECKT
 62
     1
 10
-13.2999999999710496
 20
132.8980577114843129
 30
0.0
 40
24.9000932433909306
210
0.0
220
-0.0000000000000002
230
-1.0
 50
248.8168456071126968
 51
268.7094131957824175
  0
ARC
  5
376C8
  8
0
  6
VERDECKT
 62
     1
 10
-13.2999999999708205
 20
167.0980577109540945
 30
0.0
 40
24.9000932433922415
210
0.0
220
-0.0000000000000002
230
-1.0
 50
91.2905868042181368
 51
111.1831543928867063
  0
LINE
  5
376C9
  8
0
  6
VERDECKT
 62
     1
 10
13.8608268990412906
 20
193.0980577112185017
 30
-0.0000000000000429
 11
14.0000000000013696
 21
194.0883257799594048
 31
-0.0000000000000431
210
0.0
220
1.0
230
-0.0000000000000002
  0
LINE
  5
376CA
  8
0
  6
VERDECKT
 62
     1
 10
13.86082689904128
 20
106.8980577112212984
 30
-0.0000000000000237
 11
14.0000000000013607
 21
105.9077896424802958
 31
-0.0000000000000235
210
0.0
220
1.0
230
-0.0000000000000002
  0
LINE
  5
376CB
  8
0
  6
VERDECKT
 62
     1
 10
14.0000000000013607
 20
105.9077896424802958
 30
-0.0000000000000235
 11
1.4304134495212071
 21
104.1412494568119058
 31
-0.0000000000000231
210
0.0
220
1.0
230
-0.0000000000000002
  0
LINE
  5
376CC
  8
0
  6
VERDECKT
 62
     1
 10
14.0000000000013607
 20
194.0883257799594048
 30
-0.0000000000000431
 11
1.4304134495212111
 21
195.8548659656279085
 31
-0.0000000000000435
210
0.0
220
1.0
230
-0.0000000000000002
  0
ARC
  5
376CD
  8
0
  6
VERDECKT
 62
     1
 10
-1.500000000001372
 20
103.6461154224412979
 30
0.0
 40
0.4999999999998526
210
0.0
220
-0.0000000000000002
230
-1.0
 50
359.9999999998045723
 51
81.999999999982208
  0
ARC
  5
376CE
  8
0
  6
VERDECKT
 62
     1
 10
-1.500000000001348
 20
196.3499999999984027
 30
0.0
 40
0.4999999999998109
210
0.0
220
-0.0000000000000002
230
-1.0
 50
278.0000000000151203
 51
0.0000000001986781
  0
LINE
  5
376CF
  8
0
  6
VERDECKT
 62
     1
 10
1.000000000001364
 20
199.9980577112189906
 30
-0.0000000000000444
 11
216.0000000000025011
 21
199.9980577112189906
 31
-0.0000000000000444
210
0.0
220
1.0
230
-0.0000000000000002
  0
LINE
  5
376D0
  8
0
  6
VERDECKT
 62
     1
 10
1.000000000001364
 20
99.9980577112208238
 30
-0.0000000000000222
 11
216.0000000000025011
 21
99.9980577112208238
 31
-0.0000000000000222
210
0.0
220
1.0
230
-0.0000000000000002
  0
LINE
  5
376D1
  8
0
  6
VERDECKT
 62
     1
 10
58.1266200083300575
 20
186.4980577112199001
 30
-0.0000000000000414
 11
200.0000000000025011
 21
186.4980577112199001
 31
-0.0000000000000414
210
0.0
220
1.0
230
-0.0000000000000002
  0
LINE
  5
376D2
  8
0
  6
VERDECKT
 62
     1
 10
58.1266200083300575
 20
113.4980577112199001
 30
-0.0000000000000252
 11
200.0000000000025011
 21
113.4980577112199001
 31
-0.0000000000000252
210
0.0
220
1.0
230
-0.0000000000000002
  0
LINE
  5
376D3
  8
0
  6
VERDECKT
 62
     1
 10
200.0000000000013074
 20
101.5567900230876006
 30
-0.0000000000000226
 11
200.0000000000013074
 21
198.4393253993517021
 31
-0.0000000000000441
210
0.0
220
1.0
230
-0.0000000000000002
  0
LINE
  5
376D4
  8
0
  6
VERDECKT
 62
     1
 10
210.0000000000013074
 20
110.5980577112194965
 30
-0.0000000000000246
 11
210.0000000000013074
 21
189.3980577112197068
 31
-0.0000000000000421
210
0.0
220
1.0
230
-0.0000000000000002
  0
LINE
  5
376D5
  8
0
  6
VERDECKT
 62
     1
 10
207.0000000000013927
 20
106.7480577112196016
 30
-0.0000000000000237
 11
207.0000000000013927
 21
193.2480577112197011
 31
-0.0000000000000429
210
0.0
220
1.0
230
-0.0000000000000002
  0
LINE
  5
376D6
  8
0
  6
VERDECKT
 62
     1
 10
200.0000000000013074
 20
198.4393253993517021
 30
-0.0000000000000441
 11
216.0000000000013074
 21
198.9980577112197011
 31
-0.0000000000000442
210
0.0
220
1.0
230
-0.0000000000000002
  0
LINE
  5
376D7
  8
0
  6
VERDECKT
 62
     1
 10
200.0000000000013074
 20
101.5567900230876006
 30
-0.0000000000000226
 11
216.0000000000013074
 21
100.9980577112197011
 31
-0.0000000000000224
210
0.0
220
1.0
230
-0.0000000000000002
  0
LINE
  5
376D8
  8
0
  6
VERDECKT
 62
     1
 10
210.0000000000013074
 20
189.3980577112197068
 30
-0.0000000000000421
 11
218.0000000000013074
 21
194.0168598647364888
 31
-0.0000000000000431
210
0.0
220
1.0
230
-0.0000000000000002
  0
LINE
  5
376D9
  8
0
  6
VERDECKT
 62
     1
 10
210.0000000000013074
 20
110.5980577112194965
 30
-0.0000000000000246
 11
218.0000000000013074
 21
105.9792555577027997
 31
-0.0000000000000235
210
0.0
220
1.0
230
-0.0000000000000002
  0
LINE
  5
376DA
  8
0
  6
VERDECKT
 62
     1
 10
200.0000000000013927
 20
186.4980577112197011
 30
-0.0000000000000414
 11
210.0000000000013927
 21
186.4980577112197011
 31
-0.0000000000000414
210
0.0
220
1.0
230
-0.0000000000000002
  0
LINE
  5
376DB
  8
0
  6
VERDECKT
 62
     1
 10
200.0000000000013074
 20
113.4980577112197011
 30
-0.0000000000000252
 11
210.0000000000013927
 21
113.4980577112197011
 31
-0.0000000000000252
210
0.0
220
1.0
230
-0.0000000000000002
  0
LINE
  5
376DC
  8
0
  6
VERDECKT
 62
     1
 10
200.0000000000013927
 20
190.2480577112197011
 30
-0.0000000000000422
 11
207.0000000000013927
 21
190.2480577112197011
 31
-0.0000000000000422
210
0.0
220
1.0
230
-0.0000000000000002
  0
LINE
  5
376DD
  8
0
  6
VERDECKT
 62
     1
 10
200.0000000000013927
 20
109.7480577112196016
 30
-0.0000000000000244
 11
207.0000000000013927
 21
109.7480577112196016
 31
-0.0000000000000244
210
0.0
220
1.0
230
-0.0000000000000002
  0
LINE
  5
376DE
  8
0
  6
VERDECKT
 62
     1
 10
207.0000000000013927
 20
106.7480577112196016
 30
-0.0000000000000237
 11
200.0000000000013074
 21
103.7767339977522028
 31
-0.000000000000023
210
0.0
220
1.0
230
-0.0000000000000002
  0
LINE
  5
376DF
  8
0
  6
VERDECKT
 62
     1
 10
207.0000000000013927
 20
193.2480577112197011
 30
-0.0000000000000429
 11
200.0000000000013074
 21
196.2193814246871
 31
-0.0000000000000436
210
0.0
220
1.0
230
-0.0000000000000002
  0
POLYLINE
  8
0
  5
3787C
  62
1
  66
     1
 10
0.00000
 20
0.00000
 30
0.00000
  70
     8
  0
VERTEX
  8
0
  5
3787D
 10
5.02999e-06
 20
103.650
 30
-2.30000e-14
  70
    32
  0
VERTEX
  8
0
  5
3787E
 10
5.02992e-06
 20
103.651
 30
-2.30000e-14
  70
    32
  0
VERTEX
  8
0
  5
3787F
 10
5.02974e-06
 20
103.652
 30
-2.30003e-14
  70
    32
  0
VERTEX
  8
0
  5
37880
 10
5.02943e-06
 20
103.655
 30
-2.30011e-14
  70
    32
  0
VERTEX
  8
0
  5
37881
 10
5.02901e-06
 20
103.659
 30
-2.30027e-14
  70
    32
  0
VERTEX
  8
0
  5
37882
 10
5.02846e-06
 20
103.664
 30
-2.30052e-14
  70
    32
  0
VERTEX
  8
0
  5
37883
 10
5.02779e-06
 20
103.670
 30
-2.30087e-14
  70
    32
  0
VERTEX
  8
0
  5
37884
 10
5.02699e-06
 20
103.678
 30
-2.30125e-14
  70
    32
  0
VERTEX
  8
0
  5
37885
 10
5.02607e-06
 20
103.686
 30
-2.30165e-14
  70
    32
  0
VERTEX
  8
0
  5
37886
 10
5.02503e-06
 20
103.696
 30
-2.30207e-14
  70
    32
  0
VERTEX
  8
0
  5
37887
 10
5.02386e-06
 20
103.706
 30
-2.30250e-14
  70
    32
  0
VERTEX
  8
0
  5
37888
 10
5.02257e-06
 20
103.718
 30
-2.30296e-14
  70
    32
  0
VERTEX
  8
0
  5
37889
 10
5.02116e-06
 20
103.731
 30
-2.30344e-14
  70
    32
  0
VERTEX
  8
0
  5
3788A
 10
5.01962e-06
 20
103.745
 30
-2.30393e-14
  70
    32
  0
VERTEX
  8
0
  5
3788B
 10
5.01797e-06
 20
103.760
 30
-2.30445e-14
  70
    32
  0
VERTEX
  8
0
  5
3788C
 10
5.01619e-06
 20
103.777
 30
-2.30498e-14
  70
    32
  0
VERTEX
  8
0
  5
3788D
 10
5.01429e-06
 20
103.794
 30
-2.30554e-14
  70
    32
  0
VERTEX
  8
0
  5
3788E
 10
5.01227e-06
 20
103.812
 30
-2.30611e-14
  70
    32
  0
VERTEX
  8
0
  5
3788F
 10
5.01013e-06
 20
103.832
 30
-2.30671e-14
  70
    32
  0
VERTEX
  8
0
  5
37890
 10
5.00786e-06
 20
103.853
 30
-2.30732e-14
  70
    32
  0
VERTEX
  8
0
  5
37891
 10
5.00548e-06
 20
103.875
 30
-2.30796e-14
  70
    32
  0
VERTEX
  8
0
  5
37892
 10
5.00298e-06
 20
103.898
 30
-2.30861e-14
  70
    32
  0
VERTEX
  8
0
  5
37893
 10
5.00036e-06
 20
103.922
 30
-2.30928e-14
  70
    32
  0
VERTEX
  8
0
  5
37894
 10
4.99761e-06
 20
103.947
 30
-2.30998e-14
  70
    32
  0
VERTEX
  8
0
  5
37895
 10
4.99475e-06
 20
103.973
 30
-2.31069e-14
  70
    32
  0
VERTEX
  8
0
  5
37896
 10
4.99177e-06
 20
104.001
 30
-2.31142e-14
  70
    32
  0
VERTEX
  8
0
  5
37897
 10
4.98867e-06
 20
104.029
 30
-2.31217e-14
  70
    32
  0
VERTEX
  8
0
  5
37898
 10
4.98546e-06
 20
104.059
 30
-2.31294e-14
  70
    32
  0
VERTEX
  8
0
  5
37899
 10
4.98212e-06
 20
104.090
 30
-2.31373e-14
  70
    32
  0
VERTEX
  8
0
  5
3789A
 10
4.97867e-06
 20
104.121
 30
-2.31454e-14
  70
    32
  0
VERTEX
  8
0
  5
3789B
 10
4.97510e-06
 20
104.154
 30
-2.31537e-14
  70
    32
  0
VERTEX
  8
0
  5
3789C
 10
4.97141e-06
 20
104.188
 30
-2.31622e-14
  70
    32
  0
VERTEX
  8
0
  5
3789D
 10
4.96761e-06
 20
104.224
 30
-2.31709e-14
  70
    32
  0
VERTEX
  8
0
  5
3789E
 10
4.96369e-06
 20
104.260
 30
-2.31798e-14
  70
    32
  0
VERTEX
  8
0
  5
3789F
 10
4.95965e-06
 20
104.297
 30
-2.31888e-14
  70
    32
  0
VERTEX
  8
0
  5
378A0
 10
4.95550e-06
 20
104.336
 30
-2.31981e-14
  70
    32
  0
VERTEX
  8
0
  5
378A1
 10
4.95123e-06
 20
104.375
 30
-2.32076e-14
  70
    32
  0
VERTEX
  8
0
  5
378A2
 10
4.94685e-06
 20
104.416
 30
-2.32172e-14
  70
    32
  0
VERTEX
  8
0
  5
378A3
 10
4.94235e-06
 20
104.458
 30
-2.32271e-14
  70
    32
  0
VERTEX
  8
0
  5
378A4
 10
4.93773e-06
 20
104.500
 30
-2.32372e-14
  70
    32
  0
VERTEX
  8
0
  5
378A5
 10
4.93301e-06
 20
104.544
 30
-2.32474e-14
  70
    32
  0
VERTEX
  8
0
  5
378A6
 10
4.92816e-06
 20
104.589
 30
-2.32578e-14
  70
    32
  0
VERTEX
  8
0
  5
378A7
 10
4.92321e-06
 20
104.635
 30
-2.32685e-14
  70
    32
  0
VERTEX
  8
0
  5
378A8
 10
4.91814e-06
 20
104.683
 30
-2.32793e-14
  70
    32
  0
VERTEX
  8
0
  5
378A9
 10
4.91295e-06
 20
104.731
 30
-2.32903e-14
  70
    32
  0
VERTEX
  8
0
  5
378AA
 10
4.90766e-06
 20
104.780
 30
-2.33015e-14
  70
    32
  0
VERTEX
  8
0
  5
378AB
 10
4.90225e-06
 20
104.831
 30
-2.33130e-14
  70
    32
  0
VERTEX
  8
0
  5
378AC
 10
4.89672e-06
 20
104.882
 30
-2.33246e-14
  70
    32
  0
VERTEX
  8
0
  5
378AD
 10
4.89109e-06
 20
104.935
 30
-2.33364e-14
  70
    32
  0
VERTEX
  8
0
  5
378AE
 10
4.88534e-06
 20
104.989
 30
-2.33484e-14
  70
    32
  0
VERTEX
  8
0
  5
378AF
 10
4.87948e-06
 20
105.044
 30
-2.33606e-14
  70
    32
  0
VERTEX
  8
0
  5
378B0
 10
4.87351e-06
 20
105.100
 30
-2.33729e-14
  70
    32
  0
VERTEX
  8
0
  5
378B1
 10
4.86743e-06
 20
105.157
 30
-2.33855e-14
  70
    32
  0
VERTEX
  8
0
  5
378B2
 10
4.86124e-06
 20
105.215
 30
-2.33983e-14
  70
    32
  0
VERTEX
  8
0
  5
378B3
 10
4.85494e-06
 20
105.274
 30
-2.34112e-14
  70
    32
  0
VERTEX
  8
0
  5
378B4
 10
4.84853e-06
 20
105.334
 30
-2.34244e-14
  70
    32
  0
VERTEX
  8
0
  5
378B5
 10
4.84201e-06
 20
105.395
 30
-2.34378e-14
  70
    32
  0
VERTEX
  8
0
  5
378B6
 10
4.83537e-06
 20
105.458
 30
-2.34513e-14
  70
    32
  0
VERTEX
  8
0
  5
378B7
 10
4.82863e-06
 20
105.521
 30
-2.34650e-14
  70
    32
  0
VERTEX
  8
0
  5
378B8
 10
4.82178e-06
 20
105.586
 30
-2.34790e-14
  70
    32
  0
VERTEX
  8
0
  5
378B9
 10
4.81482e-06
 20
105.652
 30
-2.34931e-14
  70
    32
  0
VERTEX
  8
0
  5
378BA
 10
4.80775e-06
 20
105.718
 30
-2.35074e-14
  70
    32
  0
VERTEX
  8
0
  5
378BB
 10
4.80058e-06
 20
105.786
 30
-2.35219e-14
  70
    32
  0
VERTEX
  8
0
  5
378BC
 10
4.79329e-06
 20
105.855
 30
-2.35366e-14
  70
    32
  0
VERTEX
  8
0
  5
378BD
 10
4.78590e-06
 20
105.925
 30
-2.35515e-14
  70
    32
  0
VERTEX
  8
0
  5
378BE
 10
4.77840e-06
 20
105.996
 30
-2.35666e-14
  70
    32
  0
VERTEX
  8
0
  5
378BF
 10
4.77080e-06
 20
106.068
 30
-2.35819e-14
  70
    32
  0
VERTEX
  8
0
  5
378C0
 10
4.76308e-06
 20
106.141
 30
-2.35974e-14
  70
    32
  0
VERTEX
  8
0
  5
378C1
 10
4.75526e-06
 20
106.215
 30
-2.36130e-14
  70
    32
  0
VERTEX
  8
0
  5
378C2
 10
4.74734e-06
 20
106.291
 30
-2.36289e-14
  70
    32
  0
VERTEX
  8
0
  5
378C3
 10
4.73930e-06
 20
106.367
 30
-2.36449e-14
  70
    32
  0
VERTEX
  8
0
  5
378C4
 10
4.73117e-06
 20
106.444
 30
-2.36612e-14
  70
    32
  0
VERTEX
  8
0
  5
378C5
 10
4.72292e-06
 20
106.523
 30
-2.36776e-14
  70
    32
  0
VERTEX
  8
0
  5
378C6
 10
4.71457e-06
 20
106.602
 30
-2.36943e-14
  70
    32
  0
VERTEX
  8
0
  5
378C7
 10
4.70612e-06
 20
106.683
 30
-2.37111e-14
  70
    32
  0
VERTEX
  8
0
  5
378C8
 10
4.69756e-06
 20
106.765
 30
-2.37281e-14
  70
    32
  0
VERTEX
  8
0
  5
378C9
 10
4.68890e-06
 20
106.847
 30
-2.37453e-14
  70
    32
  0
VERTEX
  8
0
  5
378CA
 10
4.68014e-06
 20
106.931
 30
-2.37627e-14
  70
    32
  0
VERTEX
  8
0
  5
378CB
 10
4.67127e-06
 20
107.016
 30
-2.37803e-14
  70
    32
  0
VERTEX
  8
0
  5
378CC
 10
4.66229e-06
 20
107.102
 30
-2.37981e-14
  70
    32
  0
VERTEX
  8
0
  5
378CD
 10
4.65322e-06
 20
107.189
 30
-2.38160e-14
  70
    32
  0
VERTEX
  8
0
  5
378CE
 10
4.64404e-06
 20
107.277
 30
-2.38342e-14
  70
    32
  0
VERTEX
  8
0
  5
378CF
 10
4.63476e-06
 20
107.366
 30
-2.38526e-14
  70
    32
  0
VERTEX
  8
0
  5
378D0
 10
4.62537e-06
 20
107.456
 30
-2.38711e-14
  70
    32
  0
VERTEX
  8
0
  5
378D1
 10
4.61589e-06
 20
107.548
 30
-2.38898e-14
  70
    32
  0
VERTEX
  8
0
  5
378D2
 10
4.60630e-06
 20
107.640
 30
-2.39088e-14
  70
    32
  0
VERTEX
  8
0
  5
378D3
 10
4.59662e-06
 20
107.733
 30
-2.39280e-14
  70
    32
  0
VERTEX
  8
0
  5
378D4
 10
4.58684e-06
 20
107.827
 30
-2.39475e-14
  70
    32
  0
VERTEX
  8
0
  5
378D5
 10
4.57697e-06
 20
107.923
 30
-2.39673e-14
  70
    32
  0
VERTEX
  8
0
  5
378D6
 10
4.56700e-06
 20
108.019
 30
-2.39873e-14
  70
    32
  0
VERTEX
  8
0
  5
378D7
 10
4.55694e-06
 20
108.116
 30
-2.40077e-14
  70
    32
  0
VERTEX
  8
0
  5
378D8
 10
4.54679e-06
 20
108.215
 30
-2.40283e-14
  70
    32
  0
VERTEX
  8
0
  5
378D9
 10
4.53655e-06
 20
108.314
 30
-2.40492e-14
  70
    32
  0
VERTEX
  8
0
  5
378DA
 10
4.52622e-06
 20
108.414
 30
-2.40703e-14
  70
    32
  0
VERTEX
  8
0
  5
378DB
 10
4.51580e-06
 20
108.515
 30
-2.40918e-14
  70
    32
  0
VERTEX
  8
0
  5
378DC
 10
4.50528e-06
 20
108.618
 30
-2.41135e-14
  70
    32
  0
VERTEX
  8
0
  5
378DD
 10
4.49468e-06
 20
108.721
 30
-2.41355e-14
  70
    32
  0
VERTEX
  8
0
  5
378DE
 10
4.48399e-06
 20
108.825
 30
-2.41577e-14
  70
    32
  0
VERTEX
  8
0
  5
378DF
 10
4.47321e-06
 20
108.930
 30
-2.41802e-14
  70
    32
  0
VERTEX
  8
0
  5
378E0
 10
4.46235e-06
 20
109.036
 30
-2.42030e-14
  70
    32
  0
VERTEX
  8
0
  5
378E1
 10
4.45140e-06
 20
109.144
 30
-2.42260e-14
  70
    32
  0
VERTEX
  8
0
  5
378E2
 10
4.44036e-06
 20
109.252
 30
-2.42493e-14
  70
    32
  0
VERTEX
  8
0
  5
378E3
 10
4.42924e-06
 20
109.361
 30
-2.42728e-14
  70
    32
  0
VERTEX
  8
0
  5
378E4
 10
4.41803e-06
 20
109.471
 30
-2.42966e-14
  70
    32
  0
VERTEX
  8
0
  5
378E5
 10
4.40674e-06
 20
109.582
 30
-2.43207e-14
  70
    32
  0
VERTEX
  8
0
  5
378E6
 10
4.39537e-06
 20
109.694
 30
-2.43450e-14
  70
    32
  0
VERTEX
  8
0
  5
378E7
 10
4.38391e-06
 20
109.807
 30
-2.43695e-14
  70
    32
  0
VERTEX
  8
0
  5
378E8
 10
4.37237e-06
 20
109.921
 30
-2.43943e-14
  70
    32
  0
VERTEX
  8
0
  5
378E9
 10
4.36075e-06
 20
110.035
 30
-2.44194e-14
  70
    32
  0
VERTEX
  8
0
  5
378EA
 10
4.34906e-06
 20
110.151
 30
-2.44447e-14
  70
    32
  0
VERTEX
  8
0
  5
378EB
 10
4.33728e-06
 20
110.268
 30
-2.44702e-14
  70
    32
  0
VERTEX
  8
0
  5
378EC
 10
4.32542e-06
 20
110.386
 30
-2.44960e-14
  70
    32
  0
VERTEX
  8
0
  5
378ED
 10
4.31348e-06
 20
110.504
 30
-2.45220e-14
  70
    32
  0
VERTEX
  8
0
  5
378EE
 10
4.30147e-06
 20
110.624
 30
-2.45482e-14
  70
    32
  0
VERTEX
  8
0
  5
378EF
 10
4.28937e-06
 20
110.744
 30
-2.45747e-14
  70
    32
  0
VERTEX
  8
0
  5
378F0
 10
4.27721e-06
 20
110.866
 30
-2.46015e-14
  70
    32
  0
VERTEX
  8
0
  5
378F1
 10
4.26496e-06
 20
110.988
 30
-2.46284e-14
  70
    32
  0
VERTEX
  8
0
  5
378F2
 10
4.25264e-06
 20
111.112
 30
-2.46556e-14
  70
    32
  0
VERTEX
  8
0
  5
378F3
 10
4.24025e-06
 20
111.236
 30
-2.46830e-14
  70
    32
  0
VERTEX
  8
0
  5
378F4
 10
4.22778e-06
 20
111.361
 30
-2.47106e-14
  70
    32
  0
VERTEX
  8
0
  5
378F5
 10
4.21523e-06
 20
111.487
 30
-2.47385e-14
  70
    32
  0
VERTEX
  8
0
  5
378F6
 10
4.20262e-06
 20
111.614
 30
-2.47666e-14
  70
    32
  0
VERTEX
  8
0
  5
378F7
 10
4.18993e-06
 20
111.742
 30
-2.47949e-14
  70
    32
  0
VERTEX
  8
0
  5
378F8
 10
4.17717e-06
 20
111.871
 30
-2.48234e-14
  70
    32
  0
VERTEX
  8
0
  5
378F9
 10
4.16434e-06
 20
112.001
 30
-2.48521e-14
  70
    32
  0
VERTEX
  8
0
  5
378FA
 10
4.15145e-06
 20
112.132
 30
-2.48811e-14
  70
    32
  0
VERTEX
  8
0
  5
378FB
 10
4.13848e-06
 20
112.264
 30
-2.49103e-14
  70
    32
  0
VERTEX
  8
0
  5
378FC
 10
4.12544e-06
 20
112.396
 30
-2.49397e-14
  70
    32
  0
VERTEX
  8
0
  5
378FD
 10
4.11233e-06
 20
112.530
 30
-2.49692e-14
  70
    32
  0
VERTEX
  8
0
  5
378FE
 10
4.09916e-06
 20
112.664
 30
-2.49990e-14
  70
    32
  0
VERTEX
  8
0
  5
378FF
 10
4.08592e-06
 20
112.799
 30
-2.50291e-14
  70
    32
  0
VERTEX
  8
0
  5
37900
 10
4.07261e-06
 20
112.935
 30
-2.50593e-14
  70
    32
  0
VERTEX
  8
0
  5
37901
 10
4.05924e-06
 20
113.072
 30
-2.50897e-14
  70
    32
  0
VERTEX
  8
0
  5
37902
 10
4.04580e-06
 20
113.210
 30
-2.51203e-14
  70
    32
  0
VERTEX
  8
0
  5
37903
 10
4.03230e-06
 20
113.349
 30
-2.51511e-14
  70
    32
  0
VERTEX
  8
0
  5
37904
 10
4.01874e-06
 20
113.489
 30
-2.51821e-14
  70
    32
  0
VERTEX
  8
0
  5
37905
 10
4.00511e-06
 20
113.630
 30
-2.52133e-14
  70
    32
  0
VERTEX
  8
0
  5
37906
 10
3.99142e-06
 20
113.771
 30
-2.52447e-14
  70
    32
  0
VERTEX
  8
0
  5
37907
 10
3.97767e-06
 20
113.914
 30
-2.52763e-14
  70
    32
  0
VERTEX
  8
0
  5
37908
 10
3.96385e-06
 20
114.057
 30
-2.53081e-14
  70
    32
  0
VERTEX
  8
0
  5
37909
 10
3.94998e-06
 20
114.201
 30
-2.53401e-14
  70
    32
  0
VERTEX
  8
0
  5
3790A
 10
3.93605e-06
 20
114.346
 30
-2.53722e-14
  70
    32
  0
VERTEX
  8
0
  5
3790B
 10
3.92206e-06
 20
114.492
 30
-2.54046e-14
  70
    32
  0
VERTEX
  8
0
  5
3790C
 10
3.90800e-06
 20
114.639
 30
-2.54371e-14
  70
    32
  0
VERTEX
  8
0
  5
3790D
 10
3.89390e-06
 20
114.787
 30
-2.54698e-14
  70
    32
  0
VERTEX
  8
0
  5
3790E
 10
3.87973e-06
 20
114.935
 30
-2.55027e-14
  70
    32
  0
VERTEX
  8
0
  5
3790F
 10
3.86551e-06
 20
115.085
 30
-2.55357e-14
  70
    32
  0
VERTEX
  8
0
  5
37910
 10
3.85123e-06
 20
115.235
 30
-2.55690e-14
  70
    32
  0
VERTEX
  8
0
  5
37911
 10
3.83690e-06
 20
115.386
 30
-2.56024e-14
  70
    32
  0
VERTEX
  8
0
  5
37912
 10
3.82251e-06
 20
115.538
 30
-2.56360e-14
  70
    32
  0
VERTEX
  8
0
  5
37913
 10
3.80807e-06
 20
115.691
 30
-2.56697e-14
  70
    32
  0
VERTEX
  8
0
  5
37914
 10
3.79357e-06
 20
115.845
 30
-2.57036e-14
  70
    32
  0
VERTEX
  8
0
  5
37915
 10
3.77903e-06
 20
115.999
 30
-2.57377e-14
  70
    32
  0
VERTEX
  8
0
  5
37916
 10
3.76443e-06
 20
116.155
 30
-2.57720e-14
  70
    32
  0
VERTEX
  8
0
  5
37917
 10
3.74978e-06
 20
116.311
 30
-2.58064e-14
  70
    32
  0
VERTEX
  8
0
  5
37918
 10
3.73507e-06
 20
116.468
 30
-2.58410e-14
  70
    32
  0
VERTEX
  8
0
  5
37919
 10
3.72032e-06
 20
116.626
 30
-2.58757e-14
  70
    32
  0
VERTEX
  8
0
  5
3791A
 10
3.70552e-06
 20
116.785
 30
-2.59106e-14
  70
    32
  0
VERTEX
  8
0
  5
3791B
 10
3.69067e-06
 20
116.944
 30
-2.59457e-14
  70
    32
  0
VERTEX
  8
0
  5
3791C
 10
3.67578e-06
 20
117.105
 30
-2.59809e-14
  70
    32
  0
VERTEX
  8
0
  5
3791D
 10
3.66083e-06
 20
117.266
 30
-2.60162e-14
  70
    32
  0
VERTEX
  8
0
  5
3791E
 10
3.64584e-06
 20
117.428
 30
-2.60517e-14
  70
    32
  0
VERTEX
  8
0
  5
3791F
 10
3.63080e-06
 20
117.591
 30
-2.60874e-14
  70
    32
  0
VERTEX
  8
0
  5
37920
 10
3.61572e-06
 20
117.755
 30
-2.61232e-14
  70
    32
  0
VERTEX
  8
0
  5
37921
 10
3.60059e-06
 20
117.919
 30
-2.61591e-14
  70
    32
  0
VERTEX
  8
0
  5
37922
 10
3.58543e-06
 20
118.085
 30
-2.61953e-14
  70
    32
  0
VERTEX
  8
0
  5
37923
 10
3.57023e-06
 20
118.251
 30
-2.62317e-14
  70
    32
  0
VERTEX
  8
0
  5
37924
 10
3.55499e-06
 20
118.418
 30
-2.62683e-14
  70
    32
  0
VERTEX
  8
0
  5
37925
 10
3.53972e-06
 20
118.585
 30
-2.63052e-14
  70
    32
  0
VERTEX
  8
0
  5
37926
 10
3.52443e-06
 20
118.753
 30
-2.63423e-14
  70
    32
  0
VERTEX
  8
0
  5
37927
 10
3.50909e-06
 20
118.922
 30
-2.63796e-14
  70
    32
  0
VERTEX
  8
0
  5
37928
 10
3.49373e-06
 20
119.092
 30
-2.64171e-14
  70
    32
  0
VERTEX
  8
0
  5
37929
 10
3.47834e-06
 20
119.263
 30
-2.64549e-14
  70
    32
  0
VERTEX
  8
0
  5
3792A
 10
3.46292e-06
 20
119.434
 30
-2.64929e-14
  70
    32
  0
VERTEX
  8
0
  5
3792B
 10
3.44746e-06
 20
119.606
 30
-2.65311e-14
  70
    32
  0
VERTEX
  8
0
  5
3792C
 10
3.43198e-06
 20
119.778
 30
-2.65695e-14
  70
    32
  0
VERTEX
  8
0
  5
3792D
 10
3.41648e-06
 20
119.951
 30
-2.66081e-14
  70
    32
  0
VERTEX
  8
0
  5
3792E
 10
3.40094e-06
 20
120.125
 30
-2.66469e-14
  70
    32
  0
VERTEX
  8
0
  5
3792F
 10
3.38538e-06
 20
120.300
 30
-2.66860e-14
  70
    32
  0
VERTEX
  8
0
  5
37930
 10
3.36979e-06
 20
120.475
 30
-2.67252e-14
  70
    32
  0
VERTEX
  8
0
  5
37931
 10
3.35418e-06
 20
120.651
 30
-2.67647e-14
  70
    32
  0
VERTEX
  8
0
  5
37932
 10
3.33854e-06
 20
120.828
 30
-2.68043e-14
  70
    32
  0
VERTEX
  8
0
  5
37933
 10
3.32288e-06
 20
121.005
 30
-2.68442e-14
  70
    32
  0
VERTEX
  8
0
  5
37934
 10
3.30720e-06
 20
121.184
 30
-2.68842e-14
  70
    32
  0
VERTEX
  8
0
  5
37935
 10
3.29150e-06
 20
121.362
 30
-2.69244e-14
  70
    32
  0
VERTEX
  8
0
  5
37936
 10
3.27577e-06
 20
121.542
 30
-2.69648e-14
  70
    32
  0
VERTEX
  8
0
  5
37937
 10
3.26003e-06
 20
121.722
 30
-2.70055e-14
  70
    32
  0
VERTEX
  8
0
  5
37938
 10
3.24426e-06
 20
121.903
 30
-2.70463e-14
  70
    32
  0
VERTEX
  8
0
  5
37939
 10
3.22847e-06
 20
122.084
 30
-2.70872e-14
  70
    32
  0
VERTEX
  8
0
  5
3793A
 10
3.21267e-06
 20
122.266
 30
-2.71284e-14
  70
    32
  0
VERTEX
  8
0
  5
3793B
 10
3.19685e-06
 20
122.449
 30
-2.71697e-14
  70
    32
  0
VERTEX
  8
0
  5
3793C
 10
3.18101e-06
 20
122.632
 30
-2.72112e-14
  70
    32
  0
VERTEX
  8
0
  5
3793D
 10
3.16515e-06
 20
122.816
 30
-2.72529e-14
  70
    32
  0
VERTEX
  8
0
  5
3793E
 10
3.14928e-06
 20
123.001
 30
-2.72948e-14
  70
    32
  0
VERTEX
  8
0
  5
3793F
 10
3.13339e-06
 20
123.186
 30
-2.73368e-14
  70
    32
  0
VERTEX
  8
0
  5
37940
 10
3.11749e-06
 20
123.372
 30
-2.73790e-14
  70
    32
  0
VERTEX
  8
0
  5
37941
 10
3.10157e-06
 20
123.559
 30
-2.74214e-14
  70
    32
  0
VERTEX
  8
0
  5
37942
 10
3.08564e-06
 20
123.746
 30
-2.74639e-14
  70
    32
  0
VERTEX
  8
0
  5
37943
 10
3.06970e-06
 20
123.934
 30
-2.75065e-14
  70
    32
  0
VERTEX
  8
0
  5
37944
 10
3.05375e-06
 20
124.122
 30
-2.75494e-14
  70
    32
  0
VERTEX
  8
0
  5
37945
 10
3.03778e-06
 20
124.311
 30
-2.75924e-14
  70
    32
  0
VERTEX
  8
0
  5
37946
 10
3.02181e-06
 20
124.501
 30
-2.76355e-14
  70
    32
  0
VERTEX
  8
0
  5
37947
 10
3.00582e-06
 20
124.691
 30
-2.76788e-14
  70
    32
  0
VERTEX
  8
0
  5
37948
 10
2.98983e-06
 20
124.882
 30
-2.77222e-14
  70
    32
  0
VERTEX
  8
0
  5
37949
 10
2.97383e-06
 20
125.074
 30
-2.77658e-14
  70
    32
  0
VERTEX
  8
0
  5
3794A
 10
2.95782e-06
 20
125.266
 30
-2.78095e-14
  70
    32
  0
VERTEX
  8
0
  5
3794B
 10
2.94180e-06
 20
125.459
 30
-2.78534e-14
  70
    32
  0
VERTEX
  8
0
  5
3794C
 10
2.92578e-06
 20
125.652
 30
-2.78974e-14
  70
    32
  0
VERTEX
  8
0
  5
3794D
 10
2.90975e-06
 20
125.846
 30
-2.79415e-14
  70
    32
  0
VERTEX
  8
0
  5
3794E
 10
2.89372e-06
 20
126.040
 30
-2.79858e-14
  70
    32
  0
VERTEX
  8
0
  5
3794F
 10
2.87769e-06
 20
126.235
 30
-2.80302e-14
  70
    32
  0
VERTEX
  8
0
  5
37950
 10
2.86165e-06
 20
126.431
 30
-2.80747e-14
  70
    32
  0
VERTEX
  8
0
  5
37951
 10
2.84560e-06
 20
126.627
 30
-2.81193e-14
  70
    32
  0
VERTEX
  8
0
  5
37952
 10
2.82956e-06
 20
126.824
 30
-2.81641e-14
  70
    32
  0
VERTEX
  8
0
  5
37953
 10
2.81351e-06
 20
127.021
 30
-2.82090e-14
  70
    32
  0
VERTEX
  8
0
  5
37954
 10
2.79747e-06
 20
127.219
 30
-2.82540e-14
  70
    32
  0
VERTEX
  8
0
  5
37955
 10
2.78142e-06
 20
127.418
 30
-2.82991e-14
  70
    32
  0
VERTEX
  8
0
  5
37956
 10
2.76537e-06
 20
127.617
 30
-2.83443e-14
  70
    32
  0
VERTEX
  8
0
  5
37957
 10
2.74933e-06
 20
127.816
 30
-2.83897e-14
  70
    32
  0
VERTEX
  8
0
  5
37958
 10
2.73329e-06
 20
128.017
 30
-2.84351e-14
  70
    32
  0
VERTEX
  8
0
  5
37959
 10
2.71725e-06
 20
128.217
 30
-2.84807e-14
  70
    32
  0
VERTEX
  8
0
  5
3795A
 10
2.70121e-06
 20
128.419
 30
-2.85263e-14
  70
    32
  0
VERTEX
  8
0
  5
3795B
 10
2.68518e-06
 20
128.620
 30
-2.85721e-14
  70
    32
  0
VERTEX
  8
0
  5
3795C
 10
2.66915e-06
 20
128.823
 30
-2.86180e-14
  70
    32
  0
VERTEX
  8
0
  5
3795D
 10
2.65313e-06
 20
129.026
 30
-2.86639e-14
  70
    32
  0
VERTEX
  8
0
  5
3795E
 10
2.63712e-06
 20
129.229
 30
-2.87100e-14
  70
    32
  0
VERTEX
  8
0
  5
3795F
 10
2.62111e-06
 20
129.433
 30
-2.87561e-14
  70
    32
  0
VERTEX
  8
0
  5
37960
 10
2.60511e-06
 20
129.637
 30
-2.88023e-14
  70
    32
  0
VERTEX
  8
0
  5
37961
 10
2.58911e-06
 20
129.842
 30
-2.88487e-14
  70
    32
  0
VERTEX
  8
0
  5
37962
 10
2.57313e-06
 20
130.048
 30
-2.88951e-14
  70
    32
  0
VERTEX
  8
0
  5
37963
 10
2.55716e-06
 20
130.254
 30
-2.89415e-14
  70
    32
  0
VERTEX
  8
0
  5
37964
 10
2.54120e-06
 20
130.460
 30
-2.89881e-14
  70
    32
  0
VERTEX
  8
0
  5
37965
 10
2.52524e-06
 20
130.668
 30
-2.90347e-14
  70
    32
  0
VERTEX
  8
0
  5
37966
 10
2.50930e-06
 20
130.875
 30
-2.90814e-14
  70
    32
  0
VERTEX
  8
0
  5
37967
 10
2.49338e-06
 20
131.083
 30
-2.91282e-14
  70
    32
  0
VERTEX
  8
0
  5
37968
 10
2.47746e-06
 20
131.292
 30
-2.91751e-14
  70
    32
  0
VERTEX
  8
0
  5
37969
 10
2.46156e-06
 20
131.501
 30
-2.92220e-14
  70
    32
  0
VERTEX
  8
0
  5
3796A
 10
2.44568e-06
 20
131.710
 30
-2.92690e-14
  70
    32
  0
VERTEX
  8
0
  5
3796B
 10
2.42981e-06
 20
131.920
 30
-2.93160e-14
  70
    32
  0
VERTEX
  8
0
  5
3796C
 10
2.41395e-06
 20
132.131
 30
-2.93631e-14
  70
    32
  0
VERTEX
  8
0
  5
3796D
 10
2.39811e-06
 20
132.342
 30
-2.94103e-14
  70
    32
  0
VERTEX
  8
0
  5
3796E
 10
2.38229e-06
 20
132.553
 30
-2.94575e-14
  70
    32
  0
VERTEX
  8
0
  5
3796F
 10
2.36649e-06
 20
132.765
 30
-2.95048e-14
  70
    32
  0
VERTEX
  8
0
  5
37970
 10
2.35071e-06
 20
132.977
 30
-2.95521e-14
  70
    32
  0
VERTEX
  8
0
  5
37971
 10
2.33495e-06
 20
133.190
 30
-2.95995e-14
  70
    32
  0
VERTEX
  8
0
  5
37972
 10
2.31922e-06
 20
133.403
 30
-2.96469e-14
  70
    32
  0
VERTEX
  8
0
  5
37973
 10
2.30352e-06
 20
133.617
 30
-2.96944e-14
  70
    32
  0
VERTEX
  8
0
  5
37974
 10
2.28784e-06
 20
133.831
 30
-2.97419e-14
  70
    32
  0
VERTEX
  8
0
  5
37975
 10
2.27220e-06
 20
134.045
 30
-2.97894e-14
  70
    32
  0
VERTEX
  8
0
  5
37976
 10
2.25659e-06
 20
134.259
 30
-2.98370e-14
  70
    32
  0
VERTEX
  8
0
  5
37977
 10
2.24101e-06
 20
134.474
 30
-2.98847e-14
  70
    32
  0
VERTEX
  8
0
  5
37978
 10
2.22546e-06
 20
134.690
 30
-2.99324e-14
  70
    32
  0
VERTEX
  8
0
  5
37979
 10
2.20994e-06
 20
134.905
 30
-2.99802e-14
  70
    32
  0
VERTEX
  8
0
  5
3797A
 10
2.19445e-06
 20
135.121
 30
-3.00280e-14
  70
    32
  0
VERTEX
  8
0
  5
3797B
 10
2.17899e-06
 20
135.337
 30
-3.00758e-14
  70
    32
  0
VERTEX
  8
0
  5
3797C
 10
2.16357e-06
 20
135.554
 30
-3.01237e-14
  70
    32
  0
VERTEX
  8
0
  5
3797D
 10
2.14818e-06
 20
135.770
 30
-3.01716e-14
  70
    32
  0
VERTEX
  8
0
  5
3797E
 10
2.13283e-06
 20
135.988
 30
-3.02196e-14
  70
    32
  0
VERTEX
  8
0
  5
3797F
 10
2.11750e-06
 20
136.205
 30
-3.02677e-14
  70
    32
  0
VERTEX
  8
0
  5
37980
 10
2.10222e-06
 20
136.423
 30
-3.03158e-14
  70
    32
  0
VERTEX
  8
0
  5
37981
 10
2.08696e-06
 20
136.641
 30
-3.03639e-14
  70
    32
  0
VERTEX
  8
0
  5
37982
 10
2.07175e-06
 20
136.859
 30
-3.04121e-14
  70
    32
  0
VERTEX
  8
0
  5
37983
 10
2.05656e-06
 20
137.078
 30
-3.04603e-14
  70
    32
  0
VERTEX
  8
0
  5
37984
 10
2.04142e-06
 20
137.297
 30
-3.05086e-14
  70
    32
  0
VERTEX
  8
0
  5
37985
 10
2.02631e-06
 20
137.516
 30
-3.05569e-14
  70
    32
  0
VERTEX
  8
0
  5
37986
 10
2.01124e-06
 20
137.735
 30
-3.06053e-14
  70
    32
  0
VERTEX
  8
0
  5
37987
 10
1.99620e-06
 20
137.955
 30
-3.06537e-14
  70
    32
  0
VERTEX
  8
0
  5
37988
 10
1.98120e-06
 20
138.175
 30
-3.07022e-14
  70
    32
  0
VERTEX
  8
0
  5
37989
 10
1.96624e-06
 20
138.395
 30
-3.07507e-14
  70
    32
  0
VERTEX
  8
0
  5
3798A
 10
1.95132e-06
 20
138.616
 30
-3.07992e-14
  70
    32
  0
VERTEX
  8
0
  5
3798B
 10
1.93644e-06
 20
138.837
 30
-3.08479e-14
  70
    32
  0
VERTEX
  8
0
  5
3798C
 10
1.92160e-06
 20
139.058
 30
-3.08965e-14
  70
    32
  0
VERTEX
  8
0
  5
3798D
 10
1.90680e-06
 20
139.279
 30
-3.09452e-14
  70
    32
  0
VERTEX
  8
0
  5
3798E
 10
1.89203e-06
 20
139.501
 30
-3.09940e-14
  70
    32
  0
VERTEX
  8
0
  5
3798F
 10
1.87731e-06
 20
139.722
 30
-3.10428e-14
  70
    32
  0
VERTEX
  8
0
  5
37990
 10
1.86263e-06
 20
139.944
 30
-3.10916e-14
  70
    32
  0
VERTEX
  8
0
  5
37991
 10
1.84799e-06
 20
140.167
 30
-3.11405e-14
  70
    32
  0
VERTEX
  8
0
  5
37992
 10
1.83339e-06
 20
140.389
 30
-3.11895e-14
  70
    32
  0
VERTEX
  8
0
  5
37993
 10
1.81884e-06
 20
140.612
 30
-3.12385e-14
  70
    32
  0
VERTEX
  8
0
  5
37994
 10
1.80433e-06
 20
140.835
 30
-3.12875e-14
  70
    32
  0
VERTEX
  8
0
  5
37995
 10
1.78986e-06
 20
141.058
 30
-3.13366e-14
  70
    32
  0
VERTEX
  8
0
  5
37996
 10
1.77543e-06
 20
141.281
 30
-3.13858e-14
  70
    32
  0
VERTEX
  8
0
  5
37997
 10
1.76105e-06
 20
141.505
 30
-3.14349e-14
  70
    32
  0
VERTEX
  8
0
  5
37998
 10
1.74671e-06
 20
141.729
 30
-3.14842e-14
  70
    32
  0
VERTEX
  8
0
  5
37999
 10
1.73242e-06
 20
141.953
 30
-3.15335e-14
  70
    32
  0
VERTEX
  8
0
  5
3799A
 10
1.71817e-06
 20
142.177
 30
-3.15828e-14
  70
    32
  0
VERTEX
  8
0
  5
3799B
 10
1.70397e-06
 20
142.401
 30
-3.16322e-14
  70
    32
  0
VERTEX
  8
0
  5
3799C
 10
1.68982e-06
 20
142.626
 30
-3.16816e-14
  70
    32
  0
VERTEX
  8
0
  5
3799D
 10
1.67571e-06
 20
142.850
 30
-3.17311e-14
  70
    32
  0
VERTEX
  8
0
  5
3799E
 10
1.66165e-06
 20
143.075
 30
-3.17806e-14
  70
    32
  0
VERTEX
  8
0
  5
3799F
 10
1.64763e-06
 20
143.300
 30
-3.18302e-14
  70
    32
  0
VERTEX
  8
0
  5
379A0
 10
1.63366e-06
 20
143.526
 30
-3.18798e-14
  70
    32
  0
VERTEX
  8
0
  5
379A1
 10
1.61974e-06
 20
143.751
 30
-3.19294e-14
  70
    32
  0
VERTEX
  8
0
  5
379A2
 10
1.60587e-06
 20
143.977
 30
-3.19791e-14
  70
    32
  0
VERTEX
  8
0
  5
379A3
 10
1.59205e-06
 20
144.202
 30
-3.20289e-14
  70
    32
  0
VERTEX
  8
0
  5
379A4
 10
1.57828e-06
 20
144.428
 30
-3.20787e-14
  70
    32
  0
VERTEX
  8
0
  5
379A5
 10
1.56456e-06
 20
144.654
 30
-3.21286e-14
  70
    32
  0
VERTEX
  8
0
  5
379A6
 10
1.55089e-06
 20
144.880
 30
-3.21785e-14
  70
    32
  0
VERTEX
  8
0
  5
379A7
 10
1.53727e-06
 20
145.107
 30
-3.22284e-14
  70
    32
  0
VERTEX
  8
0
  5
379A8
 10
1.52370e-06
 20
145.333
 30
-3.22784e-14
  70
    32
  0
VERTEX
  8
0
  5
379A9
 10
1.51018e-06
 20
145.560
 30
-3.23285e-14
  70
    32
  0
VERTEX
  8
0
  5
379AA
 10
1.49671e-06
 20
145.787
 30
-3.23786e-14
  70
    32
  0
VERTEX
  8
0
  5
379AB
 10
1.48330e-06
 20
146.013
 30
-3.24287e-14
  70
    32
  0
VERTEX
  8
0
  5
379AC
 10
1.46994e-06
 20
146.240
 30
-3.24789e-14
  70
    32
  0
VERTEX
  8
0
  5
379AD
 10
1.45663e-06
 20
146.468
 30
-3.25291e-14
  70
    32
  0
VERTEX
  8
0
  5
379AE
 10
1.44337e-06
 20
146.695
 30
-3.25794e-14
  70
    32
  0
VERTEX
  8
0
  5
379AF
 10
1.43017e-06
 20
146.922
 30
-3.26298e-14
  70
    32
  0
VERTEX
  8
0
  5
379B0
 10
1.41703e-06
 20
147.150
 30
-3.26801e-14
  70
    32
  0
VERTEX
  8
0
  5
379B1
 10
1.40393e-06
 20
147.377
 30
-3.27306e-14
  70
    32
  0
VERTEX
  8
0
  5
379B2
 10
1.39090e-06
 20
147.605
 30
-3.27810e-14
  70
    32
  0
VERTEX
  8
0
  5
379B3
 10
1.37792e-06
 20
147.832
 30
-3.28316e-14
  70
    32
  0
VERTEX
  8
0
  5
379B4
 10
1.36499e-06
 20
148.060
 30
-3.28821e-14
  70
    32
  0
VERTEX
  8
0
  5
379B5
 10
1.35212e-06
 20
148.288
 30
-3.29328e-14
  70
    32
  0
VERTEX
  8
0
  5
379B6
 10
1.33931e-06
 20
148.516
 30
-3.29834e-14
  70
    32
  0
VERTEX
  8
0
  5
379B7
 10
1.32656e-06
 20
148.744
 30
-3.30342e-14
  70
    32
  0
VERTEX
  8
0
  5
379B8
 10
1.31386e-06
 20
148.972
 30
-3.30849e-14
  70
    32
  0
VERTEX
  8
0
  5
379B9
 10
1.30123e-06
 20
149.201
 30
-3.31357e-14
  70
    32
  0
VERTEX
  8
0
  5
379BA
 10
1.28865e-06
 20
149.429
 30
-3.31866e-14
  70
    32
  0
VERTEX
  8
0
  5
379BB
 10
1.27613e-06
 20
149.657
 30
-3.32375e-14
  70
    32
  0
VERTEX
  8
0
  5
379BC
 10
1.26367e-06
 20
149.886
 30
-3.32884e-14
  70
    32
  0
VERTEX
  8
0
  5
379BD
 10
1.25127e-06
 20
150.114
 30
-3.33395e-14
  70
    32
  0
VERTEX
  8
0
  5
379BE
 10
1.23893e-06
 20
150.343
 30
-3.33905e-14
  70
    32
  0
VERTEX
  8
0
  5
379BF
 10
1.22665e-06
 20
150.571
 30
-3.34416e-14
  70
    32
  0
VERTEX
  8
0
  5
379C0
 10
1.21443e-06
 20
150.800
 30
-3.34927e-14
  70
    32
  0
VERTEX
  8
0
  5
379C1
 10
1.20228e-06
 20
151.028
 30
-3.35438e-14
  70
    32
  0
VERTEX
  8
0
  5
379C2
 10
1.19020e-06
 20
151.256
 30
-3.35948e-14
  70
    32
  0
VERTEX
  8
0
  5
379C3
 10
1.17818e-06
 20
151.485
 30
-3.36458e-14
  70
    32
  0
VERTEX
  8
0
  5
379C4
 10
1.16623e-06
 20
151.713
 30
-3.36967e-14
  70
    32
  0
VERTEX
  8
0
  5
379C5
 10
1.15435e-06
 20
151.941
 30
-3.37476e-14
  70
    32
  0
VERTEX
  8
0
  5
379C6
 10
1.14254e-06
 20
152.169
 30
-3.37984e-14
  70
    32
  0
VERTEX
  8
0
  5
379C7
 10
1.13079e-06
 20
152.397
 30
-3.38492e-14
  70
    32
  0
VERTEX
  8
0
  5
379C8
 10
1.11911e-06
 20
152.625
 30
-3.38999e-14
  70
    32
  0
VERTEX
  8
0
  5
379C9
 10
1.10750e-06
 20
152.853
 30
-3.39506e-14
  70
    32
  0
VERTEX
  8
0
  5
379CA
 10
1.09595e-06
 20
153.080
 30
-3.40012e-14
  70
    32
  0
VERTEX
  8
0
  5
379CB
 10
1.08447e-06
 20
153.308
 30
-3.40518e-14
  70
    32
  0
VERTEX
  8
0
  5
379CC
 10
1.07306e-06
 20
153.535
 30
-3.41024e-14
  70
    32
  0
VERTEX
  8
0
  5
379CD
 10
1.06171e-06
 20
153.763
 30
-3.41529e-14
  70
    32
  0
VERTEX
  8
0
  5
379CE
 10
1.05043e-06
 20
153.990
 30
-3.42033e-14
  70
    32
  0
VERTEX
  8
0
  5
379CF
 10
1.03922e-06
 20
154.217
 30
-3.42537e-14
  70
    32
  0
VERTEX
  8
0
  5
379D0
 10
1.02808e-06
 20
154.444
 30
-3.43040e-14
  70
    32
  0
VERTEX
  8
0
  5
379D1
 10
1.01700e-06
 20
154.670
 30
-3.43543e-14
  70
    32
  0
VERTEX
  8
0
  5
379D2
 10
1.00599e-06
 20
154.897
 30
-3.44046e-14
  70
    32
  0
VERTEX
  8
0
  5
379D3
 10
9.95046e-07
 20
155.123
 30
-3.44548e-14
  70
    32
  0
VERTEX
  8
0
  5
379D4
 10
9.84169e-07
 20
155.350
 30
-3.45050e-14
  70
    32
  0
VERTEX
  8
0
  5
379D5
 10
9.73359e-07
 20
155.576
 30
-3.45551e-14
  70
    32
  0
VERTEX
  8
0
  5
379D6
 10
9.62617e-07
 20
155.802
 30
-3.46051e-14
  70
    32
  0
VERTEX
  8
0
  5
379D7
 10
9.51941e-07
 20
156.028
 30
-3.46552e-14
  70
    32
  0
VERTEX
  8
0
  5
379D8
 10
9.41333e-07
 20
156.253
 30
-3.47051e-14
  70
    32
  0
VERTEX
  8
0
  5
379D9
 10
9.30791e-07
 20
156.479
 30
-3.47550e-14
  70
    32
  0
VERTEX
  8
0
  5
379DA
 10
9.20316e-07
 20
156.704
 30
-3.48049e-14
  70
    32
  0
VERTEX
  8
0
  5
379DB
 10
9.09908e-07
 20
156.929
 30
-3.48547e-14
  70
    32
  0
VERTEX
  8
0
  5
379DC
 10
8.99567e-07
 20
157.154
 30
-3.49045e-14
  70
    32
  0
VERTEX
  8
0
  5
379DD
 10
8.89293e-07
 20
157.379
 30
-3.49542e-14
  70
    32
  0
VERTEX
  8
0
  5
379DE
 10
8.79086e-07
 20
157.604
 30
-3.50039e-14
  70
    32
  0
VERTEX
  8
0
  5
379DF
 10
8.68946e-07
 20
157.828
 30
-3.50536e-14
  70
    32
  0
VERTEX
  8
0
  5
379E0
 10
8.58873e-07
 20
158.052
 30
-3.51031e-14
  70
    32
  0
VERTEX
  8
0
  5
379E1
 10
8.48866e-07
 20
158.276
 30
-3.51527e-14
  70
    32
  0
VERTEX
  8
0
  5
379E2
 10
8.38927e-07
 20
158.500
 30
-3.52022e-14
  70
    32
  0
VERTEX
  8
0
  5
379E3
 10
8.29055e-07
 20
158.724
 30
-3.52516e-14
  70
    32
  0
VERTEX
  8
0
  5
379E4
 10
8.19249e-07
 20
158.947
 30
-3.53010e-14
  70
    32
  0
VERTEX
  8
0
  5
379E5
 10
8.09510e-07
 20
159.170
 30
-3.53503e-14
  70
    32
  0
VERTEX
  8
0
  5
379E6
 10
7.99839e-07
 20
159.393
 30
-3.53996e-14
  70
    32
  0
VERTEX
  8
0
  5
379E7
 10
7.90234e-07
 20
159.616
 30
-3.54489e-14
  70
    32
  0
VERTEX
  8
0
  5
379E8
 10
7.80696e-07
 20
159.838
 30
-3.54981e-14
  70
    32
  0
VERTEX
  8
0
  5
379E9
 10
7.71225e-07
 20
160.060
 30
-3.55472e-14
  70
    32
  0
VERTEX
  8
0
  5
379EA
 10
7.61821e-07
 20
160.282
 30
-3.55964e-14
  70
    32
  0
VERTEX
  8
0
  5
379EB
 10
7.52483e-07
 20
160.504
 30
-3.56454e-14
  70
    32
  0
VERTEX
  8
0
  5
379EC
 10
7.43213e-07
 20
160.725
 30
-3.56944e-14
  70
    32
  0
VERTEX
  8
0
  5
379ED
 10
7.34009e-07
 20
160.947
 30
-3.57434e-14
  70
    32
  0
VERTEX
  8
0
  5
379EE
 10
7.24872e-07
 20
161.168
 30
-3.57923e-14
  70
    32
  0
VERTEX
  8
0
  5
379EF
 10
7.15803e-07
 20
161.388
 30
-3.58412e-14
  70
    32
  0
VERTEX
  8
0
  5
379F0
 10
7.06800e-07
 20
161.609
 30
-3.58900e-14
  70
    32
  0
VERTEX
  8
0
  5
379F1
 10
6.97863e-07
 20
161.829
 30
-3.59388e-14
  70
    32
  0
VERTEX
  8
0
  5
379F2
 10
6.88994e-07
 20
162.049
 30
-3.59875e-14
  70
    32
  0
VERTEX
  8
0
  5
379F3
 10
6.80192e-07
 20
162.269
 30
-3.60362e-14
  70
    32
  0
VERTEX
  8
0
  5
379F4
 10
6.71456e-07
 20
162.488
 30
-3.60848e-14
  70
    32
  0
VERTEX
  8
0
  5
379F5
 10
6.62787e-07
 20
162.707
 30
-3.61334e-14
  70
    32
  0
VERTEX
  8
0
  5
379F6
 10
6.54185e-07
 20
162.926
 30
-3.61819e-14
  70
    32
  0
VERTEX
  8
0
  5
379F7
 10
6.45650e-07
 20
163.144
 30
-3.62304e-14
  70
    32
  0
VERTEX
  8
0
  5
379F8
 10
6.37182e-07
 20
163.363
 30
-3.62788e-14
  70
    32
  0
VERTEX
  8
0
  5
379F9
 10
6.28781e-07
 20
163.580
 30
-3.63272e-14
  70
    32
  0
VERTEX
  8
0
  5
379FA
 10
6.20446e-07
 20
163.798
 30
-3.63756e-14
  70
    32
  0
VERTEX
  8
0
  5
379FB
 10
6.12178e-07
 20
164.015
 30
-3.64238e-14
  70
    32
  0
VERTEX
  8
0
  5
379FC
 10
6.03977e-07
 20
164.232
 30
-3.64721e-14
  70
    32
  0
VERTEX
  8
0
  5
379FD
 10
5.95843e-07
 20
164.449
 30
-3.65203e-14
  70
    32
  0
VERTEX
  8
0
  5
379FE
 10
5.87775e-07
 20
164.665
 30
-3.65684e-14
  70
    32
  0
VERTEX
  8
0
  5
379FF
 10
5.79775e-07
 20
164.881
 30
-3.66165e-14
  70
    32
  0
VERTEX
  8
0
  5
37A00
 10
5.71841e-07
 20
165.097
 30
-3.66646e-14
  70
    32
  0
VERTEX
  8
0
  5
37A01
 10
5.63974e-07
 20
165.312
 30
-3.67126e-14
  70
    32
  0
VERTEX
  8
0
  5
37A02
 10
5.56174e-07
 20
165.527
 30
-3.67606e-14
  70
    32
  0
VERTEX
  8
0
  5
37A03
 10
5.48440e-07
 20
165.742
 30
-3.68085e-14
  70
    32
  0
VERTEX
  8
0
  5
37A04
 10
5.40774e-07
 20
165.956
 30
-3.68563e-14
  70
    32
  0
VERTEX
  8
0
  5
37A05
 10
5.33174e-07
 20
166.170
 30
-3.69042e-14
  70
    32
  0
VERTEX
  8
0
  5
37A06
 10
5.25641e-07
 20
166.384
 30
-3.69519e-14
  70
    32
  0
VERTEX
  8
0
  5
37A07
 10
5.18174e-07
 20
166.597
 30
-3.69996e-14
  70
    32
  0
VERTEX
  8
0
  5
37A08
 10
5.10775e-07
 20
166.810
 30
-3.70473e-14
  70
    32
  0
VERTEX
  8
0
  5
37A09
 10
5.03442e-07
 20
167.023
 30
-3.70949e-14
  70
    32
  0
VERTEX
  8
0
  5
37A0A
 10
4.96176e-07
 20
167.235
 30
-3.71425e-14
  70
    32
  0
VERTEX
  8
0
  5
37A0B
 10
4.88976e-07
 20
167.447
 30
-3.71900e-14
  70
    32
  0
VERTEX
  8
0
  5
37A0C
 10
4.81844e-07
 20
167.658
 30
-3.72375e-14
  70
    32
  0
VERTEX
  8
0
  5
37A0D
 10
4.74778e-07
 20
167.869
 30
-3.72850e-14
  70
    32
  0
VERTEX
  8
0
  5
37A0E
 10
4.67779e-07
 20
168.080
 30
-3.73323e-14
  70
    32
  0
VERTEX
  8
0
  5
37A0F
 10
4.60847e-07
 20
168.290
 30
-3.73797e-14
  70
    32
  0
VERTEX
  8
0
  5
37A10
 10
4.53983e-07
 20
168.500
 30
-3.74268e-14
  70
    32
  0
VERTEX
  8
0
  5
37A11
 10
4.47188e-07
 20
168.709
 30
-3.74739e-14
  70
    32
  0
VERTEX
  8
0
  5
37A12
 10
4.40462e-07
 20
168.918
 30
-3.75208e-14
  70
    32
  0
VERTEX
  8
0
  5
37A13
 10
4.33803e-07
 20
169.126
 30
-3.75675e-14
  70
    32
  0
VERTEX
  8
0
  5
37A14
 10
4.27211e-07
 20
169.334
 30
-3.76141e-14
  70
    32
  0
VERTEX
  8
0
  5
37A15
 10
4.20687e-07
 20
169.541
 30
-3.76606e-14
  70
    32
  0
VERTEX
  8
0
  5
37A16
 10
4.14229e-07
 20
169.748
 30
-3.77069e-14
  70
    32
  0
VERTEX
  8
0
  5
37A17
 10
4.07838e-07
 20
169.954
 30
-3.77531e-14
  70
    32
  0
VERTEX
  8
0
  5
37A18
 10
4.01513e-07
 20
170.160
 30
-3.77991e-14
  70
    32
  0
VERTEX
  8
0
  5
37A19
 10
3.95254e-07
 20
170.365
 30
-3.78450e-14
  70
    32
  0
VERTEX
  8
0
  5
37A1A
 10
3.89060e-07
 20
170.569
 30
-3.78908e-14
  70
    32
  0
VERTEX
  8
0
  5
37A1B
 10
3.82931e-07
 20
170.773
 30
-3.79364e-14
  70
    32
  0
VERTEX
  8
0
  5
37A1C
 10
3.76867e-07
 20
170.977
 30
-3.79818e-14
  70
    32
  0
VERTEX
  8
0
  5
37A1D
 10
3.70868e-07
 20
171.180
 30
-3.80271e-14
  70
    32
  0
VERTEX
  8
0
  5
37A1E
 10
3.64933e-07
 20
171.383
 30
-3.80723e-14
  70
    32
  0
VERTEX
  8
0
  5
37A1F
 10
3.59062e-07
 20
171.584
 30
-3.81173e-14
  70
    32
  0
VERTEX
  8
0
  5
37A20
 10
3.53254e-07
 20
171.786
 30
-3.81622e-14
  70
    32
  0
VERTEX
  8
0
  5
37A21
 10
3.47509e-07
 20
171.987
 30
-3.82070e-14
  70
    32
  0
VERTEX
  8
0
  5
37A22
 10
3.41827e-07
 20
172.187
 30
-3.82516e-14
  70
    32
  0
VERTEX
  8
0
  5
37A23
 10
3.36208e-07
 20
172.387
 30
-3.82960e-14
  70
    32
  0
VERTEX
  8
0
  5
37A24
 10
3.30651e-07
 20
172.586
 30
-3.83403e-14
  70
    32
  0
VERTEX
  8
0
  5
37A25
 10
3.25155e-07
 20
172.784
 30
-3.83845e-14
  70
    32
  0
VERTEX
  8
0
  5
37A26
 10
3.19722e-07
 20
172.982
 30
-3.84285e-14
  70
    32
  0
VERTEX
  8
0
  5
37A27
 10
3.14349e-07
 20
173.180
 30
-3.84724e-14
  70
    32
  0
VERTEX
  8
0
  5
37A28
 10
3.09037e-07
 20
173.377
 30
-3.85162e-14
  70
    32
  0
VERTEX
  8
0
  5
37A29
 10
3.03786e-07
 20
173.573
 30
-3.85598e-14
  70
    32
  0
VERTEX
  8
0
  5
37A2A
 10
2.98595e-07
 20
173.769
 30
-3.86032e-14
  70
    32
  0
VERTEX
  8
0
  5
37A2B
 10
2.93464e-07
 20
173.964
 30
-3.86465e-14
  70
    32
  0
VERTEX
  8
0
  5
37A2C
 10
2.88392e-07
 20
174.158
 30
-3.86897e-14
  70
    32
  0
VERTEX
  8
0
  5
37A2D
 10
2.83380e-07
 20
174.352
 30
-3.87327e-14
  70
    32
  0
VERTEX
  8
0
  5
37A2E
 10
2.78426e-07
 20
174.546
 30
-3.87756e-14
  70
    32
  0
VERTEX
  8
0
  5
37A2F
 10
2.73531e-07
 20
174.738
 30
-3.88183e-14
  70
    32
  0
VERTEX
  8
0
  5
37A30
 10
2.68695e-07
 20
174.930
 30
-3.88609e-14
  70
    32
  0
VERTEX
  8
0
  5
37A31
 10
2.63916e-07
 20
175.122
 30
-3.89034e-14
  70
    32
  0
VERTEX
  8
0
  5
37A32
 10
2.59195e-07
 20
175.313
 30
-3.89457e-14
  70
    32
  0
VERTEX
  8
0
  5
37A33
 10
2.54531e-07
 20
175.503
 30
-3.89878e-14
  70
    32
  0
VERTEX
  8
0
  5
37A34
 10
2.49923e-07
 20
175.693
 30
-3.90298e-14
  70
    32
  0
VERTEX
  8
0
  5
37A35
 10
2.45373e-07
 20
175.882
 30
-3.90717e-14
  70
    32
  0
VERTEX
  8
0
  5
37A36
 10
2.40879e-07
 20
176.070
 30
-3.91134e-14
  70
    32
  0
VERTEX
  8
0
  5
37A37
 10
2.36440e-07
 20
176.258
 30
-3.91550e-14
  70
    32
  0
VERTEX
  8
0
  5
37A38
 10
2.32057e-07
 20
176.445
 30
-3.91965e-14
  70
    32
  0
VERTEX
  8
0
  5
37A39
 10
2.27730e-07
 20
176.632
 30
-3.92378e-14
  70
    32
  0
VERTEX
  8
0
  5
37A3A
 10
2.23457e-07
 20
176.818
 30
-3.92789e-14
  70
    32
  0
VERTEX
  8
0
  5
37A3B
 10
2.19239e-07
 20
177.003
 30
-3.93199e-14
  70
    32
  0
VERTEX
  8
0
  5
37A3C
 10
2.15075e-07
 20
177.188
 30
-3.93608e-14
  70
    32
  0
VERTEX
  8
0
  5
37A3D
 10
2.10965e-07
 20
177.372
 30
-3.94015e-14
  70
    32
  0
VERTEX
  8
0
  5
37A3E
 10
2.06909e-07
 20
177.555
 30
-3.94421e-14
  70
    32
  0
VERTEX
  8
0
  5
37A3F
 10
2.02906e-07
 20
177.737
 30
-3.94826e-14
  70
    32
  0
VERTEX
  8
0
  5
37A40
 10
1.98956e-07
 20
177.919
 30
-3.95229e-14
  70
    32
  0
VERTEX
  8
0
  5
37A41
 10
1.95059e-07
 20
178.101
 30
-3.95630e-14
  70
    32
  0
VERTEX
  8
0
  5
37A42
 10
1.91214e-07
 20
178.281
 30
-3.96030e-14
  70
    32
  0
VERTEX
  8
0
  5
37A43
 10
1.87420e-07
 20
178.461
 30
-3.96429e-14
  70
    32
  0
VERTEX
  8
0
  5
37A44
 10
1.83679e-07
 20
178.641
 30
-3.96826e-14
  70
    32
  0
VERTEX
  8
0
  5
37A45
 10
1.79989e-07
 20
178.819
 30
-3.97222e-14
  70
    32
  0
VERTEX
  8
0
  5
37A46
 10
1.76349e-07
 20
178.997
 30
-3.97616e-14
  70
    32
  0
VERTEX
  8
0
  5
37A47
 10
1.72761e-07
 20
179.175
 30
-3.98009e-14
  70
    32
  0
VERTEX
  8
0
  5
37A48
 10
1.69222e-07
 20
179.351
 30
-3.98401e-14
  70
    32
  0
VERTEX
  8
0
  5
37A49
 10
1.65734e-07
 20
179.527
 30
-3.98791e-14
  70
    32
  0
VERTEX
  8
0
  5
37A4A
 10
1.62295e-07
 20
179.702
 30
-3.99179e-14
  70
    32
  0
VERTEX
  8
0
  5
37A4B
 10
1.58906e-07
 20
179.877
 30
-3.99566e-14
  70
    32
  0
VERTEX
  8
0
  5
37A4C
 10
1.55566e-07
 20
180.051
 30
-3.99952e-14
  70
    32
  0
VERTEX
  8
0
  5
37A4D
 10
1.52274e-07
 20
180.224
 30
-4.00337e-14
  70
    32
  0
VERTEX
  8
0
  5
37A4E
 10
1.49030e-07
 20
180.396
 30
-4.00719e-14
  70
    32
  0
VERTEX
  8
0
  5
37A4F
 10
1.45835e-07
 20
180.568
 30
-4.01101e-14
  70
    32
  0
VERTEX
  8
0
  5
37A50
 10
1.42687e-07
 20
180.739
 30
-4.01481e-14
  70
    32
  0
VERTEX
  8
0
  5
37A51
 10
1.39587e-07
 20
180.909
 30
-4.01859e-14
  70
    32
  0
VERTEX
  8
0
  5
37A52
 10
1.36533e-07
 20
181.079
 30
-4.02237e-14
  70
    32
  0
VERTEX
  8
0
  5
37A53
 10
1.33527e-07
 20
181.248
 30
-4.02612e-14
  70
    32
  0
VERTEX
  8
0
  5
37A54
 10
1.30566e-07
 20
181.416
 30
-4.02987e-14
  70
    32
  0
VERTEX
  8
0
  5
37A55
 10
1.27652e-07
 20
181.583
 30
-4.03359e-14
  70
    32
  0
VERTEX
  8
0
  5
37A56
 10
1.24783e-07
 20
181.750
 30
-4.03731e-14
  70
    32
  0
VERTEX
  8
0
  5
37A57
 10
1.21960e-07
 20
181.916
 30
-4.04101e-14
  70
    32
  0
VERTEX
  8
0
  5
37A58
 10
1.19182e-07
 20
182.081
 30
-4.04469e-14
  70
    32
  0
VERTEX
  8
0
  5
37A59
 10
1.16448e-07
 20
182.245
 30
-4.04836e-14
  70
    32
  0
VERTEX
  8
0
  5
37A5A
 10
1.13759e-07
 20
182.409
 30
-4.05202e-14
  70
    32
  0
VERTEX
  8
0
  5
37A5B
 10
1.11114e-07
 20
182.572
 30
-4.05566e-14
  70
    32
  0
VERTEX
  8
0
  5
37A5C
 10
1.08513e-07
 20
182.734
 30
-4.05929e-14
  70
    32
  0
VERTEX
  8
0
  5
37A5D
 10
1.05955e-07
 20
182.895
 30
-4.06290e-14
  70
    32
  0
VERTEX
  8
0
  5
37A5E
 10
1.03440e-07
 20
183.056
 30
-4.06650e-14
  70
    32
  0
VERTEX
  8
0
  5
37A5F
 10
1.00967e-07
 20
183.216
 30
-4.07008e-14
  70
    32
  0
VERTEX
  8
0
  5
37A60
 10
9.85366e-08
 20
183.375
 30
-4.07363e-14
  70
    32
  0
VERTEX
  8
0
  5
37A61
 10
9.61476e-08
 20
183.533
 30
-4.07716e-14
  70
    32
  0
VERTEX
  8
0
  5
37A62
 10
9.37999e-08
 20
183.690
 30
-4.08066e-14
  70
    32
  0
VERTEX
  8
0
  5
37A63
 10
9.14930e-08
 20
183.846
 30
-4.08415e-14
  70
    32
  0
VERTEX
  8
0
  5
37A64
 10
8.92266e-08
 20
184.002
 30
-4.08760e-14
  70
    32
  0
VERTEX
  8
0
  5
37A65
 10
8.70002e-08
 20
184.157
 30
-4.09104e-14
  70
    32
  0
VERTEX
  8
0
  5
37A66
 10
8.48135e-08
 20
184.311
 30
-4.09445e-14
  70
    32
  0
VERTEX
  8
0
  5
37A67
 10
8.26661e-08
 20
184.464
 30
-4.09784e-14
  70
    32
  0
VERTEX
  8
0
  5
37A68
 10
8.05577e-08
 20
184.616
 30
-4.10120e-14
  70
    32
  0
VERTEX
  8
0
  5
37A69
 10
7.84877e-08
 20
184.767
 30
-4.10454e-14
  70
    32
  0
VERTEX
  8
0
  5
37A6A
 10
7.64559e-08
 20
184.917
 30
-4.10786e-14
  70
    32
  0
VERTEX
  8
0
  5
37A6B
 10
7.44618e-08
 20
185.067
 30
-4.11115e-14
  70
    32
  0
VERTEX
  8
0
  5
37A6C
 10
7.25051e-08
 20
185.215
 30
-4.11442e-14
  70
    32
  0
VERTEX
  8
0
  5
37A6D
 10
7.05854e-08
 20
185.363
 30
-4.11767e-14
  70
    32
  0
VERTEX
  8
0
  5
37A6E
 10
6.87022e-08
 20
185.510
 30
-4.12090e-14
  70
    32
  0
VERTEX
  8
0
  5
37A6F
 10
6.68553e-08
 20
185.656
 30
-4.12410e-14
  70
    32
  0
VERTEX
  8
0
  5
37A70
 10
6.50442e-08
 20
185.801
 30
-4.12728e-14
  70
    32
  0
VERTEX
  8
0
  5
37A71
 10
6.32685e-08
 20
185.945
 30
-4.13043e-14
  70
    32
  0
VERTEX
  8
0
  5
37A72
 10
6.15279e-08
 20
186.089
 30
-4.13357e-14
  70
    32
  0
VERTEX
  8
0
  5
37A73
 10
5.98219e-08
 20
186.231
 30
-4.13668e-14
  70
    32
  0
VERTEX
  8
0
  5
37A74
 10
5.81502e-08
 20
186.373
 30
-4.13977e-14
  70
    32
  0
VERTEX
  8
0
  5
37A75
 10
5.65124e-08
 20
186.514
 30
-4.14283e-14
  70
    32
  0
VERTEX
  8
0
  5
37A76
 10
5.49081e-08
 20
186.653
 30
-4.14588e-14
  70
    32
  0
VERTEX
  8
0
  5
37A77
 10
5.33370e-08
 20
186.792
 30
-4.14890e-14
  70
    32
  0
VERTEX
  8
0
  5
37A78
 10
5.17985e-08
 20
186.930
 30
-4.15190e-14
  70
    32
  0
VERTEX
  8
0
  5
37A79
 10
5.02924e-08
 20
187.067
 30
-4.15487e-14
  70
    32
  0
VERTEX
  8
0
  5
37A7A
 10
4.88183e-08
 20
187.204
 30
-4.15783e-14
  70
    32
  0
VERTEX
  8
0
  5
37A7B
 10
4.73757e-08
 20
187.339
 30
-4.16076e-14
  70
    32
  0
VERTEX
  8
0
  5
37A7C
 10
4.59643e-08
 20
187.473
 30
-4.16367e-14
  70
    32
  0
VERTEX
  8
0
  5
37A7D
 10
4.45838e-08
 20
187.607
 30
-4.16656e-14
  70
    32
  0
VERTEX
  8
0
  5
37A7E
 10
4.32336e-08
 20
187.739
 30
-4.16942e-14
  70
    32
  0
VERTEX
  8
0
  5
37A7F
 10
4.19135e-08
 20
187.871
 30
-4.17227e-14
  70
    32
  0
VERTEX
  8
0
  5
37A80
 10
4.06230e-08
 20
188.002
 30
-4.17509e-14
  70
    32
  0
VERTEX
  8
0
  5
37A81
 10
3.93618e-08
 20
188.132
 30
-4.17789e-14
  70
    32
  0
VERTEX
  8
0
  5
37A82
 10
3.81294e-08
 20
188.260
 30
-4.18067e-14
  70
    32
  0
VERTEX
  8
0
  5
37A83
 10
3.69256e-08
 20
188.388
 30
-4.18342e-14
  70
    32
  0
VERTEX
  8
0
  5
37A84
 10
3.57498e-08
 20
188.515
 30
-4.18616e-14
  70
    32
  0
VERTEX
  8
0
  5
37A85
 10
3.46017e-08
 20
188.642
 30
-4.18887e-14
  70
    32
  0
VERTEX
  8
0
  5
37A86
 10
3.34810e-08
 20
188.767
 30
-4.19156e-14
  70
    32
  0
VERTEX
  8
0
  5
37A87
 10
3.23872e-08
 20
188.891
 30
-4.19423e-14
  70
    32
  0
VERTEX
  8
0
  5
37A88
 10
3.13200e-08
 20
189.014
 30
-4.19688e-14
  70
    32
  0
VERTEX
  8
0
  5
37A89
 10
3.02790e-08
 20
189.137
 30
-4.19951e-14
  70
    32
  0
VERTEX
  8
0
  5
37A8A
 10
2.92637e-08
 20
189.258
 30
-4.20212e-14
  70
    32
  0
VERTEX
  8
0
  5
37A8B
 10
2.82738e-08
 20
189.379
 30
-4.20470e-14
  70
    32
  0
VERTEX
  8
0
  5
37A8C
 10
2.73089e-08
 20
189.498
 30
-4.20727e-14
  70
    32
  0
VERTEX
  8
0
  5
37A8D
 10
2.63687e-08
 20
189.617
 30
-4.20981e-14
  70
    32
  0
VERTEX
  8
0
  5
37A8E
 10
2.54527e-08
 20
189.734
 30
-4.21233e-14
  70
    32
  0
VERTEX
  8
0
  5
37A8F
 10
2.45606e-08
 20
189.851
 30
-4.21483e-14
  70
    32
  0
VERTEX
  8
0
  5
37A90
 10
2.36919e-08
 20
189.967
 30
-4.21731e-14
  70
    32
  0
VERTEX
  8
0
  5
37A91
 10
2.28463e-08
 20
190.082
 30
-4.21977e-14
  70
    32
  0
VERTEX
  8
0
  5
37A92
 10
2.20234e-08
 20
190.195
 30
-4.22221e-14
  70
    32
  0
VERTEX
  8
0
  5
37A93
 10
2.12228e-08
 20
190.308
 30
-4.22463e-14
  70
    32
  0
VERTEX
  8
0
  5
37A94
 10
2.04441e-08
 20
190.420
 30
-4.22702e-14
  70
    32
  0
VERTEX
  8
0
  5
37A95
 10
1.96870e-08
 20
190.531
 30
-4.22940e-14
  70
    32
  0
VERTEX
  8
0
  5
37A96
 10
1.89510e-08
 20
190.641
 30
-4.23175e-14
  70
    32
  0
VERTEX
  8
0
  5
37A97
 10
1.82358e-08
 20
190.750
 30
-4.23409e-14
  70
    32
  0
VERTEX
  8
0
  5
37A98
 10
1.75410e-08
 20
190.858
 30
-4.23640e-14
  70
    32
  0
VERTEX
  8
0
  5
37A99
 10
1.68661e-08
 20
190.965
 30
-4.23870e-14
  70
    32
  0
VERTEX
  8
0
  5
37A9A
 10
1.62109e-08
 20
191.071
 30
-4.24097e-14
  70
    32
  0
VERTEX
  8
0
  5
37A9B
 10
1.55749e-08
 20
191.176
 30
-4.24323e-14
  70
    32
  0
VERTEX
  8
0
  5
37A9C
 10
1.49577e-08
 20
191.280
 30
-4.24546e-14
  70
    32
  0
VERTEX
  8
0
  5
37A9D
 10
1.43590e-08
 20
191.383
 30
-4.24767e-14
  70
    32
  0
VERTEX
  8
0
  5
37A9E
 10
1.37783e-08
 20
191.486
 30
-4.24987e-14
  70
    32
  0
VERTEX
  8
0
  5
37A9F
 10
1.32153e-08
 20
191.587
 30
-4.25204e-14
  70
    32
  0
VERTEX
  8
0
  5
37AA0
 10
1.26696e-08
 20
191.687
 30
-4.25419e-14
  70
    32
  0
VERTEX
  8
0
  5
37AA1
 10
1.21408e-08
 20
191.786
 30
-4.25633e-14
  70
    32
  0
VERTEX
  8
0
  5
37AA2
 10
1.16285e-08
 20
191.884
 30
-4.25844e-14
  70
    32
  0
VERTEX
  8
0
  5
37AA3
 10
1.11324e-08
 20
191.981
 30
-4.26053e-14
  70
    32
  0
VERTEX
  8
0
  5
37AA4
 10
1.06520e-08
 20
192.078
 30
-4.26261e-14
  70
    32
  0
VERTEX
  8
0
  5
37AA5
 10
1.01870e-08
 20
192.173
 30
-4.26466e-14
  70
    32
  0
VERTEX
  8
0
  5
37AA6
 10
9.73692e-09
 20
192.267
 30
-4.26670e-14
  70
    32
  0
VERTEX
  8
0
  5
37AA7
 10
9.30145e-09
 20
192.360
 30
-4.26871e-14
  70
    32
  0
VERTEX
  8
0
  5
37AA8
 10
8.88018e-09
 20
192.452
 30
-4.27071e-14
  70
    32
  0
VERTEX
  8
0
  5
37AA9
 10
8.47273e-09
 20
192.543
 30
-4.27268e-14
  70
    32
  0
VERTEX
  8
0
  5
37AAA
 10
8.07871e-09
 20
192.634
 30
-4.27464e-14
  70
    32
  0
VERTEX
  8
0
  5
37AAB
 10
7.69774e-09
 20
192.723
 30
-4.27658e-14
  70
    32
  0
VERTEX
  8
0
  5
37AAC
 10
7.32942e-09
 20
192.811
 30
-4.27850e-14
  70
    32
  0
VERTEX
  8
0
  5
37AAD
 10
6.97336e-09
 20
192.898
 30
-4.28040e-14
  70
    32
  0
VERTEX
  8
0
  5
37AAE
 10
6.62863e-09
 20
192.984
 30
-4.28228e-14
  70
    32
  0
VERTEX
  8
0
  5
37AAF
 10
6.29476e-09
 20
193.069
 30
-4.28414e-14
  70
    32
  0
VERTEX
  8
0
  5
37AB0
 10
5.97158e-09
 20
193.153
 30
-4.28598e-14
  70
    32
  0
VERTEX
  8
0
  5
37AB1
 10
5.65892e-09
 20
193.236
 30
-4.28780e-14
  70
    32
  0
VERTEX
  8
0
  5
37AB2
 10
5.35663e-09
 20
193.317
 30
-4.28960e-14
  70
    32
  0
VERTEX
  8
0
  5
37AB3
 10
5.06453e-09
 20
193.398
 30
-4.29139e-14
  70
    32
  0
VERTEX
  8
0
  5
37AB4
 10
4.78245e-09
 20
193.478
 30
-4.29315e-14
  70
    32
  0
VERTEX
  8
0
  5
37AB5
 10
4.51023e-09
 20
193.556
 30
-4.29489e-14
  70
    32
  0
VERTEX
  8
0
  5
37AB6
 10
4.24771e-09
 20
193.634
 30
-4.29661e-14
  70
    32
  0
VERTEX
  8
0
  5
37AB7
 10
3.99471e-09
 20
193.710
 30
-4.29832e-14
  70
    32
  0
VERTEX
  8
0
  5
37AB8
 10
3.75106e-09
 20
193.786
 30
-4.30000e-14
  70
    32
  0
VERTEX
  8
0
  5
37AB9
 10
3.51661e-09
 20
193.860
 30
-4.30166e-14
  70
    32
  0
VERTEX
  8
0
  5
37ABA
 10
3.29118e-09
 20
193.933
 30
-4.30330e-14
  70
    32
  0
VERTEX
  8
0
  5
37ABB
 10
3.07461e-09
 20
194.005
 30
-4.30492e-14
  70
    32
  0
VERTEX
  8
0
  5
37ABC
 10
2.86673e-09
 20
194.076
 30
-4.30652e-14
  70
    32
  0
VERTEX
  8
0
  5
37ABD
 10
2.66738e-09
 20
194.146
 30
-4.30810e-14
  70
    32
  0
VERTEX
  8
0
  5
37ABE
 10
2.47637e-09
 20
194.215
 30
-4.30965e-14
  70
    32
  0
VERTEX
  8
0
  5
37ABF
 10
2.29356e-09
 20
194.283
 30
-4.31119e-14
  70
    32
  0
VERTEX
  8
0
  5
37AC0
 10
2.11877e-09
 20
194.350
 30
-4.31271e-14
  70
    32
  0
VERTEX
  8
0
  5
37AC1
 10
1.95184e-09
 20
194.415
 30
-4.31420e-14
  70
    32
  0
VERTEX
  8
0
  5
37AC2
 10
1.79259e-09
 20
194.480
 30
-4.31567e-14
  70
    32
  0
VERTEX
  8
0
  5
37AC3
 10
1.64087e-09
 20
194.543
 30
-4.31712e-14
  70
    32
  0
VERTEX
  8
0
  5
37AC4
 10
1.49650e-09
 20
194.606
 30
-4.31855e-14
  70
    32
  0
VERTEX
  8
0
  5
37AC5
 10
1.35931e-09
 20
194.667
 30
-4.31996e-14
  70
    32
  0
VERTEX
  8
0
  5
37AC6
 10
1.22915e-09
 20
194.727
 30
-4.32134e-14
  70
    32
  0
VERTEX
  8
0
  5
37AC7
 10
1.10585e-09
 20
194.787
 30
-4.32270e-14
  70
    32
  0
VERTEX
  8
0
  5
37AC8
 10
9.89224e-10
 20
194.845
 30
-4.32404e-14
  70
    32
  0
VERTEX
  8
0
  5
37AC9
 10
8.79123e-10
 20
194.902
 30
-4.32536e-14
  70
    32
  0
VERTEX
  8
0
  5
37ACA
 10
7.75375e-10
 20
194.957
 30
-4.32665e-14
  70
    32
  0
VERTEX
  8
0
  5
37ACB
 10
6.77813e-10
 20
195.012
 30
-4.32793e-14
  70
    32
  0
VERTEX
  8
0
  5
37ACC
 10
5.86270e-10
 20
195.066
 30
-4.32918e-14
  70
    32
  0
VERTEX
  8
0
  5
37ACD
 10
5.00579e-10
 20
195.119
 30
-4.33040e-14
  70
    32
  0
VERTEX
  8
0
  5
37ACE
 10
4.20573e-10
 20
195.170
 30
-4.33161e-14
  70
    32
  0
VERTEX
  8
0
  5
37ACF
 10
3.46086e-10
 20
195.221
 30
-4.33279e-14
  70
    32
  0
VERTEX
  8
0
  5
37AD0
 10
2.76950e-10
 20
195.270
 30
-4.33394e-14
  70
    32
  0
VERTEX
  8
0
  5
37AD1
 10
2.12998e-10
 20
195.318
 30
-4.33508e-14
  70
    32
  0
VERTEX
  8
0
  5
37AD2
 10
1.54063e-10
 20
195.366
 30
-4.33619e-14
  70
    32
  0
VERTEX
  8
0
  5
37AD3
 10
9.99796e-11
 20
195.412
 30
-4.33727e-14
  70
    32
  0
VERTEX
  8
0
  5
37AD4
 10
5.05793e-11
 20
195.457
 30
-4.33834e-14
  70
    32
  0
VERTEX
  8
0
  5
37AD5
 10
5.69567e-12
 20
195.501
 30
-4.33938e-14
  70
    32
  0
VERTEX
  8
0
  5
37AD6
 10
-3.48383e-11
 20
195.543
 30
-4.34039e-14
  70
    32
  0
VERTEX
  8
0
  5
37AD7
 10
-7.11895e-11
 20
195.585
 30
-4.34138e-14
  70
    32
  0
VERTEX
  8
0
  5
37AD8
 10
-1.03525e-10
 20
195.626
 30
-4.34235e-14
  70
    32
  0
VERTEX
  8
0
  5
37AD9
 10
-1.32011e-10
 20
195.665
 30
-4.34329e-14
  70
    32
  0
VERTEX
  8
0
  5
37ADA
 10
-1.56816e-10
 20
195.704
 30
-4.34421e-14
  70
    32
  0
VERTEX
  8
0
  5
37ADB
 10
-1.78106e-10
 20
195.741
 30
-4.34510e-14
  70
    32
  0
VERTEX
  8
0
  5
37ADC
 10
-1.96047e-10
 20
195.777
 30
-4.34597e-14
  70
    32
  0
VERTEX
  8
0
  5
37ADD
 10
-2.10808e-10
 20
195.812
 30
-4.34681e-14
  70
    32
  0
VERTEX
  8
0
  5
37ADE
 10
-2.22554e-10
 20
195.846
 30
-4.34763e-14
  70
    32
  0
VERTEX
  8
0
  5
37ADF
 10
-2.31453e-10
 20
195.879
 30
-4.34843e-14
  70
    32
  0
VERTEX
  8
0
  5
37AE0
 10
-2.37672e-10
 20
195.911
 30
-4.34920e-14
  70
    32
  0
VERTEX
  8
0
  5
37AE1
 10
-2.41377e-10
 20
195.942
 30
-4.34994e-14
  70
    32
  0
VERTEX
  8
0
  5
37AE2
 10
-2.42736e-10
 20
195.971
 30
-4.35066e-14
  70
    32
  0
VERTEX
  8
0
  5
37AE3
 10
-2.41915e-10
 20
196.000
 30
-4.35135e-14
  70
    32
  0
VERTEX
  8
0
  5
37AE4
 10
-2.39082e-10
 20
196.027
 30
-4.35202e-14
  70
    32
  0
VERTEX
  8
0
  5
37AE5
 10
-2.34403e-10
 20
196.053
 30
-4.35266e-14
  70
    32
  0
VERTEX
  8
0
  5
37AE6
 10
-2.28046e-10
 20
196.079
 30
-4.35327e-14
  70
    32
  0
VERTEX
  8
0
  5
37AE7
 10
-2.20177e-10
 20
196.103
 30
-4.35386e-14
  70
    32
  0
VERTEX
  8
0
  5
37AE8
 10
-2.10963e-10
 20
196.126
 30
-4.35442e-14
  70
    32
  0
VERTEX
  8
0
  5
37AE9
 10
-2.00571e-10
 20
196.147
 30
-4.35496e-14
  70
    32
  0
VERTEX
  8
0
  5
37AEA
 10
-1.89169e-10
 20
196.168
 30
-4.35547e-14
  70
    32
  0
VERTEX
  8
0
  5
37AEB
 10
-1.76922e-10
 20
196.188
 30
-4.35595e-14
  70
    32
  0
VERTEX
  8
0
  5
37AEC
 10
-1.63998e-10
 20
196.206
 30
-4.35641e-14
  70
    32
  0
VERTEX
  8
0
  5
37AED
 10
-1.50565e-10
 20
196.224
 30
-4.35684e-14
  70
    32
  0
VERTEX
  8
0
  5
37AEE
 10
-1.36788e-10
 20
196.240
 30
-4.35724e-14
  70
    32
  0
VERTEX
  8
0
  5
37AEF
 10
-1.22834e-10
 20
196.255
 30
-4.35762e-14
  70
    32
  0
VERTEX
  8
0
  5
37AF0
 10
-1.08872e-10
 20
196.269
 30
-4.35797e-14
  70
    32
  0
VERTEX
  8
0
  5
37AF1
 10
-9.50672e-11
 20
196.282
 30
-4.35829e-14
  70
    32
  0
VERTEX
  8
0
  5
37AF2
 10
-8.15870e-11
 20
196.294
 30
-4.35859e-14
  70
    32
  0
VERTEX
  8
0
  5
37AF3
 10
-6.85984e-11
 20
196.304
 30
-4.35885e-14
  70
    32
  0
VERTEX
  8
0
  5
37AF4
 10
-5.62682e-11
 20
196.314
 30
-4.35909e-14
  70
    32
  0
VERTEX
  8
0
  5
37AF5
 10
-4.47634e-11
 20
196.322
 30
-4.35930e-14
  70
    32
  0
VERTEX
  8
0
  5
37AF6
 10
-3.42509e-11
 20
196.330
 30
-4.35949e-14
  70
    32
  0
VERTEX
  8
0
  5
37AF7
 10
-2.48978e-11
 20
196.336
 30
-4.35964e-14
  70
    32
  0
VERTEX
  8
0
  5
37AF8
 10
-1.68709e-11
 20
196.341
 30
-4.35977e-14
  70
    32
  0
VERTEX
  8
0
  5
37AF9
 10
-1.03371e-11
 20
196.345
 30
-4.35987e-14
  70
    32
  0
VERTEX
  8
0
  5
37AFA
 10
-5.46345e-12
 20
196.348
 30
-4.35994e-14
  70
    32
  0
VERTEX
  8
0
  5
37AFB
 10
-2.41684e-12
 20
196.349
 30
-4.35999e-14
  70
    32
  0
VERTEX
  8
0
  5
37AFC
 10
-1.36420e-12
 20
196.350
 30
-4.36000e-14
  70
    32
  0
SEQEND
  8
0
  5
37AFD
  0
LINE
  5
376E1
  8
0
  6
VERDECKT
 62
     1
 10
13.9999999999986091
 20
105.9077896424775957
 30
-0.0000000000000235
 11
13.9999999999987104
 21
194.0883257799609112
 31
-0.0000000000000431
210
0.0
220
1.0
230
-0.0000000000000002
  0
LINE
  5
376E2
  8
0
  6
VERDECKT
 62
     1
 10
13.8608268990387593
 20
106.8980577112191952
 30
-0.0000000000000237
 11
13.8608268990388606
 21
193.0980577112192975
 31
-0.0000000000000429
210
0.0
220
1.0
230
-0.0000000000000002
  0
LINE
  5
376E3
  8
0
  6
VERDECKT
 62
     1
 10
1.000000000000419
 20
16.9999999999996483
 30
-0.0000000000000038
 11
0.0000000000004263
 21
16.9999999999996483
 31
-0.0000000000000038
210
0.0
220
1.0
230
-0.0000000000000002
  0
LINE
  5
376E4
  8
0
  6
VERDECKT
 62
     1
 10
1.0000000000004261
 20
22.9999999999996483
 30
-0.0000000000000051
 11
0.0000000000004263
 21
22.9999999999996483
 31
-0.0000000000000051
210
0.0
220
1.0
230
-0.0000000000000002
  0
LINE
  5
376E5
  8
0
  6
VERDECKT
 62
     1
 10
0.00000502998921
 20
103.6500000000003041
 30
-0.000000000000023
 11
-0.0000000000000535
 21
103.6500000000003041
 31
-0.000000000000023
210
0.0
220
1.0
230
-0.0000000000000002
  0
ARC
  5
376E6
  8
0
  6
VERDECKT
 62
     1
 10
-1.499999999999736
 20
103.6461154224389958
 30
0.0
 40
1.4999999999997879
210
0.0
220
-0.0000000000000002
230
-1.0
 50
0.1483800988224392
 51
82.0000000000070344
  0
ARC
  5
376E7
  8
0
  6
VERDECKT
 62
     1
 10
-1.499999999999829
 20
196.3500000000003922
 30
0.0
 40
1.4999999999997899
210
0.0
220
-0.0000000000000002
230
-1.0
 50
277.9999999999953957
 51
0.0000000000065217
  0
ARC
  5
376E8
  8
0
  6
VERDECKT
 62
     1
 10
-1.4999999999998339
 20
103.6461154224390953
 30
0.0
 40
0.4999999999998673
210
0.0
220
-0.0000000000000002
230
-1.0
 50
359.9999999999919282
 51
82.0000000000107434
  0
ARC
  5
376E9
  8
0
  6
VERDECKT
 62
     1
 10
-1.4999999999999629
 20
196.350000000000307
 30
0.0
 40
0.4999999999998784
210
0.0
220
-0.0000000000000002
230
-1.0
 50
278.0
 51
0.0000000000260599
  0
LINE
  5
376EA
  8
0
  6
VERDECKT
 62
     1
 10
13.9999999999999698
 20
105.9077896424780931
 30
-0.0000000000000235
 11
1.4304134495199099
 21
104.1412494568097031
 31
-0.0000000000000231
210
0.0
220
1.0
230
-0.0000000000000002
  0
LINE
  5
376EB
  8
0
  6
VERDECKT
 62
     1
 10
14.0000000000000107
 20
194.0883257799613091
 30
-0.0000000000000431
 11
1.4304134495199441
 21
195.8548659656298128
 31
-0.0000000000000435
210
0.0
220
1.0
230
-0.0000000000000002
  0
LINE
  5
376EC
  8
0
  6
VERDECKT
 62
     1
 10
13.8608268990401999
 20
193.0980577112198091
 30
-0.0000000000000429
 11
14.0000000000000497
 21
194.0883257799613091
 31
-0.0000000000000431
210
0.0
220
1.0
230
-0.0000000000000002
  0
LINE
  5
376ED
  8
0
  6
VERDECKT
 62
     1
 10
13.8608268990400898
 20
106.8980577112197068
 30
-0.0000000000000237
 11
13.9999999999999396
 21
105.9077896424782068
 31
-0.0000000000000235
210
0.0
220
1.0
230
-0.0000000000000002
  0
LINE
  5
376EE
  8
0
  6
VERDECKT
 62
     1
 10
13.86082689904012
 20
106.8980577112197068
 30
-0.0000000000000237
 11
1.2912403485598301
 21
105.1315175255512031
 31
-0.0000000000000233
210
0.0
220
1.0
230
-0.0000000000000002
  0
LINE
  5
376EF
  8
0
  6
VERDECKT
 62
     1
 10
13.8608268990401609
 20
193.0980577112198091
 30
-0.0000000000000429
 11
1.2912403485598629
 21
194.8645978968881991
 31
-0.0000000000000433
210
0.0
220
1.0
230
-0.0000000000000002
  0
LINE
  5
376F0
  8
0
  6
VERDECKT
 62
     1
 10
1.000000000001517
 20
277.0000000000005116
 30
-0.0000000000000615
 11
0.0000000000015206
 21
277.0000000000005116
 31
-0.0000000000000615
210
0.0
220
1.0
230
-0.0000000000000002
  0
LINE
  5
376F1
  8
0
  6
VERDECKT
 62
     1
 10
1.0000000000015239
 20
283.0000000000005116
 30
-0.0000000000000628
 11
0.0000000000015241
 21
283.0000000000005116
 31
-0.0000000000000628
210
0.0
220
1.0
230
-0.0000000000000002
  0
LINE
  5
376F2
  8
0
  6
VERDECKT
 62
     1
 10
315.8692663858820993
 20
115.692494088508397
 30
-0.0000000000000257
 11
315.8692663858820993
 21
184.3036213339329947
 31
-0.0000000000000409
210
0.0
220
1.0
230
-0.0000000000000002
  0
LINE
  5
376F3
  8
0
  6
VERDECKT
 62
     1
 10
-1.3660721687793991
 20
111.7024713178254984
 30
-0.0000000000000248
 11
-1.366072168779394
 21
188.2936441046159928
 31
-0.0000000000000418
210
0.0
220
1.0
230
-0.0000000000000002
  0
ARC
  5
376F4
  8
0
  6
VERDECKT
 62
     1
 10
-307.6261956721838828
 20
121.9980577112313966
 30
0.0
 40
7.000000000010699
210
0.0
220
-0.0000000000000002
230
-1.0
 50
265.0000000000042064
 51
269.9999999999968168
  0
ARC
  5
376F5
  8
0
  6
VERDECKT
 62
     1
 10
-307.6261956721834281
 20
177.9980577112025912
 30
0.0
 40
7.0000000000181597
210
0.0
220
-0.0000000000000002
230
-1.0
 50
90.0000000000074465
 51
94.9999999999946994
  0
LINE
  5
376F6
  8
0
  6
VERDECKT
 62
     1
 10
315.8692663858820993
 20
115.692494088508397
 30
-0.0000000000000257
 11
308.2362858714179197
 21
115.0246948245785035
 31
-0.0000000000000255
210
0.0
220
1.0
230
-0.0000000000000002
  0
LINE
  5
376F7
  8
0
  6
VERDECKT
 62
     1
 10
315.8692663858820993
 20
184.3036213339329947
 30
-0.0000000000000409
 11
308.2362858714179765
 21
184.9714205978629025
 31
-0.0000000000000411
210
0.0
220
1.0
230
-0.0000000000000002
  0
LINE
  5
376F8
  8
0
  6
VERDECKT
 62
     1
 10
315.8692663858820993
 20
184.3036213339329947
 30
-0.0000000000000409
 11
316.0000000000036948
 21
185.7979133810706003
 31
-0.0000000000000413
210
0.0
220
1.0
230
-0.0000000000000002
  0
LINE
  5
376F9
  8
0
  6
VERDECKT
 62
     1
 10
315.8692663858820993
 20
115.692494088508397
 30
-0.0000000000000257
 11
316.0000000000036948
 21
114.1982020413708057
 31
-0.0000000000000254
210
0.0
220
1.0
230
-0.0000000000000002
  0
LINE
  5
376FA
  8
0
  6
VERDECKT
 62
     1
 10
58.1266200083285796
 20
186.4980577112206959
 30
-0.0000000000000414
 11
218.0000000000013074
 21
186.4980577112206959
 31
-0.0000000000000414
210
0.0
220
1.0
230
-0.0000000000000002
  0
LINE
  5
376FB
  8
0
  6
VERDECKT
 62
     1
 10
58.1266200083285796
 20
113.4980577112206959
 30
-0.0000000000000252
 11
218.0000000000013074
 21
113.4980577112206959
 31
-0.0000000000000252
210
0.0
220
1.0
230
-0.0000000000000002
  0
LINE
  5
376FC
  8
0
  6
VERDECKT
 62
     1
 10
58.1266200083285796
 20
184.9980577112206959
 30
-0.0000000000000411
 11
307.6261956721842807
 21
184.9980577112206959
 31
-0.0000000000000411
210
0.0
220
1.0
230
-0.0000000000000002
  0
LINE
  5
376FD
  8
0
  6
VERDECKT
 62
     1
 10
58.1266200083285796
 20
114.9980577112206959
 30
-0.0000000000000255
 11
307.6261956721842807
 21
114.9980577112206959
 31
-0.0000000000000255
210
0.0
220
1.0
230
-0.0000000000000002
  0
ARC
  5
376FE
  8
0
  6
VERDECKT
 62
     1
 10
-58.1266200083285582
 20
105.4980577112207953
 30
0.0
 40
9.4999999999999023
210
0.0
220
-0.0000000000000002
230
-1.0
 50
58.1297797402275478
 51
90.0000000000001705
  0
ARC
  5
376FF
  8
0
  6
VERDECKT
 62
     1
 10
-58.1266200083285725
 20
194.4980577112206106
 30
0.0
 40
9.4999999999999112
210
0.0
220
-0.0000000000000002
230
-1.0
 50
270.0
 51
301.8702202597723954
  0
ARC
  5
37700
  8
0
  6
VERDECKT
 62
     1
 10
-47.61947957907757
 20
122.3980577112206021
 30
0.0
 40
10.3999999999999204
210
0.0
220
-0.0000000000000002
230
-1.0
 50
238.1297797402285994
 51
269.9999999999997726
  0
ARC
  5
37701
  8
0
  6
VERDECKT
 62
     1
 10
-47.6194795790776269
 20
177.5980577112210881
 30
0.0
 40
10.3999999999996593
210
0.0
220
-0.0000000000000002
230
-1.0
 50
89.9999999999999858
 51
121.8702202597719975
  0
LINE
  5
37702
  8
0
  6
VERDECKT
 62
     1
 10
26.6700000000028012
 20
187.9980577112208096
 30
-0.0000000000000417
 11
47.6194795790776197
 21
187.9980577112208096
 31
-0.0000000000000417
210
0.0
220
1.0
230
-0.0000000000000002
  0
LINE
  5
37703
  8
0
  6
VERDECKT
 62
     1
 10
26.6700000000028012
 20
111.9980577112206959
 30
-0.0000000000000249
 11
47.6194795790776197
 21
111.9980577112206959
 31
-0.0000000000000249
210
0.0
220
1.0
230
-0.0000000000000002
  0
ARC
  5
37704
  8
0
  6
VERDECKT
 62
     1
 10
-26.6700000000028403
 20
98.3980577112236432
 30
0.0
 40
13.5999999999970793
210
0.0
220
-0.0000000000000002
230
-1.0
 50
68.8168456069639376
 51
89.9999999999998437
  0
ARC
  5
37705
  8
0
  6
VERDECKT
 62
     1
 10
-26.6700000000025383
 20
201.5980577112163132
 30
0.0
 40
13.5999999999954397
210
0.0
220
-0.0000000000000002
230
-1.0
 50
270.0
 51
291.1831543930384782
  0
ARC
  5
37706
  8
0
  6
VERDECKT
 62
     1
 10
-13.3000000000052108
 20
132.8980577112209005
 30
0.0
 40
23.4000932431252515
210
0.0
220
-0.0000000000000002
230
-1.0
 50
248.8168456069676893
 51
270.1617474307254838
  0
ARC
  5
37707
  8
0
  6
VERDECKT
 62
     1
 10
-13.30000000000536
 20
167.0980577112214007
 30
0.0
 40
23.4000932431244593
210
0.0
220
-0.0000000000000002
230
-1.0
 50
89.8382525692741467
 51
111.183154393032595
  0
LINE
  5
37708
  8
0
  6
VERDECKT
 62
     1
 10
8.5489224071233156
 20
190.4980577112206959
 30
-0.0000000000000423
 11
13.2339410343065502
 21
190.4980577112206959
 31
-0.0000000000000423
210
0.0
220
1.0
230
-0.0000000000000002
  0
LINE
  5
37709
  8
0
  6
VERDECKT
 62
     1
 10
8.5489224071233139
 20
109.4980577112206959
 30
-0.0000000000000243
 11
13.2339410343065502
 21
109.4980577112206959
 31
-0.0000000000000243
210
0.0
220
1.0
230
-0.0000000000000002
  0
ARC
  5
3770A
  8
0
  6
VERDECKT
 62
     1
 10
-8.5489224071214451
 20
132.8980577112263859
 30
0.0
 40
23.4000000000056616
210
0.0
220
-0.0000000000000002
230
-1.0
 50
270.0
 51
295.0695260322549984
  0
ARC
  5
3770B
  8
0
  6
VERDECKT
 62
     1
 10
-8.548922407121287
 20
167.0980577112158869
 30
0.0
 40
23.4000000000048587
210
0.0
220
-0.0000000000000002
230
-1.0
 50
64.9304739677490943
 51
90.0000000000049738
  0
LINE
  5
3770C
  8
0
  6
VERDECKT
 62
     1
 10
-1.366072168779354
 20
111.702471317825399
 30
-0.0000000000000248
 11
-1.9999999999974509
 21
110.3430086966748007
 31
-0.0000000000000245
210
0.0
220
1.0
230
-0.0000000000000002
  0
LINE
  5
3770D
  8
0
  6
VERDECKT
 62
     1
 10
-1.3660721687793389
 20
188.2936441046159928
 30
-0.0000000000000418
 11
-1.9999999999974361
 21
189.6531067257666905
 31
-0.0000000000000421
210
0.0
220
1.0
230
-0.0000000000000002
  0
ARC
  5
3770E
  8
0
  6
VERDECKT
 62
     1
 10
-8.5489224070765513
 20
132.8980577112311892
 30
0.0
 40
24.8999999999901789
210
0.0
220
-0.0000000000000002
230
-1.0
 50
269.999926836387715
 51
290.0798992965392245
  0
ARC
  5
3770F
  8
0
  6
VERDECKT
 62
     1
 10
-8.5489224070764394
 20
167.0980577112111973
 30
0.0
 40
24.8999999999892516
210
0.0
220
-0.0000000000000002
230
-1.0
 50
69.9201007034604629
 51
90.0000731636125124
  0
LINE
  5
37710
  8
0
  6
VERDECKT
 62
     1
 10
13.2297065021023208
 20
107.9980636883196041
 30
-0.000000000000024
 11
8.5489542030301209
 21
107.9980577112612963
 31
-0.000000000000024
210
0.0
220
1.0
230
-0.0000000000000002
  0
LINE
  5
37711
  8
0
  6
VERDECKT
 62
     1
 10
13.2297065021023208
 20
191.9980517341217876
 30
-0.0000000000000426
 11
8.5489542030301227
 21
191.9980577111801097
 31
-0.0000000000000426
210
0.0
220
1.0
230
-0.0000000000000002
  0
ARC
  5
37712
  8
0
  6
VERDECKT
 62
     1
 10
-13.3000000000038892
 20
132.8980577112176888
 30
0.0
 40
24.9000932431227611
210
0.0
220
-0.0000000000000002
230
-1.0
 50
248.8168456069633123
 51
270.1617474307099087
  0
ARC
  5
37713
  8
0
  6
VERDECKT
 62
     1
 10
-13.3000000000038892
 20
167.0980577112237881
 30
0.0
 40
24.9000932431227895
210
0.0
220
-0.0000000000000002
230
-1.0
 50
89.8382525692900913
 51
111.1831543930367019
  0
ARC
  5
37714
  8
0
  6
VERDECKT
 62
     1
 10
-26.6700000000035509
 20
98.398057711220531
 30
0.0
 40
12.1000000000002199
210
0.0
220
-0.0000000000000002
230
-1.0
 50
68.8168456069635397
 51
90.0000000000002132
  0
ARC
  5
37715
  8
0
  6
VERDECKT
 62
     1
 10
-26.6700000000035509
 20
201.5980577112210028
 30
0.0
 40
12.1000000000001897
210
0.0
220
-0.0000000000000002
230
-1.0
 50
270.0
 51
291.1831543930367729
  0
LINE
  5
37716
  8
0
  6
VERDECKT
 62
     1
 10
26.6700000000036006
 20
189.4980577112206959
 30
-0.0000000000000421
 11
47.6194795790776197
 21
189.4980577112206959
 31
-0.0000000000000421
210
0.0
220
1.0
230
-0.0000000000000002
  0
LINE
  5
37717
  8
0
  6
VERDECKT
 62
     1
 10
26.6700000000036006
 20
110.4980577112206959
 30
-0.0000000000000245
 11
47.6194795790776197
 21
110.4980577112206959
 31
-0.0000000000000245
210
0.0
220
1.0
230
-0.0000000000000002
  0
ARC
  5
37718
  8
0
  6
VERDECKT
 62
     1
 10
-47.6194795790777334
 20
122.3980577112204031
 30
0.0
 40
11.8999999999996806
210
0.0
220
-0.0000000000000002
230
-1.0
 50
238.1297797402276899
 51
270.0000000000005116
  0
ARC
  5
37719
  8
0
  6
VERDECKT
 62
     1
 10
-47.6194795790777192
 20
177.5980577112210028
 30
0.0
 40
11.8999999999997499
210
0.0
220
-0.0000000000000002
230
-1.0
 50
89.9999999999994742
 51
121.8702202597719975
  0
ARC
  5
3771A
  8
0
  6
VERDECKT
 62
     1
 10
-58.1266200083284019
 20
105.4980577112214064
 30
0.0
 40
7.999999999999317
210
0.0
220
-0.0000000000000002
230
-1.0
 50
58.1297797402276188
 51
90.0000000000013358
  0
ARC
  5
3771B
  8
0
  6
VERDECKT
 62
     1
 10
-58.1266200083283593
 20
194.4980577112199001
 30
0.0
 40
7.999999999999118
210
0.0
220
-0.0000000000000002
230
-1.0
 50
270.0
 51
301.8702202597744986
  0
LINE
  5
3771C
  8
0
  6
VERDECKT
 62
     1
 10
216.0000000000013074
 20
99.9980577112201132
 30
-0.0000000000000222
 11
1.000000000001307
 21
99.9980577112201416
 31
-0.0000000000000222
210
0.0
220
1.0
230
-0.0000000000000002
  0
LINE
  5
3771D
  8
0
  6
VERDECKT
 62
     1
 10
216.0000000000013074
 20
199.998057711220099
 30
-0.0000000000000444
 11
1.000000000001307
 21
199.9980577112202127
 31
-0.0000000000000444
210
0.0
220
1.0
230
-0.0000000000000002
  0
ENDBLK
  5
3771F
  8
0
  0
BLOCK
  8
0
  2
A$C9AC34778
 70
     0
 10
0.0
 20
0.0
 30
0.0
  3
A$C9AC34778
  1

  0
CIRCLE
  5
37758
  8
0
  6
CONTINUOUS
 62
     3
 10
130.0000000000001137
 20
149.9980577112199001
 30
0.0
 40
43.0999999999985519
210
0.0
220
-0.0000000000000002
230
-1.0
  0
CIRCLE
  5
37759
  8
0
  6
CONTINUOUS
 62
     3
 10
-0.0000000000001377
 20
19.9999999999990195
 30
0.0
 40
3.000000000000008
210
0.0
220
-0.0000000000000002
230
-1.0
  0
CIRCLE
  5
3775A
  8
0
  6
CONTINUOUS
 62
     3
 10
260.0
 20
19.9999999999988987
 30
0.0
 40
3.000000000000008
210
0.0
220
-0.0000000000000002
230
-1.0
  0
ARC
  5
3775B
  8
0
  6
CONTINUOUS
 62
     3
 10
-0.000000000000024
 20
19.9999999999994706
 30
0.0
 40
20.0000000000000817
210
0.0
220
-0.0000000000000002
230
-1.0
 50
180.0000000000001137
 51
270.0000000000001137
  0
LINE
  5
3775C
  8
0
  6
CONTINUOUS
 62
     3
 10
-260.0
 20
-0.0000000000007399
 30
0.0
 11
0.0
 21
-0.0000000000007135
 31
0.0
210
-0.0000000000000002
220
1.0
230
-0.0000000000000002
  0
ARC
  5
3775D
  8
0
  6
CONTINUOUS
 62
     3
 10
260.0
 20
19.9999999999994209
 30
0.0
 40
20.0000000000001101
210
0.0
220
-0.0000000000000002
230
-1.0
 50
269.9999999999998863
 51
359.9999999999997726
  0
CIRCLE
  5
3775E
  8
0
  6
CONTINUOUS
 62
     3
 10
130.0
 20
149.9999999999998863
 30
0.0
 40
46.3500000000001293
210
0.0
220
-0.0000000000000002
230
-1.0
  0
CIRCLE
  5
3775F
  8
0
  6
CONTINUOUS
 62
     3
 10
130.0
 20
149.9980577112193032
 30
0.0
 40
43.1000000000000512
210
0.0
220
-0.0000000000000002
230
-1.0
  0
ARC
  5
37760
  8
0
  6
CONTINUOUS
 62
     3
 10
260.0000000000001137
 20
280.0000000000006821
 30
0.0
 40
20.0000000000000604
210
0.0
220
-0.0000000000000002
230
-1.0
 50
0.0
 51
90.0
  0
LINE
  5
37761
  8
0
  6
CONTINUOUS
 62
     3
 10
-0.0000000000000666
 20
300.0000000000006821
 30
-0.0000000000000666
 11
-260.0000000000001137
 21
300.0000000000006821
 31
-0.0000000000000666
210
-0.0000000000000002
220
1.0
230
-0.0000000000000002
  0
ARC
  5
37762
  8
0
  6
CONTINUOUS
 62
     3
 10
0.0000000000000906
 20
280.0000000000006821
 30
0.0
 40
20.0000000000000711
210
0.0
220
-0.0000000000000002
230
-1.0
 50
90.0000000000000711
 51
180.0
  0
CIRCLE
  5
37763
  8
0
  6
CONTINUOUS
 62
     3
 10
-0.0000000000000231
 20
280.0000000000003979
 30
0.0
 40
3.000000000000008
210
0.0
220
-0.0000000000000002
230
-1.0
  0
CIRCLE
  5
37764
  8
0
  6
CONTINUOUS
 62
     3
 10
260.0000000000001137
 20
280.0000000000002842
 30
0.0
 40
3.000000000000008
210
0.0
220
-0.0000000000000002
230
-1.0
  0
LINE
  5
37765
  8
0
  6
CONTINUOUS
 62
     3
 10
19.9999999999999396
 20
19.9999999999995914
 30
-0.0000000000000044
 11
19.9999999999999716
 21
280.0000000000006821
 31
-0.0000000000000622
210
-0.0000000000000002
220
1.0
230
-0.0000000000000002
  0
LINE
  5
37766
  8
0
  6
CONTINUOUS
 62
     3
 10
-280.0000000000001137
 20
280.0000000000006821
 30
-0.0000000000000622
 11
-280.0000000000002274
 21
19.9999999999995417
 31
-0.0000000000000044
210
-0.0000000000000002
220
1.0
230
-0.0000000000000002
  0
CIRCLE
  5
37767
  8
0
  6
CONTINUOUS
 62
     3
 10
129.999999999999801
 20
149.9980577112206959
 30
0.0
 40
34.3055636227123273
210
0.0
220
-0.0000000000000002
230
-1.0
  0
CIRCLE
  5
37768
  8
0
  6
CONTINUOUS
 62
     3
 10
129.999999999999801
 20
149.9980577112206959
 30
0.0
 40
34.9999999999999787
210
0.0
220
-0.0000000000000002
230
-1.0
  0
CIRCLE
  5
37769
  8
0
  6
CONTINUOUS
 62
     3
 10
129.999999999999801
 20
149.9980577112206959
 30
0.0
 40
38.0000000000000568
210
0.0
220
-0.0000000000000002
230
-1.0
  0
CIRCLE
  5
3776A
  8
0
  6
CONTINUOUS
 62
     3
 10
129.999999999999801
 20
149.9980577112206959
 30
0.0
 40
38.2955863933952614
210
0.0
220
-0.0000000000000002
230
-1.0
  0
CIRCLE
  5
3776B
  8
0
  6
CONTINUOUS
 62
     3
 10
129.999999999999801
 20
149.9980577112206959
 30
0.0
 40
39.6550490145459307
210
0.0
220
-0.0000000000000002
230
-1.0
  0
CIRCLE
  5
3776C
  8
0
  6
CONTINUOUS
 62
     3
 10
129.999999999999801
 20
149.9980577112206959
 30
0.0
 40
41.9999999999797069
210
0.0
220
-0.0000000000000002
230
-1.0
  0
CIRCLE
  5
3776D
  8
0
  6
CONTINUOUS
 62
     3
 10
129.999999999999801
 20
149.9980577112206959
 30
0.0
 40
42.0000932431258107
210
0.0
220
-0.0000000000000002
230
-1.0
  0
CIRCLE
  5
3776E
  8
0
  6
VERDECKT
 62
     1
 10
130.0000000000001137
 20
149.9980577112199001
 30
0.0
 40
40.2499999999981881
210
0.0
220
-0.0000000000000002
230
-1.0
  0
CIRCLE
  5
3776F
  8
0
  6
VERDECKT
 62
     1
 10
130.0000000000001137
 20
149.9980577112199001
 30
0.0
 40
43.249999999998181
210
0.0
220
-0.0000000000000002
230
-1.0
  0
CIRCLE
  5
37770
  8
0
  6
VERDECKT
 62
     1
 10
130.0000000000001137
 20
149.9980577112199001
 30
0.0
 40
46.2213237134656225
210
0.0
220
-0.0000000000000002
230
-1.0
  0
CIRCLE
  5
37771
  8
0
  6
VERDECKT
 62
     1
 10
130.0000000000001137
 20
149.9980577112199001
 30
0.0
 40
48.441267688131127
210
0.0
220
-0.0000000000000002
230
-1.0
  0
CIRCLE
  5
37772
  8
0
  6
VERDECKT
 62
     1
 10
130.0000000000001137
 20
149.9980577112199001
 30
0.0
 40
49.0012179748682826
210
0.0
220
-0.0000000000000002
230
-1.0
  0
CIRCLE
  5
37773
  8
0
  6
VERDECKT
 62
     1
 10
130.0000000000001137
 20
149.9980577112199001
 30
0.0
 40
36.5000000000000071
210
0.0
220
-0.0000000000000002
230
-1.0
  0
CIRCLE
  5
37774
  8
0
  6
VERDECKT
 62
     1
 10
130.0000000000001137
 20
149.9980577112199001
 30
0.0
 40
39.5000000000000071
210
0.0
220
-0.0000000000000002
230
-1.0
  0
CIRCLE
  5
37775
  8
0
  6
VERDECKT
 62
     1
 10
130.0000000000001137
 20
149.9980577112199001
 30
0.0
 40
41.9937766661805725
210
0.0
220
-0.0000000000000002
230
-1.0
  0
CIRCLE
  5
37776
  8
0
  6
VERDECKT
 62
     1
 10
130.0000000000001137
 20
149.9980577112199001
 30
0.0
 40
44.0902680687395403
210
0.0
220
-0.0000000000000002
230
-1.0
  0
CIRCLE
  5
37777
  8
0
  6
VERDECKT
 62
     1
 10
130.0000000000001137
 20
149.9980577112199001
 30
0.0
 40
50.0000000000000071
210
0.0
220
-0.0000000000000002
230
-1.0
  0
CIRCLE
  5
37778
  8
0
  6
VERDECKT
 62
     1
 10
130.0000000000003979
 20
149.9980577112197011
 30
0.0
 40
46.2213237134674273
210
0.0
220
-0.0000000000000002
230
-1.0
  0
CIRCLE
  5
37779
  8
0
  6
VERDECKT
 62
     1
 10
130.0000000000003979
 20
149.9980577112197011
 30
0.0
 40
48.4412676881320365
210
0.0
220
-0.0000000000000002
230
-1.0
  0
CIRCLE
  5
3777A
  8
0
  6
VERDECKT
 62
     1
 10
130.0000000000003979
 20
149.9980577112197011
 30
0.0
 40
49.0000000000000213
210
0.0
220
-0.0000000000000002
230
-1.0
  0
CIRCLE
  5
3777B
  8
0
  6
VERDECKT
 62
     1
 10
130.0000000000003979
 20
149.9980577112197011
 30
0.0
 40
51.0000000000000071
210
0.0
220
-0.0000000000000002
230
-1.0
  0
CIRCLE
  5
3777C
  8
0
  6
VERDECKT
 62
     1
 10
130.0000000000003979
 20
149.9980577112197011
 30
0.0
 40
44.0188021535168517
210
0.0
220
-0.0000000000000002
230
-1.0
  0
CIRCLE
  5
3777D
  8
0
  6
VERDECKT
 62
     1
 10
130.0000000000003979
 20
149.9980577112197011
 30
0.0
 40
39.4000000000000981
210
0.0
220
-0.0000000000000002
230
-1.0
  0
CIRCLE
  5
3777E
  8
0
  6
VERDECKT
 62
     1
 10
130.0000000000003979
 20
149.9980577112197011
 30
0.0
 40
40.2500000000000071
210
0.0
220
-0.0000000000000002
230
-1.0
  0
CIRCLE
  5
3777F
  8
0
  6
VERDECKT
 62
     1
 10
130.0000000000003979
 20
149.9980577112197011
 30
0.0
 40
43.2500000000000071
210
0.0
220
-0.0000000000000002
230
-1.0
  0
CIRCLE
  5
37780
  8
0
  6
VERDECKT
 62
     1
 10
130.0
 20
149.9980577112193032
 30
0.0
 40
44.0902680687416222
210
0.0
220
-0.0000000000000002
230
-1.0
  0
CIRCLE
  5
37781
  8
0
  6
VERDECKT
 62
     1
 10
129.999999999999801
 20
149.9980577112206959
 30
0.0
 40
35.799855669849947
210
0.0
220
-0.0000000000000002
230
-1.0
  0
CIRCLE
  5
37782
  8
0
  6
VERDECKT
 62
     1
 10
129.999999999999801
 20
149.9980577112206959
 30
0.0
 40
36.4999999999999929
210
0.0
220
-0.0000000000000002
230
-1.0
  0
CIRCLE
  5
37783
  8
0
  6
VERDECKT
 62
     1
 10
129.999999999999801
 20
149.9980577112206959
 30
0.0
 40
40.5
210
0.0
220
-0.0000000000000002
230
-1.0
  0
CIRCLE
  5
37784
  8
0
  6
VERDECKT
 62
     1
 10
129.999999999999801
 20
149.9980577112206959
 30
0.0
 40
41.9999940229011415
210
0.0
220
-0.0000000000000002
230
-1.0
  0
CIRCLE
  5
37785
  8
0
  6
VERDECKT
 62
     1
 10
129.999999999999801
 20
149.9980577112206959
 30
0.0
 40
39.5000000000000071
210
0.0
220
-0.0000000000000002
230
-1.0
  0
CIRCLE
  5
37786
  8
0
  6
VERDECKT
 62
     1
 10
129.999999999999801
 20
149.9980577112206959
 30
0.0
 40
40.5000932431251286
210
0.0
220
-0.0000000000000002
230
-1.0
  0
CIRCLE
  5
37787
  8
0
  6
VERDECKT
 62
     1
 10
130.0000000000001137
 20
149.998057711220099
 30
0.0
 40
50.0000000000000071
210
0.0
220
-0.0000000000000002
230
-1.0
  0
CIRCLE
  5
37788
  8
0
  6
VERDECKT
 62
     1
 10
-130.0000000000001137
 20
149.998057711220099
 30
-0.0000000000000333
 40
51.5000000000000213
  0
ENDBLK
  5
3778A
  8
0
  0
ENDSEC
  0
SECTION
  2
ENTITIES
  0
TEXT
  5
5DDE
  8
VOLL
 10
78.076754716981128
 20
31.025947764705851
 30
0.0
 40
1.8
  1

  7
GREEKS
  0
INSERT
  5
5DDF
  8
ADSK_ASSOC_ENTITY_BACKUPS
  2
*S1
 10
0.0
 20
0.0
 30
0.0
  0
INSERT
  5
37720
  8
0
  2
A$C83A462D1
 10
1.999999999997498
 20
-149.9980577112206959
 30
0.0000000000000284
  0
INSERT
  5
3778B
  8
0
  2
A$C9AC34778
 10
698.0000000000012506
 20
-150.0000000000001137
 30
0.0000000000000568
  0
VIEWPORT
  5
1571
 67
     1
  8
0
 10
-383.25
 20
-444.7447509765623863
 30
0.0
 40
573.3031141868511895
 41
298.5415224913494967
 68
     1
 69
     1
1001
ACAD
1000
MVIEW
1002
{
1070
    16
1010
0.0
1020
0.0
1030
0.0
1010
0.0
1020
0.0
1030
1.0
1040
0.0
1040
298.5415224913494967
1040
-383.25
1040
-444.7447509765623863
1040
50.0
1040
0.0
1040
0.0
1070
     0
1070
  1500
1070
     1
1070
     1
1070
     0
1070
     0
1070
     0
1070
     0
1040
0.0
1040
0.0
1040
0.0
1040
10.0
1040
10.0
1040
10.0
1040
10.0
1070
     0
1002
{
1002
}
1002
}
1001
GENIUS_GENOBJ-N-SDF_13
1002
{
1000
OWNER
1000
GEN
1002
}
1001
GENIUS_GENODEF_13
1002
{
1000
HIER
1070
     0
1002
}
1002
{
1000
MANEDIT
1070
     0
1002
}
1002
{
1000
NOSEL
1070
     0
1002
}
1002
{
1000
BEHIND
1070
     0
1002
}
1002
{
1000
OTHER
1070
     0
1002
}
1002
{
1000
REACTOR
1002
}
1001
GENIUS_GENSCREG_15
1000
PF
1040
1.0
1000
DF
1040
1.0
1000
MIN
1011
-98.3237311841076007
1021
0.0
1031
0.0
1021
-84.5929851452383446
1031
0.0
1000
MAX
1011
756.7695330154733711
1021
0.0
1031
0.0
1021
339.8977580961391141
1031
0.0
1000
FLAGS
1070
     4
  0
ENDSEC
  0
EOF
