  0
SECTION
  2
HEADER
  9
$ACADVER
  1
AC1009
  9
$INSBASE
 10
0.0
 20
0.0
 30
0.0
  9
$EXTMIN
 10
-135.0186143024108958
 20
-338.0193771836572978
 30
-0.0000915457495898
  9
$EXTMAX
 10
475.0186171429450042
 20
135.0137647176323128
 30
0.0001373325941545
  9
$LIMMIN
 10
0.0
 20
0.0
  9
$LIMMAX
 10
420.0
 20
297.0
  9
$ORTHOMODE
 70
     1
  9
$REGENMODE
 70
     1
  9
$FILLMODE
 70
     1
  9
$QTEXTMODE
 70
     0
  9
$MIRRTEXT
 70
     1
  9
$DRAGMODE
 70
     2
  9
$LTSCALE
 40
20.0
  9
$OSMODE
 70
  2559
  9
$ATTMODE
 70
     1
  9
$TEXTSIZE
 40
3.5
  9
$TRACEWID
 40
1.0
  9
$TEXTSTYLE
  7
STANDARD
  9
$CLAYER
  8
STEMPEL
  9
$CELTYPE
  6
BYLAYER
  9
$CECOLOR
 62
   256
  9
$DIMSCALE
 40
1.0
  9
$DIMASZ
 40
3.5
  9
$DIMEXO
 40
1.0
  9
$DIMDLI
 40
7.0
  9
$DIMRND
 40
0.0
  9
$DIMDLE
 40
0.0
  9
$DIMEXE
 40
1.0
  9
$DIMTP
 40
0.0
  9
$DIMTM
 40
0.0
  9
$DIMTXT
 40
3.5
  9
$DIMCEN
 40
1.5
  9
$DIMTSZ
 40
0.0
  9
$DIMTOL
 70
     0
  9
$DIMLIM
 70
     0
  9
$DIMTIH
 70
     0
  9
$DIMTOH
 70
     0
  9
$DIMSE1
 70
     0
  9
$DIMSE2
 70
     0
  9
$DIMTAD
 70
     1
  9
$DIMZIN
 70
     8
  9
$DIMBLK
  1

  9
$DIMASO
 70
     1
  9
$DIMSHO
 70
     0
  9
$DIMPOST
  1

  9
$DIMAPOST
  1

  9
$DIMALT
 70
     0
  9
$DIMALTD
 70
     2
  9
$DIMALTF
 40
25.3999999999999986
  9
$DIMLFAC
 40
2.0
  9
$DIMTOFL
 70
     1
  9
$DIMTVP
 40
0.0
  9
$DIMTIX
 70
     0
  9
$DIMSOXD
 70
     0
  9
$DIMSAH
 70
     0
  9
$DIMBLK1
  1

  9
$DIMBLK2
  1

  9
$DIMSTYLE
  2
STANDARD
  9
$DIMCLRD
 70
     0
  9
$DIMCLRE
 70
     0
  9
$DIMCLRT
 70
     1
  9
$DIMTFAC
 40
0.5142857142857143
  9
$DIMGAP
 40
1.5
  9
$LUNITS
 70
     2
  9
$LUPREC
 70
     2
  9
$SKETCHINC
 40
1.0
  9
$FILLETRAD
 40
0.0
  9
$AUNITS
 70
     0
  9
$AUPREC
 70
     0
  9
$MENU
  1
ACAD
  9
$ELEVATION
 40
0.0
  9
$PELEVATION
 40
0.0
  9
$THICKNESS
 40
0.0
  9
$LIMCHECK
 70
     0
  9
$BLIPMODE
 70
     0
  9
$CHAMFERA
 40
0.0
  9
$CHAMFERB
 40
0.0
  9
$SKPOLY
 70
     0
  9
$TDCREATE
 40
2455397.867048610933125
  9
$TDUPDATE
 40
2458701.4421759261749685
  9
$TDINDWG
 40
0.2877140394
  9
$TDUSRTIMER
 40
0.2877140394
  9
$USRTIMER
 70
     1
  9
$ANGBASE
 50
0.0
  9
$ANGDIR
 70
     0
  9
$PDMODE
 70
     0
  9
$PDSIZE
 40
0.0
  9
$PLINEWID
 40
0.0
  9
$COORDS
 70
     1
  9
$SPLFRAME
 70
     0
  9
$SPLINETYPE
 70
     6
  9
$SPLINESEGS
 70
     8
  9
$ATTDIA
 70
     1
  9
$ATTREQ
 70
     1
  9
$HANDLING
 70
     1
  9
$HANDSEED
  5
18F9
  9
$SURFTAB1
 70
     6
  9
$SURFTAB2
 70
     6
  9
$SURFTYPE
 70
     6
  9
$SURFU
 70
     6
  9
$SURFV
 70
     6
  9
$UCSNAME
  2

  9
$UCSORG
 10
0.0
 20
0.0
 30
0.0
  9
$UCSXDIR
 10
1.0
 20
0.0
 30
0.0
  9
$UCSYDIR
 10
0.0
 20
1.0
 30
0.0
  9
$PUCSNAME
  2

  9
$PUCSORG
 10
0.0
 20
0.0
 30
0.0
  9
$PUCSXDIR
 10
1.0
 20
0.0
 30
0.0
  9
$PUCSYDIR
 10
0.0
 20
1.0
 30
0.0
  9
$USERI1
 70
     0
  9
$USERI2
 70
     0
  9
$USERI3
 70
     0
  9
$USERI4
 70
     0
  9
$USERI5
 70
     0
  9
$USERR1
 40
0.0
  9
$USERR2
 40
0.0
  9
$USERR3
 40
0.0
  9
$USERR4
 40
0.0
  9
$USERR5
 40
0.0
  9
$WORLDVIEW
 70
     1
  9
$SHADEDGE
 70
     3
  9
$SHADEDIF
 70
    70
  9
$TILEMODE
 70
     1
  9
$MAXACTVP
 70
    16
  9
$PLIMCHECK
 70
     0
  9
$PEXTMIN
 10
1.0000000000000000E+20
 20
1.0000000000000000E+20
 30
1.0000000000000000E+20
  9
$PEXTMAX
 10
-1.0000000000000000E+20
 20
-1.0000000000000000E+20
 30
-1.0000000000000000E+20
  9
$PLIMMIN
 10
-4.5118180999245201
 20
-3.178553013404771
  9
$PLIMMAX
 10
415.9471891952965166
 20
294.1221172219420055
  9
$UNITMODE
 70
     0
  9
$VISRETAIN
 70
     0
  9
$PLINEGEN
 70
     0
  9
$PSLTSCALE
 70
     0
  0
ENDSEC
  0
SECTION
  2
TABLES
  0
TABLE
  2
VPORT
 70
     1
  0
VPORT
  2
*ACTIVE
 70
     0
 10
0.0
 20
0.0
 11
1.0
 21
1.0
 12
0.0
 22
-51.5
 13
0.0
 23
0.0
 14
1.0
 24
1.0
 15
10.0
 25
10.0
 16
-0.0000000000003979
 26
0.0
 36
1834.7712300213570416
 17
170.0
 27
-50.0000000000000284
 37
1.4999999999999849
 40
475.411214953270985
 41
1.868197278911564
 42
50.0
 43
0.0
 44
0.0
 50
0.0
 51
0.0
 71
     0
 72
  1500
 73
     1
 74
     0
 75
     0
 76
     0
 77
     0
 78
     0
  0
ENDTAB
  0
TABLE
  2
LTYPE
 70
     6
  0
LTYPE
  2
CONTINUOUS
 70
     0
  3
Solid line
 72
    65
 73
     0
 40
0.0
  0
LTYPE
  2
AUSGEZOGEN
 70
     0
  3
Ausgezogene Linie
 72
    65
 73
     0
 40
0.0
  0
LTYPE
  2
PHANTOM2
 70
     0
  3
Phantom (.5x) ___ _ _ ___ _ _ ___ _ _ ___ _ _
 72
    65
 73
     6
 40
1.25
 49
0.625
 49
-0.125
 49
0.125
 49
-0.125
 49
0.125
 49
-0.125
  0
LTYPE
  2
VERDECKT
 70
     0
  3
_ _ _ _ _ _ _ _ _ _ _ _ _ _ _ _ _ _ _ _ _ _ _
 72
    65
 73
     2
 40
0.375
 49
0.25
 49
-0.125
  0
ENDTAB
  0
TABLE
  2
LAYER
 70
    14
  0
LAYER
  2
0
 70
     0
 62
     7
  6
CONTINUOUS
  0
LAYER
  2
VOLL
 70
     0
 62
     1
  6
CONTINUOUS
  0
LAYER
  2
STEMPEL
 70
     0
 62
     3
  6
CONTINUOUS
  0
LAYER
  2
TEXT
 70
     0
 62
     7
  6
CONTINUOUS
  0
LAYER
  2
DEFPOINTS
 70
     0
 62
     7
  6
AUSGEZOGEN
  0
LAYER
  2
ADSK_ASSOC_ENTITY_BACKUPS
 70
     1
 62
    -7
  6
CONTINUOUS
  0
ENDTAB
  0
TABLE
  2
STYLE
 70
     3
  0
STYLE
  2
STANDARD
 70
     0
 40
0.0
 41
0.8
 50
0.0
 71
     0
 42
3.5
  3
simplex.shx
  4

  0
STYLE
  2
GREEKS
 70
     0
 40
0.0
 41
0.8
 50
0.0
 71
     0
 42
2.5
  3
SIMPLEX.shx
  4

  0
ENDTAB
  0
TABLE
  2
VIEW
 70
     1
  0
ENDTAB
  0
TABLE
  2
UCS
 70
     0
  0
ENDTAB
  0
TABLE
  2
APPID
 70
    25
  0
APPID
  2
ACAD
 70
     0
  0
APPID
  2
ACAD_NAV_VCDISPLAY
 70
     0
  0
APPID
  2
GRADIENTCOLOR1ACI
 70
     0
  0
APPID
  2
GRADIENTCOLOR2ACI
 70
     0
  0
APPID
  2
ACAD_DSTYLE_DIMRADIAL_EXTENSION
 70
     0
  0
APPID
  2
ACADANNOMONITORALERTICONDI
 70
     0
  0
APPID
  2
ACAD_EXEMPT_FROM_CAD_STANDARDS
 70
     0
  0
APPID
  2
ACAD_MLEADERVER
 70
     0
  0
APPID
  2
ACAD_PSEXT
 70
     0
  0
APPID
  2
ACAECLAYERSTANDARD
 70
     0
  0
APPID
  2
RAK
 70
     0
  0
APPID
  2
ACCMTRANSPARENCY
 70
     0
  0
APPID
  2
ACSYNERGY
 70
     0
  0
APPID
  2
SYNERGY_BODY_TBR_ID
 70
     0
  0
APPID
  2
ACAD_VIEW_EDGE_ID
 70
     0
  0
APPID
  2
ACAD_DIMASSOC_CALC_DIMLFAC
 70
     0
  0
APPID
  2
ACAD_DIMASSOC_DIMLFAC
 70
     0
  0
APPID
  2
ACAD_DIMASSOC_OVERRIDDEN_D
 70
     0
  0
APPID
  2
ACAD_STEPID
 70
     0
  0
APPID
  2
ACAD_OBJECT_CHANGE_GUID
 70
     0
  0
APPID
  2
ACAD_DSTYLE_DIMJAG
 70
     0
  0
APPID
  2
ACAD_DSTYLE_DIMTALN
 70
     0
  0
APPID
  2
ACDBDYNAMICBLOCKGUID
 70
     0
  0
APPID
  2
ACADANNOPO
 70
     0
  0
APPID
  2
AcDbAttr
 70
     0
  0
ENDTAB
  0
TABLE
  2
DIMSTYLE
 70
     2
  0
DIMSTYLE
  2
STANDARD
 70
     0
  3

  4

  5

  6

  7

 40
1.0
 41
0.18
 42
0.0625
 43
0.38
 44
0.18
 45
0.0
 46
0.0
 47
0.0
 48
0.0
140
0.18
141
0.09
142
0.0
143
25.3999999999999986
144
1.0
145
0.0
146
1.0
147
0.09
 71
     0
 72
     0
 73
     1
 74
     1
 75
     0
 76
     0
 77
     0
 78
     0
170
     0
171
     2
172
     0
173
     0
174
     0
175
     0
176
     0
177
     0
178
     0
  0
ENDTAB
  0
ENDSEC
  0
SECTION
  2
BLOCKS
  0
BLOCK
  8
0
  2
$MODEL_SPACE
 70
     0
 10
0.0
 20
0.0
 30
0.0
  3
$MODEL_SPACE
  1

  0
ENDBLK
  5
38
  8
0
  0
BLOCK
 67
     1
  8
0
  2
$PAPER_SPACE
 70
     0
 10
0.0
 20
0.0
 30
0.0
  3
$PAPER_SPACE
  1

  0
ENDBLK
  5
36
 67
     1
  8
0
  0
BLOCK
  8
0
  2
*S0
 70
     1
 10
0.0
 20
0.0
 30
0.0
  3
*S0
  1

  0
ENDBLK
  5
9CF
  8
0
  0
BLOCK
  8
0
  2
*S1
 70
     1
 10
0.0
 20
0.0
 30
0.0
  3
*S1
  1

  0
ENDBLK
  5
9D2
  8
0
  0
BLOCK
  8
0
  2
A$C5B8644DA
 70
     0
 10
0.0
 20
0.0
 30
0.0
  3
A$C5B8644DA
  1

  0
CIRCLE
  5
182A
  8
0
  6
CONTINUOUS
 62
     3
 10
-95.0
 20
0.0
 30
-0.0000000000000204
 40
8.0
  0
CIRCLE
  5
182B
  8
0
  6
CONTINUOUS
 62
     3
 10
-47.5
 20
82.2724133595216358
 30
-0.0000000000000102
 40
8.0
  0
CIRCLE
  5
182C
  8
0
  6
CONTINUOUS
 62
     3
 10
0.0000000000000007
 20
0.0
 30
0.0
 40
65.0
  0
CIRCLE
  5
182D
  8
0
  6
CONTINUOUS
 62
     3
 10
47.5
 20
82.2724133595217069
 30
0.0000000000000102
 40
8.0
  0
CIRCLE
  5
182E
  8
0
  6
CONTINUOUS
 62
     3
 10
95.0
 20
0.0
 30
0.0000000000000204
 40
8.0
  0
CIRCLE
  5
182F
  8
0
  6
CONTINUOUS
 62
     3
 10
47.5
 20
-82.2724133595216358
 30
0.0000000000000102
 40
8.0
  0
CIRCLE
  5
1830
  8
0
  6
CONTINUOUS
 62
     3
 10
-47.5000000000001066
 20
-82.2724133595216358
 30
-0.0000000000000102
 40
8.0
  0
CIRCLE
  5
1831
  8
0
  6
CONTINUOUS
 62
     3
 10
0.0000000000000007
 20
0.0
 30
0.0
 40
135.0
  0
CIRCLE
  5
1832
  8
0
  6
CONTINUOUS
 62
     3
 10
95.0
 20
-205.0000000000001137
 30
0.0000000000000204
 40
8.0
  0
CIRCLE
  5
1833
  8
0
  6
CONTINUOUS
 62
     3
 10
-95.0
 20
-205.0000000000001137
 30
-0.0000000000000204
 40
8.0
  0
LINE
  5
1834
  8
0
  6
CONTINUOUS
 62
     3
 10
-127.5
 20
-175.0
 30
-0.0000000000000275
 11
127.5
 21
-175.0
 31
0.0000000000000278
  0
LINE
  5
1835
  8
0
  6
CONTINUOUS
 62
     3
 10
127.5
 20
-175.0
 30
0.0000000000000275
 11
127.5
 21
-235.0
 31
0.0000000000000275
  0
LINE
  5
1836
  8
0
  6
CONTINUOUS
 62
     3
 10
127.5
 20
-235.0
 30
0.0000000000000275
 11
-127.5
 21
-235.0
 31
-0.0000000000000278
  0
LINE
  5
1837
  8
0
  6
CONTINUOUS
 62
     3
 10
-127.5
 20
-235.0
 30
-0.0000000000000275
 11
-127.5
 21
-175.0
 31
-0.0000000000000275
  0
CIRCLE
  5
1838
  8
0
  6
CONTINUOUS
 62
     3
 10
435.0
 20
-205.0000000000001137
 30
0.0000000000000944
 40
8.0
  0
CIRCLE
  5
1839
  8
0
  6
CONTINUOUS
 62
     3
 10
245.0
 20
-205.0000000000001137
 30
0.0000000000000531
 40
8.0
  0
LINE
  5
183A
  8
0
  6
CONTINUOUS
 62
     3
 10
212.5
 20
-175.0
 30
0.0000000000000462
 11
467.4999999999998863
 21
-175.0
 31
0.0000000000001015
  0
LINE
  5
183B
  8
0
  6
CONTINUOUS
 62
     3
 10
212.5
 20
-235.0
 30
0.0000000000000462
 11
212.5
 21
-175.0
 31
0.0000000000000462
  0
LINE
  5
183C
  8
0
  6
CONTINUOUS
 62
     3
 10
467.4999999999998863
 20
-235.0
 30
0.0000000000001015
 11
212.5
 21
-235.0
 31
0.0000000000000462
  0
LINE
  5
183D
  8
0
  6
CONTINUOUS
 62
     3
 10
467.4999999999998863
 20
-175.0
 30
0.0000000000001015
 11
467.4999999999998863
 21
-235.0
 31
0.0000000000001015
  0
CIRCLE
  5
183E
  8
0
  6
CONTINUOUS
 62
     3
 10
245.0
 20
0.0
 30
0.0000000000000531
 40
8.0
  0
CIRCLE
  5
183F
  8
0
  6
CONTINUOUS
 62
     3
 10
292.5
 20
82.2724133595216358
 30
0.0000000000000635
 40
8.0
  0
CIRCLE
  5
1840
  8
0
  6
CONTINUOUS
 62
     3
 10
340.0
 20
0.0
 30
0.0000000000000737
 40
65.0
  0
CIRCLE
  5
1841
  8
0
  6
CONTINUOUS
 62
     3
 10
387.5
 20
82.2724133595217069
 30
0.0000000000000839
 40
8.0
  0
CIRCLE
  5
1842
  8
0
  6
CONTINUOUS
 62
     3
 10
435.0
 20
0.0
 30
0.0000000000000944
 40
8.0
  0
CIRCLE
  5
1843
  8
0
  6
CONTINUOUS
 62
     3
 10
387.5
 20
-82.2724133595216358
 30
0.0000000000000839
 40
8.0
  0
CIRCLE
  5
1844
  8
0
  6
CONTINUOUS
 62
     3
 10
292.4999999999998863
 20
-82.2724133595216358
 30
0.0000000000000635
 40
8.0
  0
CIRCLE
  5
1845
  8
0
  6
CONTINUOUS
 62
     3
 10
340.0
 20
0.0
 30
0.0000000000000737
 40
135.0
  0
ENDBLK
  5
1847
  8
0
  0
BLOCK
  8
0
  2
A$C37974C0C
 70
     0
 10
0.0
 20
0.0
 30
0.0
  3
A$C37974C0C
  1

  0
LINE
  5
184B
  8
0
  6
CONTINUOUS
 62
     3
 10
127.5
 20
3.0
 30
-0.0000000000000007
 11
135.0
 21
3.0
 31
-0.0000000000000007
210
0.0
220
1.0
230
-0.0000000000000002
  0
LINE
  5
184C
  8
0
  6
CONTINUOUS
 62
     3
 10
-134.9999999999998863
 20
3.0
 30
-0.0000000000000007
 11
-127.5
 21
3.0
 31
-0.0000000000000007
210
0.0
220
1.0
230
-0.0000000000000002
  0
LINE
  5
184D
  8
0
  6
CONTINUOUS
 62
     3
 10
-127.5
 20
0.0
 30
0.0
 11
-135.0
 21
0.0
 31
0.0
210
0.0
220
1.0
230
-0.0000000000000002
  0
LINE
  5
184E
  8
0
  6
CONTINUOUS
 62
     3
 10
134.9999999999998863
 20
0.0
 30
0.0
 11
127.5
 21
0.0
 31
0.0
210
0.0
220
1.0
230
-0.0000000000000002
  0
LINE
  5
184F
  8
0
  6
CONTINUOUS
 62
     3
 10
-135.0
 20
0.0
 30
0.0
 11
-135.0
 21
3.0
 31
-0.0000000000000007
210
0.0
220
1.0
230
-0.0000000000000002
  0
LINE
  5
1850
  8
0
  6
CONTINUOUS
 62
     3
 10
135.0
 20
0.0
 30
0.0
 11
135.0
 21
3.0
 31
-0.0000000000000007
210
0.0
220
1.0
230
-0.0000000000000002
  0
LINE
  5
1851
  8
0
  6
CONTINUOUS
 62
     3
 10
127.5
 20
0.0
 30
0.0
 11
127.5
 21
3.0
 31
-0.0000000000000007
210
0.0
220
1.0
230
-0.0000000000000002
  0
LINE
  5
1852
  8
0
  6
CONTINUOUS
 62
     3
 10
127.5
 20
3.0
 30
-0.0000000000000007
 11
-127.5
 21
3.0
 31
-0.0000000000000007
210
0.0
220
1.0
230
-0.0000000000000002
  0
LINE
  5
1853
  8
0
  6
CONTINUOUS
 62
     3
 10
-127.5
 20
0.0
 30
0.0
 11
-127.5
 21
3.0
 31
-0.0000000000000007
210
0.0
220
1.0
230
-0.0000000000000002
  0
LINE
  5
1854
  8
0
  6
CONTINUOUS
 62
     3
 10
-127.5
 20
0.0
 30
0.0
 11
127.5
 21
0.0
 31
0.0
210
0.0
220
1.0
230
-0.0000000000000002
  0
LINE
  5
1855
  8
0
  6
CONTINUOUS
 62
     3
 10
467.4999999999998863
 20
2.0000000000000071
 30
-0.0000000000000004
 11
212.5
 21
2.0000000000000071
 31
-0.0000000000000004
210
0.0
220
1.0
230
-0.0000000000000002
  0
LINE
  5
1856
  8
0
  6
CONTINUOUS
 62
     3
 10
212.5
 20
0.0
 30
0.0
 11
212.5
 21
2.0000000000000071
 31
-0.0000000000000004
210
0.0
220
1.0
230
-0.0000000000000002
  0
LINE
  5
1857
  8
0
  6
CONTINUOUS
 62
     3
 10
212.5
 20
0.0
 30
0.0
 11
467.4999999999998863
 21
0.0
 31
0.0
210
0.0
220
1.0
230
-0.0000000000000002
  0
LINE
  5
1858
  8
0
  6
CONTINUOUS
 62
     3
 10
467.4999999999998863
 20
0.0
 30
0.0
 11
467.4999999999998863
 21
2.0000000000000071
 31
-0.0000000000000004
210
0.0
220
1.0
230
-0.0000000000000002
  0
LINE
  5
1859
  8
0
  6
CONTINUOUS
 62
     3
 10
467.5
 20
2.0
 30
-0.0000000000000004
 11
475.0
 21
2.0
 31
-0.0000000000000004
210
0.0
220
1.0
230
-0.0000000000000002
  0
LINE
  5
185A
  8
0
  6
CONTINUOUS
 62
     3
 10
205.0
 20
2.0
 30
-0.0000000000000004
 11
212.5
 21
2.0
 31
-0.0000000000000004
210
0.0
220
1.0
230
-0.0000000000000002
  0
LINE
  5
185B
  8
0
  6
CONTINUOUS
 62
     3
 10
212.5
 20
0.0
 30
0.0
 11
205.0
 21
0.0
 31
0.0
210
0.0
220
1.0
230
-0.0000000000000002
  0
LINE
  5
185C
  8
0
  6
CONTINUOUS
 62
     3
 10
475.0
 20
0.0
 30
0.0
 11
467.4999999999998863
 21
0.0
 31
0.0
210
0.0
220
1.0
230
-0.0000000000000002
  0
LINE
  5
185D
  8
0
  6
CONTINUOUS
 62
     3
 10
205.0
 20
0.0
 30
0.0
 11
205.0
 21
2.0
 31
-0.0000000000000004
210
0.0
220
1.0
230
-0.0000000000000002
  0
LINE
  5
185E
  8
0
  6
CONTINUOUS
 62
     3
 10
475.0
 20
0.0
 30
0.0
 11
475.0
 21
2.0
 31
-0.0000000000000004
210
0.0
220
1.0
230
-0.0000000000000002
  0
LINE
  5
185F
  8
0
  6
VERDECKT
 62
     1
 10
-65.0
 20
0.0
 30
0.0
 11
-65.0
 21
3.0
 31
-0.0000000000000007
210
0.0
220
1.0
230
-0.0000000000000002
  0
LINE
  5
1860
  8
0
  6
VERDECKT
 62
     1
 10
65.0
 20
0.0
 30
0.0
 11
65.0
 21
3.0
 31
-0.0000000000000007
210
0.0
220
1.0
230
-0.0000000000000002
  0
LINE
  5
1861
  8
0
  6
VERDECKT
 62
     1
 10
39.5
 20
0.0
 30
0.0
 11
39.5
 21
3.0
 31
-0.0000000000000007
210
0.0
220
1.0
230
-0.0000000000000002
  0
LINE
  5
1862
  8
0
  6
VERDECKT
 62
     1
 10
55.5
 20
0.0
 30
0.0
 11
55.5
 21
3.0
 31
-0.0000000000000007
210
0.0
220
1.0
230
-0.0000000000000002
  0
LINE
  5
1863
  8
0
  6
VERDECKT
 62
     1
 10
-55.5000000000001066
 20
0.0
 30
0.0
 11
-55.5000000000001066
 21
3.0
 31
-0.0000000000000007
210
0.0
220
1.0
230
-0.0000000000000002
  0
LINE
  5
1864
  8
0
  6
VERDECKT
 62
     1
 10
-39.5000000000001208
 20
0.0
 30
0.0
 11
-39.5000000000001208
 21
3.0
 31
-0.0000000000000007
210
0.0
220
1.0
230
-0.0000000000000002
  0
LINE
  5
1865
  8
0
  6
VERDECKT
 62
     1
 10
87.0
 20
0.0
 30
0.0
 11
87.0
 21
3.0
 31
-0.0000000000000007
210
0.0
220
1.0
230
-0.0000000000000002
  0
LINE
  5
1866
  8
0
  6
VERDECKT
 62
     1
 10
103.0
 20
0.0
 30
0.0
 11
103.0
 21
3.0
 31
-0.0000000000000007
210
0.0
220
1.0
230
-0.0000000000000002
  0
LINE
  5
1867
  8
0
  6
VERDECKT
 62
     1
 10
-103.0
 20
0.0
 30
0.0
 11
-103.0
 21
3.0
 31
-0.0000000000000007
210
0.0
220
1.0
230
-0.0000000000000002
  0
LINE
  5
1868
  8
0
  6
VERDECKT
 62
     1
 10
-87.0
 20
0.0
 30
0.0
 11
-87.0
 21
3.0
 31
-0.0000000000000007
210
0.0
220
1.0
230
-0.0000000000000002
  0
LINE
  5
1869
  8
0
  6
VERDECKT
 62
     1
 10
427.0
 20
0.0
 30
0.0
 11
427.0
 21
2.0
 31
-0.0000000000000004
210
0.0
220
1.0
230
-0.0000000000000002
  0
LINE
  5
186A
  8
0
  6
VERDECKT
 62
     1
 10
443.0
 20
0.0
 30
0.0
 11
443.0
 21
2.0
 31
-0.0000000000000004
210
0.0
220
1.0
230
-0.0000000000000002
  0
LINE
  5
186B
  8
0
  6
VERDECKT
 62
     1
 10
237.0
 20
0.0
 30
0.0
 11
237.0
 21
2.0
 31
-0.0000000000000004
210
0.0
220
1.0
230
-0.0000000000000002
  0
LINE
  5
186C
  8
0
  6
VERDECKT
 62
     1
 10
253.0
 20
0.0
 30
0.0
 11
253.0
 21
2.0
 31
-0.0000000000000004
210
0.0
220
1.0
230
-0.0000000000000002
  0
LINE
  5
186D
  8
0
  6
VERDECKT
 62
     1
 10
275.0
 20
0.0
 30
0.0
 11
275.0
 21
2.0
 31
-0.0000000000000004
210
0.0
220
1.0
230
-0.0000000000000002
  0
LINE
  5
186E
  8
0
  6
VERDECKT
 62
     1
 10
405.0
 20
0.0
 30
0.0
 11
405.0
 21
2.0
 31
-0.0000000000000004
210
0.0
220
1.0
230
-0.0000000000000002
  0
LINE
  5
186F
  8
0
  6
VERDECKT
 62
     1
 10
379.5
 20
0.0
 30
0.0
 11
379.5
 21
2.0
 31
-0.0000000000000004
210
0.0
220
1.0
230
-0.0000000000000002
  0
LINE
  5
1870
  8
0
  6
VERDECKT
 62
     1
 10
395.5
 20
0.0
 30
0.0
 11
395.5
 21
2.0
 31
-0.0000000000000004
210
0.0
220
1.0
230
-0.0000000000000002
  0
LINE
  5
1871
  8
0
  6
VERDECKT
 62
     1
 10
284.4999999999998863
 20
0.0
 30
0.0
 11
284.4999999999998863
 21
2.0
 31
-0.0000000000000004
210
0.0
220
1.0
230
-0.0000000000000002
  0
LINE
  5
1872
  8
0
  6
VERDECKT
 62
     1
 10
300.4999999999998863
 20
0.0
 30
0.0
 11
300.4999999999998863
 21
2.0
 31
-0.0000000000000004
210
0.0
220
1.0
230
-0.0000000000000002
  0
ENDBLK
  5
1874
  8
0
  0
ENDSEC
  0
SECTION
  2
ENTITIES
  0
TEXT
  5
A97
  8
VOLL
 10
290.8648482524750989
 20
72.0419978988994671
 30
0.0
 40
1.8
  1

  7
GREEKS
  0
TEXT
  5
A98
  8
VOLL
 10
368.9416029694563122
 20
103.0679456636053004
 30
0.0
 40
3.6000000000000001
  1

  7
GREEKS
  0
TEXT
  5
A99
  8
VOLL
 10
778.9443158151334501
 20
54.4377500019405716
 30
0.0
 40
1.8
  1

  7
GREEKS
  0
TEXT
  5
A9A
  8
VOLL
 10
857.0210705321145497
 20
85.463697766646419
 30
0.0
 40
3.6000000000000001
  1

  7
GREEKS
  0
INSERT
  5
A9B
  8
ADSK_ASSOC_ENTITY_BACKUPS
  2
*S0
 10
212.7880935354939993
 20
41.0160501341936126
 30
0.0
  0
TEXT
  5
A9D
  8
VOLL
 10
1522.1074676963489765
 20
2.31364591304441
 30
0.0
 40
1.8
  1

  7
GREEKS
  0
TEXT
  5
A9E
  8
TEXT
 62
     1
 10
1814.6363240247599151
 20
34.4508984100083424
 30
0.0
 40
7.0
  1

 41
0.8
  7
GREEKS
 72
     1
 11
1814.6363240247599151
 21
34.4508984100083424
 31
0.0
  0
INSERT
  5
AA0
  8
ADSK_ASSOC_ENTITY_BACKUPS
  2
*S1
 10
1444.0307129793679906
 20
-28.7123018516614401
 30
0.0
  0
INSERT
  5
1848
  8
STEMPEL
  2
A$C5B8644DA
 10
0.0
 20
0.0
 30
0.0
  0
INSERT
  5
1875
  8
STEMPEL
  2
A$C37974C0C
 10
0.0
 20
-338.0
 30
0.0000000000000007
  0
VIEWPORT
  5
AB3
 67
     1
  8
0
 10
205.7176855476861022
 20
145.4717821042686126
 30
0.0
 40
558.2476521912682301
 41
298.8162216554080146
 68
     1
 69
     1
1001
ACAD
1000
MVIEW
1002
{
1070
    16
1010
0.0
1020
0.0
1030
0.0
1010
0.0
1020
0.0
1030
1.0
1040
0.0
1040
298.8162216554080146
1040
205.7176855476861022
1040
145.4717821042686126
1040
50.0
1040
0.0
1040
0.0
1070
     0
1070
  1500
1070
     1
1070
     1
1070
     0
1070
     0
1070
     0
1070
     0
1040
0.0
1040
0.0
1040
0.0
1040
10.0
1040
10.0
1040
10.0
1040
10.0
1070
     0
1002
{
1002
}
1002
}
  0
ENDSEC
  0
EOF
