  0
SECTION
  2
HEADER
  9
$ACADVER
  1
AC1009
  9
$INSBASE
 10
0.0
 20
0.0
 30
0.0
  9
$EXTMIN
 10
-43.4826964036273012
 20
-183.8121806156430011
 30
-0.0192246074084324
  9
$EXTMAX
 10
44.0329182422986989
 20
630.0205541972629817
 30
0.0288398447778491
  9
$LIMMIN
 10
0.0
 20
0.0
  9
$LIMMAX
 10
419.9999999999998863
 20
594.0
  9
$ORTHOMODE
 70
     1
  9
$REGENMODE
 70
     1
  9
$FILLMODE
 70
     1
  9
$QTEXTMODE
 70
     0
  9
$MIRRTEXT
 70
     1
  9
$DRAGMODE
 70
     2
  9
$LTSCALE
 40
20.0
  9
$OSMODE
 70
   511
  9
$ATTMODE
 70
     1
  9
$TEXTSIZE
 40
3.5
  9
$TRACEWID
 40
0.5
  9
$TEXTSTYLE
  7
STANDARD
  9
$CLAYER
  8
STEMPEL
  9
$CELTYPE
  6
BYLAYER
  9
$CECOLOR
 62
   256
  9
$DIMSCALE
 40
1.0
  9
$DIMASZ
 40
3.5
  9
$DIMEXO
 40
1.0
  9
$DIMDLI
 40
7.0
  9
$DIMRND
 40
0.0
  9
$DIMDLE
 40
0.0
  9
$DIMEXE
 40
1.0
  9
$DIMTP
 40
0.0
  9
$DIMTM
 40
0.0
  9
$DIMTXT
 40
3.5
  9
$DIMCEN
 40
1.5
  9
$DIMTSZ
 40
0.0
  9
$DIMTOL
 70
     0
  9
$DIMLIM
 70
     0
  9
$DIMTIH
 70
     0
  9
$DIMTOH
 70
     0
  9
$DIMSE1
 70
     0
  9
$DIMSE2
 70
     0
  9
$DIMTAD
 70
     1
  9
$DIMZIN
 70
     8
  9
$DIMBLK
  1

  9
$DIMASO
 70
     1
  9
$DIMSHO
 70
     0
  9
$DIMPOST
  1

  9
$DIMAPOST
  1

  9
$DIMALT
 70
     0
  9
$DIMALTD
 70
     2
  9
$DIMALTF
 40
25.3999999999999986
  9
$DIMLFAC
 40
2.0
  9
$DIMTOFL
 70
     1
  9
$DIMTVP
 40
0.0
  9
$DIMTIX
 70
     0
  9
$DIMSOXD
 70
     0
  9
$DIMSAH
 70
     0
  9
$DIMBLK1
  1

  9
$DIMBLK2
  1

  9
$DIMSTYLE
  2
STANDARD
  9
$DIMCLRD
 70
     0
  9
$DIMCLRE
 70
     0
  9
$DIMCLRT
 70
     1
  9
$DIMTFAC
 40
0.5
  9
$DIMGAP
 40
1.5
  9
$LUNITS
 70
     2
  9
$LUPREC
 70
     2
  9
$SKETCHINC
 40
1.0
  9
$FILLETRAD
 40
0.0
  9
$AUNITS
 70
     0
  9
$AUPREC
 70
     0
  9
$MENU
  1
ACAD
  9
$ELEVATION
 40
0.0
  9
$PELEVATION
 40
0.0
  9
$THICKNESS
 40
0.0
  9
$LIMCHECK
 70
     0
  9
$BLIPMODE
 70
     0
  9
$CHAMFERA
 40
0.0
  9
$CHAMFERB
 40
0.0
  9
$SKPOLY
 70
     0
  9
$TDCREATE
 40
2455397.8646990740671754
  9
$TDUPDATE
 40
2458969.5311458338983357
  9
$TDINDWG
 40
0.1111776505
  9
$TDUSRTIMER
 40
0.1111776505
  9
$USRTIMER
 70
     1
  9
$ANGBASE
 50
0.0
  9
$ANGDIR
 70
     0
  9
$PDMODE
 70
     0
  9
$PDSIZE
 40
0.0
  9
$PLINEWID
 40
0.0
  9
$COORDS
 70
     1
  9
$SPLFRAME
 70
     0
  9
$SPLINETYPE
 70
     6
  9
$SPLINESEGS
 70
     8
  9
$ATTDIA
 70
     1
  9
$ATTREQ
 70
     1
  9
$HANDLING
 70
     1
  9
$HANDSEED
  5
F28
  9
$SURFTAB1
 70
     6
  9
$SURFTAB2
 70
     6
  9
$SURFTYPE
 70
     6
  9
$SURFU
 70
     6
  9
$SURFV
 70
     6
  9
$UCSNAME
  2

  9
$UCSORG
 10
0.0
 20
0.0
 30
0.0
  9
$UCSXDIR
 10
1.0
 20
0.0
 30
0.0
  9
$UCSYDIR
 10
0.0
 20
1.0
 30
0.0
  9
$PUCSNAME
  2

  9
$PUCSORG
 10
0.0
 20
0.0
 30
0.0
  9
$PUCSXDIR
 10
1.0
 20
0.0
 30
0.0
  9
$PUCSYDIR
 10
0.0
 20
1.0
 30
0.0
  9
$USERI1
 70
     0
  9
$USERI2
 70
     0
  9
$USERI3
 70
     0
  9
$USERI4
 70
     0
  9
$USERI5
 70
     0
  9
$USERR1
 40
0.0
  9
$USERR2
 40
0.0
  9
$USERR3
 40
0.0
  9
$USERR4
 40
0.0
  9
$USERR5
 40
0.0
  9
$WORLDVIEW
 70
     1
  9
$SHADEDGE
 70
     3
  9
$SHADEDIF
 70
    70
  9
$TILEMODE
 70
     1
  9
$MAXACTVP
 70
    16
  9
$PLIMCHECK
 70
     0
  9
$PEXTMIN
 10
1.0000000000000000E+20
 20
1.0000000000000000E+20
 30
1.0000000000000000E+20
  9
$PEXTMAX
 10
-1.0000000000000000E+20
 20
-1.0000000000000000E+20
 30
-1.0000000000000000E+20
  9
$PLIMMIN
 10
-5.7377404631948421
 20
-3.178552865713884
  9
$PLIMMAX
 10
204.4705755586911096
 20
294.1221173696329174
  9
$UNITMODE
 70
     0
  9
$VISRETAIN
 70
     0
  9
$PLINEGEN
 70
     0
  9
$PSLTSCALE
 70
     0
  0
ENDSEC
  0
SECTION
  2
TABLES
  0
TABLE
  2
VPORT
 70
     1
  0
VPORT
  2
*ACTIVE
 70
     0
 10
0.0
 20
0.0
 11
1.0
 21
1.0
 12
0.2750689576656669
 22
-70.9522821728130566
 13
0.0
 23
0.0
 14
1.0
 24
1.0
 15
10.0
 25
10.0
 16
-0.0000000000003864
 26
0.0
 36
1740.0897205614990071
 17
0.0000419616699219
 27
294.05646896362299
 37
-0.0000000000000699
 40
817.9814148544329555
 41
1.8664965986394551
 42
50.0
 43
0.0
 44
0.0
 50
0.0
 51
0.0
 71
     0
 72
  1500
 73
     1
 74
     0
 75
     0
 76
     0
 77
     0
 78
     0
  0
ENDTAB
  0
TABLE
  2
LTYPE
 70
     3
  0
LTYPE
  2
CONTINUOUS
 70
     0
  3
Solid line
 72
    65
 73
     0
 40
0.0
  0
LTYPE
  2
VERDECKT
 70
     0
  3
Verdeckt __ __ __ __ __ __ __ __ __ __ __ __ __
 72
    65
 73
     2
 40
0.375
 49
0.25
 49
-0.125
  0
ENDTAB
  0
TABLE
  2
LAYER
 70
     7
  0
LAYER
  2
0
 70
     0
 62
     7
  6
CONTINUOUS
  0
LAYER
  2
VOLL
 70
     0
 62
     1
  6
CONTINUOUS
  0
LAYER
  2
STEMPEL
 70
     0
 62
     3
  6
CONTINUOUS
  0
LAYER
  2
TEXT
 70
     0
 62
     7
  6
CONTINUOUS
  0
LAYER
  2
DEFPOINTS
 70
     0
 62
     7
  6
CONTINUOUS
  0
LAYER
  2
ADSK_ASSOC_ENTITY_BACKUPS
 70
     1
 62
    -7
  6
CONTINUOUS
  0
ENDTAB
  0
TABLE
  2
STYLE
 70
     3
  0
STYLE
  2
STANDARD
 70
     0
 40
0.0
 41
0.8
 50
0.0
 71
     0
 42
3.5
  3
simplex.shx
  4

  0
STYLE
  2
GREEKS
 70
     0
 40
0.0
 41
0.8
 50
0.0
 71
     0
 42
2.5
  3
SIMPLEX.shx
  4

  0
ENDTAB
  0
TABLE
  2
VIEW
 70
     0
  0
ENDTAB
  0
TABLE
  2
UCS
 70
     0
  0
ENDTAB
  0
TABLE
  2
APPID
 70
    18
  0
APPID
  2
ACAD
 70
     0
  0
APPID
  2
ACAD_NAV_VCDISPLAY
 70
     0
  0
APPID
  2
ACAD_PSEXT
 70
     0
  0
APPID
  2
ACAECLAYERSTANDARD
 70
     0
  0
APPID
  2
ACCMTRANSPARENCY
 70
     0
  0
APPID
  2
ACAD_EXEMPT_FROM_CAD_STANDARDS
 70
     0
  0
APPID
  2
ACAD_STEPID
 70
     0
  0
APPID
  2
ACDBDYNAMICBLOCKGUID
 70
     0
  0
APPID
  2
ACAD_DSTYLE_DIMJAG
 70
     0
  0
APPID
  2
ACAD_DSTYLE_DIMBREAK
 70
     0
  0
APPID
  2
ACAD_DSTYLE_DIMTALN
 70
     0
  0
APPID
  2
ACSYNERGY
 70
     0
  0
APPID
  2
SYNERGY_BODY_TBR_ID
 70
     0
  0
APPID
  2
ACAD_VIEW_EDGE_ID
 70
     0
  0
APPID
  2
ACSYNERGYSKETCH
 70
     0
  0
APPID
  2
ACADANNOMONITORALERTICONDI
 70
     0
  0
APPID
  2
ACADANNOPO
 70
     0
  0
APPID
  2
ACAD_MLEADERVER
 70
     0
  0
ENDTAB
  0
TABLE
  2
DIMSTYLE
 70
     1
  0
DIMSTYLE
  2
STANDARD
 70
     0
  3

  4

  5

  6

  7

 40
1.0
 41
0.18
 42
0.0625
 43
0.38
 44
0.18
 45
0.0
 46
0.0
 47
0.0
 48
0.0
140
0.18
141
0.09
142
0.0
143
25.3999999999999986
144
1.0
145
0.0
146
1.0
147
0.09
 71
     0
 72
     0
 73
     1
 74
     1
 75
     0
 76
     0
 77
     0
 78
     0
170
     0
171
     2
172
     0
173
     0
174
     0
175
     0
176
     0
177
     0
178
     0
  0
ENDTAB
  0
ENDSEC
  0
SECTION
  2
BLOCKS
  0
BLOCK
  8
0
  2
$MODEL_SPACE
 70
     0
 10
0.0
 20
0.0
 30
0.0
  3
$MODEL_SPACE
  1

  0
ENDBLK
  5
36
  8
0
  0
BLOCK
 67
     1
  8
0
  2
$PAPER_SPACE
 70
     0
 10
0.0
 20
0.0
 30
0.0
  3
$PAPER_SPACE
  1

  0
ENDBLK
  5
34
 67
     1
  8
0
  0
BLOCK
  8
0
  2
*S0
 70
     1
 10
0.0
 20
0.0
 30
0.0
  3
*S0
  1

  0
ENDBLK
  5
A48
  8
0
  0
BLOCK
  8
0
  2
A$C692CDCCE
 70
     0
 10
0.0
 20
0.0
 30
0.0
  3
A$C692CDCCE
  1

  0
LINE
  5
E82
  8
0
  6
CONTINUOUS
 62
     3
 10
33.8062024318619478
 20
-0.0000000000000568
 30
0.0
 11
-33.8062024318619478
 21
-0.0000000000000568
 31
0.0
210
0.0
220
1.0
230
-0.0000000000000002
  0
LINE
  5
E83
  8
0
  6
CONTINUOUS
 62
     3
 10
39.2594616805545229
 20
630.0000000000001137
 30
-0.0000000000001399
 11
-39.2594616805545229
 21
630.0000000000001137
 31
-0.0000000000001399
210
0.0
220
1.0
230
-0.0000000000000002
  0
LINE
  5
E84
  8
0
  6
CONTINUOUS
 62
     3
 10
-33.8062024318619976
 20
-0.0000000000000617
 30
0.0
 11
-34.5000000000000568
 21
7.9301424913460847
 31
-0.0000000000000018
210
0.0
220
1.0
230
-0.0000000000000002
  0
LINE
  5
E85
  8
0
  6
CONTINUOUS
 62
     3
 10
33.8062024318619976
 20
-0.0000000000000568
 30
0.0
 11
34.5000000000000568
 21
7.9301424913460901
 31
-0.0000000000000018
210
0.0
220
1.0
230
-0.0000000000000002
  0
LINE
  5
E86
  8
0
  6
CONTINUOUS
 62
     3
 10
-34.4999999999999716
 20
7.9301424913460901
 30
-0.0000000000000018
 11
-34.4999999999999716
 21
54.9999999999999005
 31
-0.0000000000000122
210
0.0
220
1.0
230
-0.0000000000000002
  0
LINE
  5
E87
  8
0
  6
CONTINUOUS
 62
     3
 10
34.4999999999999716
 20
7.9301424913460901
 30
-0.0000000000000018
 11
34.4999999999999716
 21
54.9999999999999005
 31
-0.0000000000000122
210
0.0
220
1.0
230
-0.0000000000000002
  0
ARC
  5
E88
  8
0
  6
CONTINUOUS
 62
     3
 10
-94.5000000000009663
 20
54.999999999999531
 30
0.0
 40
60.0000000000010729
210
0.0
220
-0.0000000000000002
230
-1.0
 50
0.0000000000003181
 51
10.4753138432290402
  0
ARC
  5
E89
  8
0
  6
CONTINUOUS
 62
     3
 10
94.4999999999994458
 20
54.9999999999996803
 30
0.0
 40
59.9999999999995666
210
0.0
220
-0.0000000000000002
230
-1.0
 50
169.5246861567707981
 51
179.999999999999801
  0
ARC
  5
E8A
  8
0
  6
CONTINUOUS
 62
     3
 10
-23.5000000000113687
 20
76.817424229272774
 30
0.0
 40
60.0000000000113687
210
0.0
220
-0.0000000000000002
230
-1.0
 50
349.5246861567704855
 51
359.99999999999892
  0
ARC
  5
E8B
  8
0
  6
CONTINUOUS
 62
     3
 10
23.5000000000102105
 20
76.8174242292726746
 30
0.0
 40
60.0000000000102105
210
0.0
220
-0.0000000000000002
230
-1.0
 50
180.0000000000009095
 51
190.4753138432294008
  0
LINE
  5
E8C
  8
0
  6
CONTINUOUS
 62
     3
 10
36.5
 20
570.5069422202890337
 30
-0.0000000000001267
 11
36.5
 21
76.8174242292716514
 31
-0.0000000000000171
210
0.0
220
1.0
230
-0.0000000000000002
  0
LINE
  5
E8D
  8
0
  6
CONTINUOUS
 62
     3
 10
-36.5
 20
570.5069422202890337
 30
-0.0000000000001267
 11
-36.5
 21
76.8174242292716514
 31
-0.0000000000000171
210
0.0
220
1.0
230
-0.0000000000000002
  0
ARC
  5
E8E
  8
0
  6
CONTINUOUS
 62
     3
 10
-44.4999999999829399
 20
570.5069422202951728
 30
0.0
 40
7.9999999999829461
210
0.0
220
-0.0000000000000002
230
-1.0
 50
359.9999999999552074
 51
31.3206695884371484
  0
ARC
  5
E8F
  8
0
  6
CONTINUOUS
 62
     3
 10
44.4999999999829399
 20
570.5069422202951728
 30
0.0
 40
7.9999999999829443
210
0.0
220
-0.0000000000000002
230
-1.0
 50
148.6793304115628018
 51
180.0000000000445937
  0
ARC
  5
E90
  8
0
  6
CONTINUOUS
 62
     3
 10
-27.4999999999918501
 20
580.8515060100321534
 30
0.0
 40
11.9000000000077808
210
0.0
220
-0.0000000000000002
230
-1.0
 50
180.000000000014694
 51
211.3206695884061901
  0
ARC
  5
E91
  8
0
  6
CONTINUOUS
 62
     3
 10
27.4999999999919282
 20
580.8515060100321534
 30
0.0
 40
11.9000000000077204
210
0.0
220
-0.0000000000000002
230
-1.0
 50
328.6793304115935825
 51
359.9999999999852207
  0
LINE
  5
E92
  8
0
  6
CONTINUOUS
 62
     3
 10
-39.3999999999996433
 20
580.8515060100289702
 30
-0.000000000000129
 11
-39.3999999999996433
 21
601.1281710573140344
 31
-0.0000000000001335
210
0.0
220
1.0
230
-0.0000000000000002
  0
LINE
  5
E93
  8
0
  6
CONTINUOUS
 62
     3
 10
39.3999999999996433
 20
580.8515060100289702
 30
-0.000000000000129
 11
39.3999999999996433
 21
601.1281710573140344
 31
-0.0000000000001335
210
0.0
220
1.0
230
-0.0000000000000002
  0
ARC
  5
E94
  8
0
  6
CONTINUOUS
 62
     3
 10
-51.8999999999655586
 20
601.1281710573208557
 30
0.0
 40
12.4999999999659206
210
0.0
220
-0.0000000000000002
230
-1.0
 50
359.9999999999686793
 51
21.1668520398118609
  0
ARC
  5
E95
  8
0
  6
CONTINUOUS
 62
     3
 10
51.8999999999655586
 20
601.1281710573208557
 30
0.0
 40
12.4999999999659099
210
0.0
220
-0.0000000000000002
230
-1.0
 50
158.8331479601880858
 51
180.000000000031207
  0
ARC
  5
E96
  8
0
  6
CONTINUOUS
 62
     3
 10
-16.9941909850616213
 20
614.5737405743481077
 30
0.0
 40
24.9058952308737886
210
0.0
220
-0.0000000000000002
230
-1.0
 50
179.8492419712248989
 51
201.016094010991992
  0
ARC
  5
E97
  8
0
  6
CONTINUOUS
 62
     3
 10
16.9941909850616106
 20
614.5737405743481077
 30
0.0
 40
24.9058952308737993
210
0.0
220
-0.0000000000000002
230
-1.0
 50
338.9839059890078943
 51
0.1507580287749839
  0
LINE
  5
E98
  8
0
  6
CONTINUOUS
 62
     3
 10
-41.8999999999996291
 20
614.6392734874040116
 30
-0.0000000000001365
 11
-41.8999999999996291
 21
618.8171502002817306
 31
-0.0000000000001374
210
0.0
220
1.0
230
-0.0000000000000002
  0
LINE
  5
E99
  8
0
  6
CONTINUOUS
 62
     3
 10
41.8999999999996291
 20
614.6392734874040116
 30
-0.0000000000001365
 11
41.8999999999996291
 21
618.8171502002818443
 31
-0.0000000000001374
210
0.0
220
1.0
230
-0.0000000000000002
  0
ARC
  5
E9A
  8
0
  6
CONTINUOUS
 62
     3
 10
-17.0000000000716511
 20
618.8171502002849138
 30
0.0
 40
24.8999999999280313
210
0.0
220
-0.0000000000000002
230
-1.0
 50
154.9999999999589875
 51
180.0000000000073044
  0
ARC
  5
E9B
  8
0
  6
CONTINUOUS
 62
     3
 10
17.0000000000716582
 20
618.8171502002849138
 30
0.0
 40
24.8999999999279886
210
0.0
220
-0.0000000000000002
230
-1.0
 50
359.999999999992724
 51
25.0000000000410196
  0
LINE
  5
E9C
  8
0
  6
CONTINUOUS
 62
     3
 10
39.2594616805545229
 20
630.0000000000001137
 30
-0.0000000000001399
 11
39.567063897211483
 21
629.3403449176139475
 31
-0.0000000000001397
210
0.0
220
1.0
230
-0.0000000000000002
  0
LINE
  5
E9D
  8
0
  6
CONTINUOUS
 62
     3
 10
-39.2594616805545229
 20
630.0000000000001137
 30
-0.0000000000001399
 11
-39.567063897211483
 21
629.3403449176139475
 31
-0.0000000000001397
210
0.0
220
1.0
230
-0.0000000000000002
  0
LINE
  5
E9E
  8
0
  6
VERDECKT
 62
     1
 10
32.6107687941521434
 20
0.1045868912971173
 30
0.0
 11
-32.6107687941521434
 21
0.1045868912971173
 31
0.0
210
0.0
220
1.0
230
-0.0000000000000002
  0
LINE
  5
E9F
  8
0
  6
VERDECKT
 62
     1
 10
38.1718923361104316
 20
629.4928580859118483
 30
-0.0000000000001398
 11
-38.1718923361104316
 21
629.4928580859118483
 31
-0.0000000000001398
210
0.0
220
1.0
230
-0.0000000000000002
  0
LINE
  5
EA0
  8
0
  6
VERDECKT
 62
     1
 10
-32.6107687941523068
 20
0.1045868912971178
 30
0.0
 11
-33.2999999999999901
 21
7.9825356228363367
 31
-0.0000000000000018
210
0.0
220
1.0
230
-0.0000000000000002
  0
LINE
  5
EA1
  8
0
  6
VERDECKT
 62
     1
 10
32.6107687941523068
 20
0.1045868912971031
 30
0.0
 11
33.2999999999999901
 21
7.9825356228363553
 31
-0.0000000000000018
210
0.0
220
1.0
230
-0.0000000000000002
  0
LINE
  5
EA2
  8
0
  6
VERDECKT
 62
     1
 10
-33.2999999999999829
 20
7.9825356228363393
 30
-0.0000000000000018
 11
-33.2999999999999829
 21
54.9999999999997797
 31
-0.0000000000000122
210
0.0
220
1.0
230
-0.0000000000000002
  0
LINE
  5
EA3
  8
0
  6
VERDECKT
 62
     1
 10
33.2999999999999829
 20
7.9825356228363393
 30
-0.0000000000000018
 11
33.2999999999999829
 21
54.9999999999997797
 31
-0.0000000000000122
210
0.0
220
1.0
230
-0.0000000000000002
  0
ARC
  5
EA4
  8
0
  6
VERDECKT
 62
     1
 10
-94.5000000000796376
 20
54.9999999999918217
 30
0.0
 40
61.2000000000796618
210
0.0
220
-0.0000000000000002
230
-1.0
 50
0.0000000000074679
 51
10.4753138432226507
  0
ARC
  5
EA5
  8
0
  6
VERDECKT
 62
     1
 10
94.5000000000807461
 20
54.9999999999917719
 30
0.0
 40
61.2000000000807702
210
0.0
220
-0.0000000000000002
230
-1.0
 50
169.5246861567775056
 51
179.9999999999924967
  0
ARC
  5
EA6
  8
0
  6
VERDECKT
 62
     1
 10
-23.5000000000998384
 20
76.8174242292798084
 30
0.0
 40
58.8000000000998284
210
0.0
220
-0.0000000000000002
230
-1.0
 50
349.5246861567794099
 51
359.9999999999920988
  0
ARC
  5
EA7
  8
0
  6
VERDECKT
 62
     1
 10
23.5000000000995186
 20
76.8174242292797373
 30
0.0
 40
58.8000000000995016
210
0.0
220
-0.0000000000000002
230
-1.0
 50
180.0000000000077875
 51
190.4753138432203912
  0
LINE
  5
EA8
  8
0
  6
VERDECKT
 62
     1
 10
32.6107687941521434
 20
0.1045868912971235
 30
0.0
 11
33.8062024318619976
 21
-0.0000000000000498
 31
0.0
210
0.0
220
1.0
230
-0.0000000000000002
  0
LINE
  5
EA9
  8
0
  6
VERDECKT
 62
     1
 10
-32.6107687941523068
 20
0.1045868912971087
 30
0.0
 11
-33.8062024318619478
 21
-0.0000000000000449
 31
0.0
210
0.0
220
1.0
230
-0.0000000000000002
  0
LINE
  5
EAA
  8
0
  6
VERDECKT
 62
     1
 10
35.2999999999999616
 20
570.5069422202881242
 30
-0.0000000000001267
 11
35.2999999999999616
 21
76.8174242292716514
 31
-0.0000000000000171
210
0.0
220
1.0
230
-0.0000000000000002
  0
LINE
  5
EAB
  8
0
  6
VERDECKT
 62
     1
 10
-35.2999999999999616
 20
570.5069422202881242
 30
-0.0000000000001267
 11
-35.2999999999999616
 21
76.8174242292716514
 31
-0.0000000000000171
210
0.0
220
1.0
230
-0.0000000000000002
  0
LINE
  5
EAC
  8
0
  6
VERDECKT
 62
     1
 10
-38.1718923361104103
 20
629.4928580859118483
 30
-0.0000000000001398
 11
-39.2594616805545513
 21
630.0000000000001137
 31
-0.0000000000001399
210
0.0
220
1.0
230
-0.0000000000000002
  0
LINE
  5
EAD
  8
0
  6
VERDECKT
 62
     1
 10
38.1718923361102327
 20
629.4928580859118483
 30
-0.0000000000001398
 11
39.2594616805545513
 21
630.0000000000001137
 31
-0.0000000000001399
210
0.0
220
1.0
230
-0.0000000000000002
  0
LINE
  5
EAE
  8
0
  6
VERDECKT
 62
     1
 10
38.1718923361102114
 20
629.4928580859118483
 30
-0.0000000000001398
 11
38.4794945527671217
 21
628.8332030035260232
 31
-0.0000000000001396
210
0.0
220
1.0
230
-0.0000000000000002
  0
LINE
  5
EAF
  8
0
  6
VERDECKT
 62
     1
 10
-38.1718923361102469
 20
629.4928580859118483
 30
-0.0000000000001398
 11
-38.479494552767207
 21
628.8332030035257958
 31
-0.0000000000001396
210
0.0
220
1.0
230
-0.0000000000000002
  0
ARC
  5
EB0
  8
0
  6
VERDECKT
 62
     1
 10
-17.0000000000707416
 20
618.8171502002846864
 30
0.0
 40
23.6999999999288811
210
0.0
220
-0.0000000000000002
230
-1.0
 50
154.9999999999554063
 51
180.0000000000071054
  0
ARC
  5
EB1
  8
0
  6
VERDECKT
 62
     1
 10
17.0000000000700915
 20
618.8171502002845727
 30
0.0
 40
23.6999999999294992
210
0.0
220
-0.0000000000000002
230
-1.0
 50
359.9999999999931219
 51
25.0000000000435598
  0
LINE
  5
EB2
  8
0
  6
VERDECKT
 62
     1
 10
-40.6999999999995907
 20
614.6376752632725129
 30
-0.0000000000001365
 11
-40.6999999999995907
 21
618.8171502002818443
 31
-0.0000000000001374
210
0.0
220
1.0
230
-0.0000000000000002
  0
LINE
  5
EB3
  8
0
  6
VERDECKT
 62
     1
 10
40.6999999999995907
 20
614.6376752632725129
 30
-0.0000000000001365
 11
40.6999999999995907
 21
618.8171502002818443
 31
-0.0000000000001374
210
0.0
220
1.0
230
-0.0000000000000002
  0
ARC
  5
EB4
  8
0
  6
VERDECKT
 62
     1
 10
-16.9941909850676893
 20
614.5737405743470845
 30
0.0
 40
23.7058952308676503
210
0.0
220
-0.0000000000000002
230
-1.0
 50
179.8454733624220125
 51
201.0124127937336027
  0
ARC
  5
EB5
  8
0
  6
VERDECKT
 62
     1
 10
16.9941909850660586
 20
614.5737405743473118
 30
0.0
 40
23.7058952308692703
210
0.0
220
-0.0000000000000002
230
-1.0
 50
338.9875872062676194
 51
0.1545266375774637
  0
ARC
  5
EB6
  8
0
  6
VERDECKT
 62
     1
 10
-51.8999999999714774
 20
601.1281710573173314
 30
0.0
 40
13.6999999999718902
210
0.0
220
-0.0000000000000002
230
-1.0
 50
359.999999999983288
 51
21.1600167708487703
  0
ARC
  5
EB7
  8
0
  6
VERDECKT
 62
     1
 10
51.8999999999715271
 20
601.1281710573173314
 30
0.0
 40
13.69999999997194
210
0.0
220
-0.0000000000000002
230
-1.0
 50
158.8399832291507892
 51
180.0000000000160867
  0
LINE
  5
EB8
  8
0
  6
VERDECKT
 62
     1
 10
-38.1999999999995907
 20
580.8515060100289702
 30
-0.000000000000129
 11
-38.1999999999995907
 21
601.1281710573133523
 31
-0.0000000000001335
210
0.0
220
1.0
230
-0.0000000000000002
  0
LINE
  5
EB9
  8
0
  6
VERDECKT
 62
     1
 10
38.1999999999995907
 20
580.8515060100289702
 30
-0.000000000000129
 11
38.1999999999995907
 21
601.1281710573133523
 31
-0.0000000000001335
210
0.0
220
1.0
230
-0.0000000000000002
  0
ARC
  5
EBA
  8
0
  6
VERDECKT
 62
     1
 10
-27.4999999999951896
 20
580.8515060100311302
 30
0.0
 40
10.7000000000043798
210
0.0
220
-0.0000000000000002
230
-1.0
 50
180.0000000000109139
 51
211.3206695884109081
  0
ARC
  5
EBB
  8
0
  6
VERDECKT
 62
     1
 10
27.4999999999952003
 20
580.8515060100311302
 30
0.0
 40
10.7000000000043993
210
0.0
220
-0.0000000000000002
230
-1.0
 50
328.6793304115889782
 51
359.9999999999889724
  0
ARC
  5
EBC
  8
0
  6
VERDECKT
 62
     1
 10
-44.499999999982748
 20
570.5069422202954001
 30
0.0
 40
9.1999999999828006
210
0.0
220
-0.0000000000000002
230
-1.0
 50
359.9999999999553779
 51
31.3206695884328887
  0
ARC
  5
EBD
  8
0
  6
VERDECKT
 62
     1
 10
44.4999999999826699
 20
570.5069422202954001
 30
0.0
 40
9.1999999999826922
210
0.0
220
-0.0000000000000002
230
-1.0
 50
148.6793304115668093
 51
180.0000000000445084
  0
ENDBLK
  5
EBF
  8
0
  0
BLOCK
  8
0
  2
A$C5845B5BA
 70
     0
 10
0.0
 20
0.0
 30
0.0
  3
A$C5845B5BA
  1

  0
CIRCLE
  5
EC3
  8
0
  6
CONTINUOUS
 62
     3
 10
0.0
 20
0.0
 30
0.0
 40
32.6107687941523068
  0
CIRCLE
  5
EC4
  8
0
  6
CONTINUOUS
 62
     3
 10
0.0000000000000122
 20
0.0
 30
0.0
 40
33.2999999999999829
  0
CIRCLE
  5
EC5
  8
0
  6
CONTINUOUS
 62
     3
 10
0.0000000000001267
 20
0.0000000000000079
 30
0.0
 40
35.2999999999999616
  0
CIRCLE
  5
EC6
  8
0
  6
CONTINUOUS
 62
     3
 10
0.0000000000001399
 20
0.0000000000000116
 30
0.0
 40
39.2594616805545229
  0
CIRCLE
  5
EC7
  8
0
  6
CONTINUOUS
 62
     3
 10
0.0000000000001398
 20
0.0000000000000116
 30
0.0
 40
38.1718923361102114
  0
CIRCLE
  5
EC8
  8
0
  6
CONTINUOUS
 62
     3
 10
0.0000000000001374
 20
0.0000000000000109
 30
0.0
 40
41.8999999999996291
  0
CIRCLE
  5
EC9
  8
0
  6
CONTINUOUS
 62
     3
 10
0.0000000000001365
 20
0.0000000000000106
 30
0.0
 40
41.9000862159354028
  0
CIRCLE
  5
ECA
  8
0
  6
VERDECKT
 62
     1
 10
0.0
 20
0.0000000000000014
 30
0.0
 40
33.8062024318619976
  0
CIRCLE
  5
ECB
  8
0
  6
VERDECKT
 62
     1
 10
0.0000000000000122
 20
0.0000000000000048
 30
0.0
 40
34.4999999999998934
  0
CIRCLE
  5
ECC
  8
0
  6
VERDECKT
 62
     1
 10
0.0000000000001267
 20
0.0000000000000079
 30
0.0
 40
36.5
  0
CIRCLE
  5
ECD
  8
0
  6
VERDECKT
 62
     1
 10
0.0000000000001374
 20
0.0000000000000109
 30
0.0
 40
40.6999999999995907
  0
CIRCLE
  5
ECE
  8
0
  6
VERDECKT
 62
     1
 10
0.0000000000001335
 20
0.0000000000000098
 30
0.0
 40
38.1999999999995907
  0
CIRCLE
  5
ECF
  8
0
  6
VERDECKT
 62
     1
 10
0.0000000000001335
 20
0.0000000000000098
 30
0.0
 40
39.3999999999996433
  0
CIRCLE
  5
ED0
  8
0
  6
VERDECKT
 62
     1
 10
0.0000000000001365
 20
0.0000000000000106
 30
0.0
 40
40.7000862159353431
  0
ENDBLK
  5
ED2
  8
0
  0
ENDSEC
  0
SECTION
  2
ENTITIES
  0
TEXT
  5
8F
  8
VOLL
 10
78.076754716981128
 20
31.025947764705851
 30
0.0
 40
1.8
  1

  7
GREEKS
  0
TEXT
  5
96
  8
TEXT
 10
225.1296391125314926
 20
71.5033441758528738
 30
0.0
 40
5.0
  1

 41
0.8
  7
GREEKS
  0
INSERT
  5
A4A
  8
ADSK_ASSOC_ENTITY_BACKUPS
  2
*S0
 10
0.0
 20
0.0
 30
0.0
  0
INSERT
  5
EC0
  8
STEMPEL
  2
A$C692CDCCE
 10
0.0
 20
0.0
 30
0.0
  0
INSERT
  5
ED3
  8
STEMPEL
  2
A$C5845B5BA
 10
0.0
 20
-141.9000862159354028
 30
0.0
  0
VIEWPORT
  5
6F2
 67
     1
  8
0
 10
99.3664175477481848
 20
145.4717822519594961
 30
0.0
 40
557.7394613381127328
 41
298.8162216554080146
 68
     1
 69
     1
1001
ACAD
1000
MVIEW
1002
{
1070
    16
1010
0.0
1020
0.0
1030
0.0
1010
0.0
1020
0.0
1030
1.0
1040
0.0
1040
298.8162216554080146
1040
99.3664175477481848
1040
145.4717822519594961
1040
50.0
1040
0.0
1040
0.0
1070
     0
1070
  1500
1070
     1
1070
     1
1070
     0
1070
     0
1070
     0
1070
     0
1040
0.0
1040
0.0
1040
0.0
1040
10.0
1040
10.0
1040
10.0
1040
10.0
1070
     0
1002
{
1002
}
1002
}
  0
ENDSEC
  0
EOF
