  0
SECTION
  2
HEADER
  9
$ACADVER
  1
AC1009
  9
$INSBASE
 10
0.0
 20
0.0
 30
0.0
  9
$EXTMIN
 10
-122.5
 20
-372.5
 30
-0.0000000000000155
  9
$EXTMAX
 10
622.5000000000001137
 20
70.0000000000000142
 30
0.0000000000000711
  9
$LIMMIN
 10
0.0
 20
0.0
  9
$LIMMAX
 10
419.9999999999998863
 20
594.0
  9
$ORTHOMODE
 70
     1
  9
$REGENMODE
 70
     1
  9
$FILLMODE
 70
     1
  9
$QTEXTMODE
 70
     0
  9
$MIRRTEXT
 70
     1
  9
$DRAGMODE
 70
     2
  9
$LTSCALE
 40
10.0
  9
$OSMODE
 70
   511
  9
$ATTMODE
 70
     1
  9
$TEXTSIZE
 40
3.5
  9
$TRACEWID
 40
1.0
  9
$TEXTSTYLE
  7
STANDARD
  9
$CLAYER
  8
STEMPEL
  9
$CELTYPE
  6
BYLAYER
  9
$CECOLOR
 62
   256
  9
$DIMSCALE
 40
1.0
  9
$DIMASZ
 40
3.5
  9
$DIMEXO
 40
1.0
  9
$DIMDLI
 40
0.38
  9
$DIMRND
 40
0.0
  9
$DIMDLE
 40
0.0
  9
$DIMEXE
 40
1.0
  9
$DIMTP
 40
0.0
  9
$DIMTM
 40
0.000000001
  9
$DIMTXT
 40
3.5
  9
$DIMCEN
 40
0.09
  9
$DIMTSZ
 40
0.0
  9
$DIMTOL
 70
     0
  9
$DIMLIM
 70
     0
  9
$DIMTIH
 70
     0
  9
$DIMTOH
 70
     0
  9
$DIMSE1
 70
     0
  9
$DIMSE2
 70
     0
  9
$DIMTAD
 70
     1
  9
$DIMZIN
 70
     8
  9
$DIMBLK
  1

  9
$DIMASO
 70
     1
  9
$DIMSHO
 70
     0
  9
$DIMPOST
  1

  9
$DIMAPOST
  1

  9
$DIMALT
 70
     0
  9
$DIMALTD
 70
     2
  9
$DIMALTF
 40
25.3999999999999986
  9
$DIMLFAC
 40
2.0
  9
$DIMTOFL
 70
     1
  9
$DIMTVP
 40
0.0
  9
$DIMTIX
 70
     0
  9
$DIMSOXD
 70
     0
  9
$DIMSAH
 70
     0
  9
$DIMBLK1
  1

  9
$DIMBLK2
  1

  9
$DIMSTYLE
  2
LORO
  9
$DIMCLRD
 70
     0
  9
$DIMCLRE
 70
     0
  9
$DIMCLRT
 70
     1
  9
$DIMTFAC
 40
0.5
  9
$DIMGAP
 40
1.5
  9
$LUNITS
 70
     2
  9
$LUPREC
 70
     2
  9
$SKETCHINC
 40
1.0
  9
$FILLETRAD
 40
2.0
  9
$AUNITS
 70
     0
  9
$AUPREC
 70
     2
  9
$MENU
  1
ACAD
  9
$ELEVATION
 40
0.0
  9
$PELEVATION
 40
0.0
  9
$THICKNESS
 40
0.0
  9
$LIMCHECK
 70
     0
  9
$BLIPMODE
 70
     0
  9
$CHAMFERA
 40
0.0
  9
$CHAMFERB
 40
0.0
  9
$SKPOLY
 70
     0
  9
$TDCREATE
 40
2455397.867048610933125
  9
$TDUPDATE
 40
2460592.3557754629291594
  9
$TDINDWG
 40
0.8905841782
  9
$TDUSRTIMER
 40
0.8905841782
  9
$USRTIMER
 70
     1
  9
$ANGBASE
 50
0.0
  9
$ANGDIR
 70
     0
  9
$PDMODE
 70
     0
  9
$PDSIZE
 40
0.0
  9
$PLINEWID
 40
0.0
  9
$COORDS
 70
     1
  9
$SPLFRAME
 70
     0
  9
$SPLINETYPE
 70
     6
  9
$SPLINESEGS
 70
     8
  9
$ATTDIA
 70
     1
  9
$ATTREQ
 70
     1
  9
$HANDLING
 70
     1
  9
$HANDSEED
  5
5047
  9
$SURFTAB1
 70
     6
  9
$SURFTAB2
 70
     6
  9
$SURFTYPE
 70
     6
  9
$SURFU
 70
     6
  9
$SURFV
 70
     6
  9
$UCSNAME
  2

  9
$UCSORG
 10
0.0
 20
0.0
 30
0.0
  9
$UCSXDIR
 10
1.0
 20
0.0
 30
0.0
  9
$UCSYDIR
 10
0.0
 20
1.0
 30
0.0
  9
$PUCSNAME
  2

  9
$PUCSORG
 10
0.0
 20
0.0
 30
0.0
  9
$PUCSXDIR
 10
1.0
 20
0.0
 30
0.0
  9
$PUCSYDIR
 10
0.0
 20
1.0
 30
0.0
  9
$USERI1
 70
     0
  9
$USERI2
 70
     0
  9
$USERI3
 70
     0
  9
$USERI4
 70
     0
  9
$USERI5
 70
     0
  9
$USERR1
 40
0.0
  9
$USERR2
 40
0.0
  9
$USERR3
 40
0.0
  9
$USERR4
 40
0.0
  9
$USERR5
 40
0.0
  9
$WORLDVIEW
 70
     1
  9
$SHADEDGE
 70
     3
  9
$SHADEDIF
 70
    70
  9
$TILEMODE
 70
     1
  9
$MAXACTVP
 70
    16
  9
$PLIMCHECK
 70
     0
  9
$PEXTMIN
 10
1.0000000000000000E+20
 20
1.0000000000000000E+20
 30
1.0000000000000000E+20
  9
$PEXTMAX
 10
-1.0000000000000000E+20
 20
-1.0000000000000000E+20
 30
-1.0000000000000000E+20
  9
$PLIMMIN
 10
-0.2465142354423051
 20
-0.257694352829958
  9
$PLIMMAX
 10
593.7534857645576949
 20
419.7423056471699851
  9
$UNITMODE
 70
     0
  9
$VISRETAIN
 70
     0
  9
$PLINEGEN
 70
     0
  9
$PSLTSCALE
 70
     0
  0
ENDSEC
  0
SECTION
  2
TABLES
  0
TABLE
  2
VPORT
 70
     1
  0
VPORT
  2
*ACTIVE
 70
     0
 10
0.0
 20
0.0
 11
1.0
 21
1.0
 12
161.2500000000001137
 22
-151.25
 13
0.0
 23
0.0
 14
1.0
 24
1.0
 15
10.0
 25
10.0
 16
0.0000000000002984
 26
0.0
 36
1355.405033924484087
 17
88.75
 27
0.0
 37
0.0000000000000278
 40
444.7809278350516138
 41
1.8847807394668961
 42
50.0
 43
0.0
 44
0.0
 50
0.0
 51
0.0
 71
     0
 72
  1500
 73
     1
 74
     0
 75
     0
 76
     0
 77
     0
 78
     0
  0
ENDTAB
  0
TABLE
  2
LTYPE
 70
     6
  0
LTYPE
  2
CONTINUOUS
 70
     0
  3
Solid line
 72
    65
 73
     0
 40
0.0
  0
LTYPE
  2
STRICHPUNKT
 70
     0
  3
__ . __ . __ . __ . __ . __ . __ . __ . __ . __
 72
    65
 73
     4
 40
1.0
 49
0.5
 49
-0.25
 49
0.0
 49
-0.25
  0
LTYPE
  2
VERDECKT
 70
     0
  3
Verdeckt __ __ __ __ __ __ __ __ __ __ __ __ __
 72
    65
 73
     2
 40
0.375
 49
0.25
 49
-0.125
  0
ENDTAB
  0
TABLE
  2
LAYER
 70
    18
  0
LAYER
  2
0
 70
     0
 62
     7
  6
CONTINUOUS
  0
LAYER
  2
VOLL
 70
     0
 62
     1
  6
CONTINUOUS
  0
LAYER
  2
STEMPEL
 70
     0
 62
     3
  6
CONTINUOUS
  0
LAYER
  2
ADSK_ASSOC_ENTITY_BACKUPS
 70
     1
 62
    -7
  6
CONTINUOUS
  0
ENDTAB
  0
TABLE
  2
STYLE
 70
     4
  0
STYLE
  2
STANDARD
 70
     0
 40
0.0
 41
0.8
 50
0.0
 71
     0
 42
3.5
  3
simplex.shx
  4

  0
STYLE
  2
GREEKS
 70
     0
 40
0.0
 41
0.8
 50
0.0
 71
     0
 42
2.5
  3
SIMPLEX.shx
  4

  0
ENDTAB
  0
TABLE
  2
VIEW
 70
     2
  0
ENDTAB
  0
TABLE
  2
UCS
 70
     0
  0
ENDTAB
  0
TABLE
  2
APPID
 70
    28
  0
APPID
  2
ACAD
 70
     0
  0
APPID
  2
ACAECLAYERSTANDARD
 70
     0
  0
APPID
  2
ACCMTRANSPARENCY
 70
     0
  0
APPID
  2
ACAD_NAV_VCDISPLAY
 70
     0
  0
APPID
  2
ACAD_PSEXT
 70
     0
  0
APPID
  2
ACAD_EXEMPT_FROM_CAD_STANDARDS
 70
     0
  0
APPID
  2
ACSYNERGY
 70
     0
  0
APPID
  2
SYNERGY_BODY_TBR_ID
 70
     0
  0
APPID
  2
ACAD_VIEW_EDGE_ID
 70
     0
  0
APPID
  2
ACSYNERGYSKETCH
 70
     0
  0
APPID
  2
ACAD_MODELDOC_XFORM
 70
     0
  0
APPID
  2
ACAD_MLEADERVER
 70
     0
  0
APPID
  2
ACADANNOMONITORALERTICONDI
 70
     0
  0
APPID
  2
ACAD_DSTYLE_DIMJAG
 70
     0
  0
APPID
  2
ACAD_DSTYLE_DIMTALN
 70
     0
  0
APPID
  2
ACAD_DSTYLE_DIMBREAK
 70
     0
  0
APPID
  2
ACAD_STEPID
 70
     0
  0
APPID
  2
ACAD_TC
 70
     0
  0
APPID
  2
ACDBDYNAMICBLOCKGUID
 70
     0
  0
APPID
  2
ACADANNOPO
 70
     0
  0
APPID
  2
PLOTTRANSPARENCY
 70
     0
  0
APPID
  2
ACADANNOAV
 70
     0
  0
APPID
  2
ACAD_DIMASSOC_CALC_DIMLFAC
 70
     0
  0
APPID
  2
ACAD_DIMASSOC_DIMLFAC
 70
     0
  0
APPID
  2
ACAD_DIMASSOC_OVERRIDDEN_D
 70
     0
  0
APPID
  2
ACAD_DSTYLE_DIMRADIAL_EXTENSION
 70
     0
  0
APPID
  2
ACADANNOTATIVE
 70
     0
  0
APPID
  2
AcDbAttr
 70
     0
  0
ENDTAB
  0
TABLE
  2
DIMSTYLE
 70
     2
  0
DIMSTYLE
  2
LORO
 70
     0
  3

  4

  5

  6

  7

 40
1.0
 41
3.5
 42
1.0
 43
0.38
 44
1.0
 45
0.0
 46
0.0
 47
0.0
 48
0.000000001
140
3.5
141
0.09
142
0.0
143
25.3999999999999986
144
2.0
145
0.0
146
0.5
147
1.5
 71
     0
 72
     0
 73
     0
 74
     0
 75
     0
 76
     0
 77
     1
 78
     8
170
     0
171
     2
172
     1
173
     0
174
     0
175
     0
176
     0
177
     0
178
     1
  0
ENDTAB
  0
ENDSEC
  0
SECTION
  2
BLOCKS
  0
BLOCK
  8
0
  2
$MODEL_SPACE
 70
     0
 10
0.0
 20
0.0
 30
0.0
  3
$MODEL_SPACE
  1

  0
ENDBLK
  5
38
  8
0
  0
BLOCK
 67
     1
  8
0
  2
$PAPER_SPACE
 70
     0
 10
0.0
 20
0.0
 30
0.0
  3
$PAPER_SPACE
  1

  0
ENDBLK
  5
36
 67
     1
  8
0
  0
BLOCK
  8
0
  2
*S0
 70
     1
 10
0.0
 20
0.0
 30
0.0
  3
*S0
  1

  0
ENDBLK
  5
ACE
  8
0
  0
BLOCK
  8
0
  2
A$C5E4D5AFF
 70
     0
 10
0.0
 20
0.0
 30
0.0
  3
A$C5E4D5AFF
  1

  0
CIRCLE
  5
4EB9
  8
0
  6
CONTINUOUS
 62
     3
 10
0.0000000000000158
 20
0.0
 30
0.0
 40
50.2000000000000313
  0
CIRCLE
  5
4EBA
  8
0
  6
CONTINUOUS
 62
     3
 10
0.0000000000000158
 20
0.0
 30
0.0
 40
49.0000000000000213
  0
CIRCLE
  5
4EBB
  8
0
  6
CONTINUOUS
 62
     3
 10
0.0000000000000121
 20
0.0
 30
0.0
 40
39.5000000000000071
  0
LINE
  5
4EBC
  8
0
  6
CONTINUOUS
 62
     3
 10
300.0
 20
-102.5
 30
0.0000000000000711
 11
300.0
 21
102.5
 31
0.0000000000000711
  0
ARC
  5
4EBD
  8
0
  6
CONTINUOUS
 62
     3
 10
280.0
 20
102.5
 30
0.0000000000000568
 40
20.0
 50
0.0
 51
89.9999999999999858
  0
LINE
  5
4EBE
  8
0
  6
CONTINUOUS
 62
     3
 10
280.0
 20
122.5
 30
0.0000000000000568
 11
-0.0000000000000568
 21
122.5
 31
-0.0000000000000065
  0
CIRCLE
  5
4EBF
  8
0
  6
CONTINUOUS
 62
     3
 10
280.0
 20
102.5
 30
0.0000000000000568
 40
3.9999999999999898
  0
CIRCLE
  5
4EC0
  8
0
  6
CONTINUOUS
 62
     3
 10
280.0
 20
-102.5
 30
0.0000000000000568
 40
4.0000000000000071
  0
LINE
  5
4EC1
  8
0
  6
CONTINUOUS
 62
     3
 10
-0.0000000000000071
 20
-122.5
 30
0.0
 11
280.0
 21
-122.5
 31
0.0000000000000634
  0
ARC
  5
4EC2
  8
0
  6
CONTINUOUS
 62
     3
 10
280.0
 20
-102.5
 30
0.0000000000000568
 40
20.0
 50
270.0
 51
0.0
  0
ARC
  5
4EC3
  8
0
  6
CONTINUOUS
 62
     3
 10
0.0000000000000154
 20
-0.0000000000000071
 30
0.0
 40
122.5
 50
90.0
 51
270.0
  0
CIRCLE
  5
4EC4
  8
0
  6
CONTINUOUS
 62
     3
 10
0.0000000000000122
 20
0.0
 30
0.0
 40
35.3000000000000114
  0
CIRCLE
  5
4EC5
  8
0
  6
CONTINUOUS
 62
     3
 10
0.0000000000000001
 20
0.0
 30
0.0
 40
34.3092665479436008
  0
CIRCLE
  5
4EC6
  8
0
  6
CONTINUOUS
 62
     3
 10
-0.0000000000000449
 20
-0.0016575748095115
 30
0.0
 40
32.0
  0
CIRCLE
  5
4EC7
  8
0
  6
VERDECKT
 62
     1
 10
0.000000000000012
 20
0.0
 30
0.0
 40
40.4663561740293289
  0
CIRCLE
  5
4EC8
  8
0
  6
VERDECKT
 62
     1
 10
0.0000000000000135
 20
0.0
 30
0.0
 40
50.887304130497057
  0
CIRCLE
  5
4EC9
  8
0
  6
VERDECKT
 62
     1
 10
0.0000000000000136
 20
0.0
 30
0.0
 40
50.0
  0
CIRCLE
  5
4ECA
  8
0
  6
VERDECKT
 62
     1
 10
0.0
 20
0.0
 30
0.0
 40
35.5
  0
CIRCLE
  5
4ECB
  8
0
  6
VERDECKT
 62
     1
 10
0.0000000000000122
 20
0.0
 30
0.0
 40
36.5
  0
CIRCLE
  5
4ECC
  8
0
  6
VERDECKT
 62
     1
 10
0.0000000000000147
 20
0.0
 30
0.0
 40
40.7499999999999929
  0
CIRCLE
  5
4ECD
  8
0
  6
VERDECKT
 62
     1
 10
0.000000000000015
 20
0.0
 30
0.0
 40
39.9347703342132974
  0
CIRCLE
  5
4ECE
  8
0
  6
VERDECKT
 62
     1
 10
-0.0000000000000415
 20
-0.0016575748095106
 30
0.0
 40
37.0
  0
CIRCLE
  5
4ECF
  8
0
  6
VERDECKT
 62
     1
 10
-0.0000000000000413
 20
-0.0016575748095105
 30
0.0
 40
42.3000000000000114
  0
CIRCLE
  5
4ED0
  8
0
  6
VERDECKT
 62
     1
 10
-0.0000000000000426
 20
-0.0016575748095108
 30
0.0
 40
40.4999999999999929
  0
CIRCLE
  5
4ED1
  8
0
  6
VERDECKT
 62
     1
 10
-0.0000000000000431
 20
-0.001657574809511
 30
0.0
 40
41.900000000000027
  0
CIRCLE
  5
4ED2
  8
0
  6
VERDECKT
 62
     1
 10
-0.0000000000000447
 20
-0.0016575748095114
 30
0.0
 40
42.8000000000000114
  0
CIRCLE
  5
4ED3
  8
0
  6
VERDECKT
 62
     1
 10
-0.0000000000000447
 20
-0.0016575748095114
 30
0.0
 40
41.0
  0
CIRCLE
  5
4ED4
  8
0
  6
VERDECKT
 62
     1
 10
-0.0000000000000414
 20
-0.0016575748095105
 30
0.0
 40
38.7140740033711026
  0
ENDBLK
  5
4ED6
  8
0
  0
BLOCK
  8
0
  2
A$CF4D0EF28
 70
     0
 10
0.0
 20
0.0
 30
0.0
  3
A$CF4D0EF28
  1

  0
LINE
  5
4EDA
  8
0
  6
CONTINUOUS
 62
     3
 10
50.2000000000000171
 20
69.9999999999999858
 30
-0.0000000000000155
 11
-50.2000000000000171
 21
69.9999999999999858
 31
-0.0000000000000155
210
0.0
220
1.0
230
-0.0000000000000002
  0
LINE
  5
4EDB
  8
0
  6
CONTINUOUS
 62
     3
 10
40.4663561740293432
 20
36.5000000000000213
 30
-0.0000000000000081
 11
-40.4663561740293289
 21
36.4999999999999929
 31
-0.0000000000000081
210
0.0
220
1.0
230
-0.0000000000000002
  0
ARC
  5
4EDC
  8
0
  6
CONTINUOUS
 62
     3
 10
-40.2000000000002728
 20
61.9999999999998792
 30
0.0
 40
9.9999999999997371
210
0.0
220
-0.0000000000000002
230
-1.0
 50
194.4775121859296974
 51
209.1143386591438968
  0
ARC
  5
4EDD
  8
0
  6
CONTINUOUS
 62
     3
 10
40.1999999999997613
 20
62.0000000000000924
 30
0.0
 40
10.0000000000003002
210
0.0
220
-0.0000000000000002
230
-1.0
 50
330.8856613408563021
 51
345.5224878140697911
  0
LINE
  5
4EDE
  8
0
  6
CONTINUOUS
 62
     3
 10
-50.2000000000000313
 20
67.9999999999999574
 30
-0.0000000000000151
 11
-50.2000000000000313
 21
69.9999999999999858
 31
-0.0000000000000155
210
0.0
220
1.0
230
-0.0000000000000002
  0
LINE
  5
4EDF
  8
0
  6
CONTINUOUS
 62
     3
 10
50.2000000000000313
 20
67.9999999999999574
 30
-0.0000000000000151
 11
50.2000000000000313
 21
70.0
 31
-0.0000000000000155
210
0.0
220
1.0
230
-0.0000000000000002
  0
ARC
  5
4EE0
  8
0
  6
CONTINUOUS
 62
     3
 10
-16.3074518232964714
 20
54.2861558683187013
 30
0.0
 40
29.9999999999997691
210
0.0
220
-0.0000000000000002
230
-1.0
 50
191.2917700051418137
 51
216.3610702188769039
  0
ARC
  5
4EE1
  8
0
  6
CONTINUOUS
 62
     3
 10
16.3074518232960983
 20
54.2861558683188505
 30
0.0
 40
30.0000000000001599
210
0.0
220
-0.0000000000000002
230
-1.0
 50
323.6389297811231813
 51
348.7082299948580157
  0
ARC
  5
4EE2
  8
0
  6
CONTINUOUS
 62
     3
 10
-75.1460194773271297
 20
42.5378386942690128
 30
0.0
 40
30.0000000000002203
210
0.0
220
-0.0000000000000002
230
-1.0
 50
11.29177000514259
 51
29.1143386591438791
  0
ARC
  5
4EE3
  8
0
  6
CONTINUOUS
 62
     3
 10
75.1460194773268881
 20
42.537838694269098
 30
0.0
 40
29.9999999999999609
210
0.0
220
-0.0000000000000002
230
-1.0
 50
150.8856613408561032
 51
168.7082299948575042
  0
LINE
  5
4EE4
  8
0
  6
CONTINUOUS
 62
     3
 10
50.887304130497057
 20
59.4999999999999716
 30
-0.0000000000000132
 11
-50.887304130497057
 21
59.4999999999999716
 31
-0.0000000000000132
210
0.0
220
1.0
230
-0.0000000000000002
  0
LINE
  5
4EE5
  8
0
  6
CONTINUOUS
 62
     3
 10
300.0
 20
67.9999999999999716
 30
-0.0000000000000151
 11
300.0
 21
66.9999999999999432
 31
-0.0000000000000149
210
0.0
220
1.0
230
-0.0000000000000002
  0
LINE
  5
4EE6
  8
0
  6
CONTINUOUS
 62
     3
 10
-0.0000000000000225
 20
66.9999999999999432
 30
-0.0000000000000149
 11
280.0
 21
66.9999999999999432
 31
-0.0000000000000149
210
0.0
220
1.0
230
-0.0000000000000002
  0
LINE
  5
4EE7
  8
0
  6
CONTINUOUS
 62
     3
 10
-0.0000000000000225
 20
67.9999999999999716
 30
-0.0000000000000151
 11
280.0
 21
67.9999999999999716
 31
-0.0000000000000151
210
0.0
220
1.0
230
-0.0000000000000002
  0
LINE
  5
4EE8
  8
0
  6
CONTINUOUS
 62
     3
 10
300.0
 20
66.9999999999999432
 30
-0.0000000000000149
 11
280.0
 21
66.9999999999999432
 31
-0.0000000000000149
210
0.0
220
1.0
230
-0.0000000000000002
  0
LINE
  5
4EE9
  8
0
  6
CONTINUOUS
 62
     3
 10
300.0
 20
67.9999999999999716
 30
-0.0000000000000151
 11
280.0
 21
67.9999999999999716
 31
-0.0000000000000151
210
0.0
220
1.0
230
-0.0000000000000002
  0
LINE
  5
4EEA
  8
0
  6
CONTINUOUS
 62
     3
 10
-0.0000000000000454
 20
66.9999999999999432
 30
-0.0000000000000149
 11
-122.5
 21
66.9999999999999432
 31
-0.0000000000000149
210
0.0
220
1.0
230
-0.0000000000000002
  0
LINE
  5
4EEB
  8
0
  6
CONTINUOUS
 62
     3
 10
-0.0000000000000454
 20
67.9999999999999574
 30
-0.0000000000000151
 11
-122.5
 21
67.9999999999999574
 31
-0.0000000000000151
210
0.0
220
1.0
230
-0.0000000000000002
  0
LINE
  5
4EEC
  8
0
  6
CONTINUOUS
 62
     3
 10
-50.887304130497057
 20
59.4999999999999716
 30
-0.0000000000000132
 11
-54.2253917390058504
 21
65.9223695138128107
 31
-0.0000000000000146
210
0.0
220
1.0
230
-0.0000000000000002
  0
LINE
  5
4EED
  8
0
  6
CONTINUOUS
 62
     3
 10
50.887304130497057
 20
59.4999999999999716
 30
-0.0000000000000132
 11
54.2253917390058504
 21
65.9223695138128107
 31
-0.0000000000000146
210
0.0
220
1.0
230
-0.0000000000000002
  0
ARC
  5
4EEE
  8
0
  6
CONTINUOUS
 62
     3
 10
-55.9999999999999929
 20
64.9999999999999858
 30
0.0
 40
1.999999999999952
210
0.0
220
-0.0000000000000002
230
-1.0
 50
27.46358415788022
 51
90.0000000000001847
  0
ARC
  5
4EEF
  8
0
  6
CONTINUOUS
 62
     3
 10
55.9999999999999929
 20
64.9999999999999858
 30
0.0
 40
1.9999999999999569
210
0.0
220
-0.0000000000000002
230
-1.0
 50
89.999999999999801
 51
152.5364158421197942
  0
LINE
  5
4EF0
  8
0
  6
CONTINUOUS
 62
     3
 10
-122.5
 20
66.9999999999999432
 30
-0.0000000000000149
 11
-122.5
 21
67.9999999999999574
 31
-0.0000000000000151
210
0.0
220
1.0
230
-0.0000000000000002
  0
LINE
  5
4EF1
  8
0
  6
CONTINUOUS
 62
     3
 10
35.5
 20
-0.0000000000000064
 30
0.0
 11
-35.5
 21
0.0000000000000064
 31
0.0
210
0.0
220
1.0
230
-0.0000000000000002
  0
LINE
  5
4EF2
  8
0
  6
CONTINUOUS
 62
     3
 10
40.75
 20
36.1194316653312697
 30
-0.000000000000008
 11
-40.7499999999999787
 21
36.1194316653312697
 31
-0.000000000000008
210
0.0
220
1.0
230
-0.0000000000000002
  0
ARC
  5
4EF3
  8
0
  6
CONTINUOUS
 62
     3
 10
-35.5000000000016698
 20
8.0622577482984088
 30
0.0
 40
0.9999999999983302
210
0.0
220
-0.0000000000000002
230
-1.0
 50
179.9999999999953104
 51
187.1250163489090141
  0
ARC
  5
4EF4
  8
0
  6
CONTINUOUS
 62
     3
 10
35.5000000000016414
 20
8.0622577482984248
 30
0.0
 40
0.9999999999983658
210
0.0
220
-0.0000000000000002
230
-1.0
 50
352.8749836510910995
 51
0.000000000004566
  0
LINE
  5
4EF5
  8
0
  6
CONTINUOUS
 62
     3
 10
-35.5000000000000071
 20
0.0000000000000053
 30
0.0
 11
-36.492277876713672
 21
7.9382230137092948
 31
-0.0000000000000018
210
0.0
220
1.0
230
-0.0000000000000002
  0
LINE
  5
4EF6
  8
0
  6
CONTINUOUS
 62
     3
 10
35.5000000000000071
 20
-0.0000000000000075
 30
0.0
 11
36.492277876713672
 21
7.9382230137092806
 31
-0.0000000000000018
210
0.0
220
1.0
230
-0.0000000000000002
  0
LINE
  5
4EF7
  8
0
  6
CONTINUOUS
 62
     3
 10
-36.5
 20
8.0622577482985047
 30
-0.0000000000000018
 11
-36.5
 21
30.0000000000000213
 31
-0.0000000000000067
210
0.0
220
1.0
230
-0.0000000000000002
  0
LINE
  5
4EF8
  8
0
  6
CONTINUOUS
 62
     3
 10
36.5
 20
8.0622577482984905
 30
-0.0000000000000018
 11
36.5
 21
30.0
 31
-0.0000000000000067
210
0.0
220
1.0
230
-0.0000000000000002
  0
ARC
  5
4EF9
  8
0
  6
CONTINUOUS
 62
     3
 10
-41.5
 20
30.0
 30
0.0
 40
5.0
210
0.0
220
-0.0000000000000002
230
-1.0
 50
0.0
 51
47.2065004727361668
  0
ARC
  5
4EFA
  8
0
  6
CONTINUOUS
 62
     3
 10
41.4999999999999503
 20
30.0000000000000284
 30
0.0
 40
4.9999999999999654
210
0.0
220
-0.0000000000000002
230
-1.0
 50
132.7934995272634922
 51
180.0000000000001137
  0
LINE
  5
4EFB
  8
0
  6
CONTINUOUS
 62
     3
 10
-38.1032097258887319
 20
33.6690347277864888
 30
-0.0000000000000075
 11
-40.7499999999999787
 21
36.1194316653312697
 31
-0.000000000000008
210
0.0
220
1.0
230
-0.0000000000000002
  0
LINE
  5
4EFC
  8
0
  6
CONTINUOUS
 62
     3
 10
38.103209725888739
 20
33.6690347277864674
 30
-0.0000000000000075
 11
40.75
 21
36.1194316653312484
 31
-0.000000000000008
210
0.0
220
1.0
230
-0.0000000000000002
  0
LINE
  5
4EFD
  8
0
  6
CONTINUOUS
 62
     3
 10
40.3976700511860827
 20
36.5
 30
-0.0000000000000081
 11
40.7500000000000071
 21
36.1194316653312626
 31
-0.000000000000008
210
0.0
220
1.0
230
-0.0000000000000002
  0
LINE
  5
4EFE
  8
0
  6
CONTINUOUS
 62
     3
 10
-40.3976700511860827
 20
36.5
 30
-0.0000000000000081
 11
-40.7499999999999787
 21
36.1194316653312768
 31
-0.000000000000008
210
0.0
220
1.0
230
-0.0000000000000002
  0
LINE
  5
4EFF
  8
0
  6
CONTINUOUS
 62
     3
 10
-42.3000000000000327
 20
-57.0000000000001279
 30
0.0000000000000127
 11
42.2999999999999829
 21
-57.0000000000001279
 31
0.0000000000000127
210
0.0
220
1.0
230
-0.0000000000000002
  0
LINE
  5
4F00
  8
0
  6
CONTINUOUS
 62
     3
 10
-40.5000000000000284
 20
-62.4949548389092868
 30
0.0000000000000139
 11
40.4999999999999716
 21
-62.4949548389092868
 31
0.0000000000000139
210
0.0
220
1.0
230
-0.0000000000000002
  0
LINE
  5
4F01
  8
0
  6
CONTINUOUS
 62
     3
 10
-40.5000000000000284
 20
-63.6000000000001009
 30
0.0000000000000141
 11
40.4999999999999716
 21
-63.6000000000001009
 31
0.0000000000000141
210
0.0
220
1.0
230
-0.0000000000000002
  0
LINE
  5
4F02
  8
0
  6
CONTINUOUS
 62
     3
 10
-41.9000000000000625
 20
-65.0000000000001279
 30
0.0000000000000144
 11
41.8999999999999986
 21
-65.0000000000001279
 31
0.0000000000000144
210
0.0
220
1.0
230
-0.0000000000000002
  0
LINE
  5
4F03
  8
0
  6
CONTINUOUS
 62
     3
 10
-41.9000000000000625
 20
-66.0000000000001137
 30
0.0000000000000147
 11
41.8999999999999986
 21
-66.0000000000001137
 31
0.0000000000000147
210
0.0
220
1.0
230
-0.0000000000000002
  0
LINE
  5
4F04
  8
0
  6
CONTINUOUS
 62
     3
 10
-40.5000000000000711
 20
-67.4000000000001052
 30
0.000000000000015
 11
40.5000000000000213
 21
-67.4000000000001052
 31
0.000000000000015
210
0.0
220
1.0
230
-0.0000000000000002
  0
LINE
  5
4F05
  8
0
  6
CONTINUOUS
 62
     3
 10
-40.5000000000000711
 20
-68.0000000000001279
 30
0.0000000000000151
 11
40.5000000000000213
 21
-68.0000000000001279
 31
0.0000000000000151
210
0.0
220
1.0
230
-0.0000000000000002
  0
LINE
  5
4F06
  8
0
  6
CONTINUOUS
 62
     3
 10
-42.8000000000000327
 20
-72.0000000000001279
 30
0.000000000000016
 11
42.7999999999999687
 21
-72.0000000000001279
 31
0.000000000000016
210
0.0
220
1.0
230
-0.0000000000000002
  0
LINE
  5
4F07
  8
0
  6
CONTINUOUS
 62
     3
 10
-34.5000000000000284
 20
-74.5000000000001279
 30
0.0000000000000165
 11
34.4999999999999716
 21
-74.5000000000001279
 31
0.0000000000000165
210
0.0
220
1.0
230
-0.0000000000000002
  0
ARC
  5
4F08
  8
0
  6
CONTINUOUS
 62
     3
 10
38.8970615154280708
 20
-53.0000000000001421
 30
0.0
 40
1.0000000000000271
210
0.0
220
-0.0000000000000002
230
-1.0
 50
29.4119136655303883
 51
89.9999999999992042
  0
ARC
  5
4F09
  8
0
  6
CONTINUOUS
 62
     3
 10
-38.8970615154280068
 20
-53.0000000000001421
 30
0.0
 40
1.000000000000028
210
0.0
220
-0.0000000000000002
230
-1.0
 50
90.00000000000081
 51
150.5880863344696081
  0
LINE
  5
4F0A
  8
0
  6
CONTINUOUS
 62
     3
 10
38.897061515428021
 20
-52.0000000000000995
 30
0.0000000000000115
 11
-38.8970615154280779
 21
-52.0000000000000995
 31
0.0000000000000115
210
0.0
220
1.0
230
-0.0000000000000002
  0
LINE
  5
4F0B
  8
0
  6
CONTINUOUS
 62
     3
 10
39.7681732327772792
 20
-52.5089151031677801
 30
0.0000000000000117
 11
42.2999999999999901
 21
-57.0000000000001279
 31
0.0000000000000127
210
0.0
220
1.0
230
-0.0000000000000002
  0
LINE
  5
4F0C
  8
0
  6
CONTINUOUS
 62
     3
 10
-39.7681732327773432
 20
-52.5089151031677801
 30
0.0000000000000117
 11
-42.3000000000000398
 21
-57.0000000000001279
 31
0.0000000000000127
210
0.0
220
1.0
230
-0.0000000000000002
  0
ARC
  5
4F0D
  8
0
  6
CONTINUOUS
 62
     3
 10
39.214074003371131
 20
-57.5000000000000711
 30
0.0
 40
0.5
210
0.0
220
-0.0000000000000002
230
-1.0
 50
90.0000000000016058
 51
199.9999999999990052
  0
ARC
  5
4F0E
  8
0
  6
CONTINUOUS
 62
     3
 10
-39.2140740033710671
 20
-57.5000000000000711
 30
0.0
 40
0.4999999999999987
210
0.0
220
-0.0000000000000002
230
-1.0
 50
339.9999999999998863
 51
89.9999999999983658
  0
LINE
  5
4F0F
  8
0
  6
CONTINUOUS
 62
     3
 10
38.7442276929781002
 20
-57.6710100716628915
 30
0.0000000000000128
 11
40.4999999999999787
 21
-62.4949548389092868
 31
0.0000000000000139
210
0.0
220
1.0
230
-0.0000000000000002
  0
LINE
  5
4F10
  8
0
  6
CONTINUOUS
 62
     3
 10
-38.7442276929781713
 20
-57.6710100716628986
 30
0.0000000000000128
 11
-40.5000000000000284
 21
-62.4949548389092868
 31
0.0000000000000139
210
0.0
220
1.0
230
-0.0000000000000002
  0
LINE
  5
4F11
  8
0
  6
CONTINUOUS
 62
     3
 10
40.4999999999999716
 20
-62.4949548389092868
 30
0.0000000000000139
 11
40.4999999999999716
 21
-63.6000000000001009
 31
0.0000000000000141
210
0.0
220
1.0
230
-0.0000000000000002
  0
LINE
  5
4F12
  8
0
  6
CONTINUOUS
 62
     3
 10
-40.5000000000000284
 20
-62.4949548389092868
 30
0.0000000000000139
 11
-40.5000000000000284
 21
-63.6000000000001009
 31
0.0000000000000141
210
0.0
220
1.0
230
-0.0000000000000002
  0
LINE
  5
4F13
  8
0
  6
CONTINUOUS
 62
     3
 10
40.4999999999999716
 20
-63.6000000000001009
 30
0.0000000000000141
 11
41.8999999999999986
 21
-65.0000000000001279
 31
0.0000000000000144
210
0.0
220
1.0
230
-0.0000000000000002
  0
LINE
  5
4F14
  8
0
  6
CONTINUOUS
 62
     3
 10
-40.5000000000000284
 20
-63.6000000000001009
 30
0.0000000000000141
 11
-41.9000000000000625
 21
-65.0000000000001279
 31
0.0000000000000144
210
0.0
220
1.0
230
-0.0000000000000002
  0
LINE
  5
4F15
  8
0
  6
CONTINUOUS
 62
     3
 10
41.8999999999999986
 20
-65.0000000000001279
 30
0.0000000000000144
 11
41.8999999999999986
 21
-66.0000000000001137
 31
0.0000000000000147
210
0.0
220
1.0
230
-0.0000000000000002
  0
LINE
  5
4F16
  8
0
  6
CONTINUOUS
 62
     3
 10
-41.9000000000000625
 20
-65.0000000000001279
 30
0.0000000000000144
 11
-41.9000000000000625
 21
-66.0000000000001137
 31
0.0000000000000147
210
0.0
220
1.0
230
-0.0000000000000002
  0
LINE
  5
4F17
  8
0
  6
CONTINUOUS
 62
     3
 10
-40.5000000000000782
 20
-67.4000000000001052
 30
0.000000000000015
 11
-41.9000000000000625
 21
-66.0000000000001137
 31
0.0000000000000147
210
0.0
220
1.0
230
-0.0000000000000002
  0
LINE
  5
4F18
  8
0
  6
CONTINUOUS
 62
     3
 10
40.5000000000000284
 20
-67.4000000000001052
 30
0.000000000000015
 11
41.8999999999999986
 21
-66.0000000000001137
 31
0.0000000000000147
210
0.0
220
1.0
230
-0.0000000000000002
  0
LINE
  5
4F19
  8
0
  6
CONTINUOUS
 62
     3
 10
40.5000000000000284
 20
-67.4000000000001052
 30
0.000000000000015
 11
40.5000000000000284
 21
-68.0000000000001279
 31
0.0000000000000151
210
0.0
220
1.0
230
-0.0000000000000002
  0
LINE
  5
4F1A
  8
0
  6
CONTINUOUS
 62
     3
 10
-40.5000000000000782
 20
-67.4000000000001052
 30
0.000000000000015
 11
-40.5000000000000782
 21
-68.0000000000001279
 31
0.0000000000000151
210
0.0
220
1.0
230
-0.0000000000000002
  0
LINE
  5
4F1B
  8
0
  6
CONTINUOUS
 62
     3
 10
40.5000000000000284
 20
-68.0000000000001279
 30
0.0000000000000151
 11
42.7999999999999829
 21
-72.0000000000001279
 31
0.000000000000016
210
0.0
220
1.0
230
-0.0000000000000002
  0
LINE
  5
4F1C
  8
0
  6
CONTINUOUS
 62
     3
 10
-40.5000000000000782
 20
-68.0000000000001279
 30
0.0000000000000151
 11
-42.8000000000000327
 21
-72.0000000000001279
 31
0.000000000000016
210
0.0
220
1.0
230
-0.0000000000000002
  0
ARC
  5
4F1D
  8
0
  6
CONTINUOUS
 62
     3
 10
34.5000000000000568
 20
-70.5000000000001705
 30
0.0
 40
3.9999999999999569
210
0.0
220
-0.0000000000000002
230
-1.0
 50
270.0
 51
337.9756871629587067
  0
ARC
  5
4F1E
  8
0
  6
CONTINUOUS
 62
     3
 10
-34.5
 20
-70.5000000000001705
 30
0.0
 40
3.9999999999999538
210
0.0
220
-0.0000000000000002
230
-1.0
 50
202.0243128370416912
 51
270.0000000000003979
  0
LINE
  5
4F1F
  8
0
  6
VERDECKT
 62
     1
 10
39.5000000000000071
 20
37.2114462347327617
 30
-0.0000000000000083
 11
-39.5
 21
37.2114462347327617
 31
-0.0000000000000083
210
0.0
220
1.0
230
-0.0000000000000002
  0
ARC
  5
4F20
  8
0
  6
VERDECKT
 62
     1
 10
-40.1999999999997968
 20
62.0000000000000213
 30
0.0
 40
10.0000000000002292
210
0.0
220
-0.0000000000000002
230
-1.0
 50
180.0000000000001137
 51
194.4775121859298963
  0
ARC
  5
4F21
  8
0
  6
VERDECKT
 62
     1
 10
40.1999999999995197
 20
62.0000000000000284
 30
0.0
 40
10.0000000000005205
210
0.0
220
-0.0000000000000002
230
-1.0
 50
345.5224878140704732
 51
359.9999999999997158
  0
LINE
  5
4F22
  8
0
  6
VERDECKT
 62
     1
 10
-50.2000000000000313
 20
61.9999999999999787
 30
-0.0000000000000138
 11
-50.2000000000000313
 21
67.9999999999999574
 31
-0.0000000000000151
210
0.0
220
1.0
230
-0.0000000000000002
  0
LINE
  5
4F23
  8
0
  6
VERDECKT
 62
     1
 10
50.2000000000000313
 20
62.0
 30
-0.0000000000000138
 11
50.2000000000000313
 21
67.9999999999999574
 31
-0.0000000000000151
210
0.0
220
1.0
230
-0.0000000000000002
  0
LINE
  5
4F24
  8
0
  6
VERDECKT
 62
     1
 10
-49.0000000000000213
 20
61.9999999999999787
 30
-0.0000000000000138
 11
-49.0000000000000213
 21
69.9999999999999858
 31
-0.0000000000000155
210
0.0
220
1.0
230
-0.0000000000000002
  0
LINE
  5
4F25
  8
0
  6
VERDECKT
 62
     1
 10
49.0000000000000213
 20
62.0
 30
-0.0000000000000138
 11
49.0000000000000213
 21
70.0
 31
-0.0000000000000155
210
0.0
220
1.0
230
-0.0000000000000002
  0
ARC
  5
4F26
  8
0
  6
VERDECKT
 62
     1
 10
-40.1999999999999602
 20
62.0000000000000071
 30
0.0
 40
8.8000000000000611
210
0.0
220
-0.0000000000000002
230
-1.0
 50
180.0
 51
209.1143386591436979
  0
ARC
  5
4F27
  8
0
  6
VERDECKT
 62
     1
 10
40.2000000000002231
 20
61.9999999999999289
 30
0.0
 40
8.7999999999998035
210
0.0
220
-0.0000000000000002
230
-1.0
 50
330.8856613408559042
 51
0.0000000000003308
  0
ARC
  5
4F28
  8
0
  6
VERDECKT
 62
     1
 10
-75.146019477326746
 20
42.5378386942691691
 30
0.0
 40
31.199999999999811
210
0.0
220
-0.0000000000000002
230
-1.0
 50
11.2917700051424408
 51
29.1143386591439608
  0
ARC
  5
4F29
  8
0
  6
VERDECKT
 62
     1
 10
75.1460194773265187
 20
42.537838694269233
 30
0.0
 40
31.1999999999995801
210
0.0
220
-0.0000000000000002
230
-1.0
 50
150.8856613408559042
 51
168.7082299948575894
  0
ARC
  5
4F2A
  8
0
  6
VERDECKT
 62
     1
 10
-16.3074518232962191
 20
54.2861558683187795
 30
0.0
 40
28.8000000000000114
210
0.0
220
-0.0000000000000002
230
-1.0
 50
191.2917700051418137
 51
216.361070218876705
  0
ARC
  5
4F2B
  8
0
  6
VERDECKT
 62
     1
 10
16.3074518232960308
 20
54.286155868318879
 30
0.0
 40
28.800000000000221
210
0.0
220
-0.0000000000000002
230
-1.0
 50
323.638929781123295
 51
348.7082299948580157
  0
LINE
  5
4F2C
  8
0
  6
VERDECKT
 62
     1
 10
39.5000000000000071
 20
37.2114462347327688
 30
-0.0000000000000083
 11
40.4663561740293289
 21
36.5000000000000071
 31
-0.0000000000000081
210
0.0
220
1.0
230
-0.0000000000000002
  0
LINE
  5
4F2D
  8
0
  6
VERDECKT
 62
     1
 10
-39.4999999999999929
 20
37.2114462347327475
 30
-0.0000000000000083
 11
-40.4663561740293289
 21
36.4999999999999929
 31
-0.0000000000000081
210
0.0
220
1.0
230
-0.0000000000000002
  0
LINE
  5
4F2E
  8
0
  6
VERDECKT
 62
     1
 10
50.0
 20
59.9611847569063769
 30
-0.0000000000000133
 11
-50.0
 21
59.9611847569063769
 31
-0.0000000000000133
210
0.0
220
1.0
230
-0.0000000000000002
  0
ARC
  5
4F2F
  8
0
  6
VERDECKT
 62
     1
 10
-55.9999999999999787
 20
64.9999999999999858
 30
0.0
 40
2.9999999999999818
210
0.0
220
-0.0000000000000002
230
-1.0
 50
27.4635841578799891
 51
90.0000000000002558
  0
ARC
  5
4F30
  8
0
  6
VERDECKT
 62
     1
 10
55.9999999999999787
 20
64.9999999999999858
 30
0.0
 40
2.9999999999999849
210
0.0
220
-0.0000000000000002
230
-1.0
 50
89.9999999999997442
 51
152.5364158421199932
  0
LINE
  5
4F31
  8
0
  6
VERDECKT
 62
     1
 10
-49.9999999999999929
 20
59.9611847569063912
 30
-0.0000000000000133
 11
-53.3380876085087507
 21
66.3835542707192161
 31
-0.0000000000000147
210
0.0
220
1.0
230
-0.0000000000000002
  0
LINE
  5
4F32
  8
0
  6
VERDECKT
 62
     1
 10
49.9999999999999929
 20
59.9611847569063912
 30
-0.0000000000000133
 11
53.3380876085087507
 21
66.3835542707192161
 31
-0.0000000000000147
210
0.0
220
1.0
230
-0.0000000000000002
  0
LINE
  5
4F33
  8
0
  6
VERDECKT
 62
     1
 10
50.0
 20
59.9611847569063769
 30
-0.0000000000000133
 11
50.887304130497057
 21
59.4999999999999716
 31
-0.0000000000000132
210
0.0
220
1.0
230
-0.0000000000000002
  0
LINE
  5
4F34
  8
0
  6
VERDECKT
 62
     1
 10
-50.0
 20
59.9611847569063769
 30
-0.0000000000000133
 11
-50.887304130497057
 21
59.4999999999999716
 31
-0.0000000000000132
210
0.0
220
1.0
230
-0.0000000000000002
  0
LINE
  5
4F35
  8
0
  6
VERDECKT
 62
     1
 10
284.0
 20
67.9999999999999716
 30
-0.0000000000000151
 11
284.0
 21
66.9999999999999432
 31
-0.0000000000000149
210
0.0
220
1.0
230
-0.0000000000000002
  0
LINE
  5
4F36
  8
0
  6
VERDECKT
 62
     1
 10
276.0
 20
67.9999999999999716
 30
-0.0000000000000151
 11
276.0
 21
66.9999999999999432
 31
-0.0000000000000149
210
0.0
220
1.0
230
-0.0000000000000002
  0
LINE
  5
4F37
  8
0
  6
VERDECKT
 62
     1
 10
34.3092665479436008
 20
0.1488416815070447
 30
0.0
 11
-34.3092665479436008
 21
0.148841681507057
 31
0.0
210
0.0
220
1.0
230
-0.0000000000000002
  0
LINE
  5
4F38
  8
0
  6
VERDECKT
 62
     1
 10
39.9347703342132974
 20
37.0000000000000213
 30
-0.0000000000000082
 11
-39.9347703342132974
 21
37.0000000000000213
 31
-0.0000000000000082
210
0.0
220
1.0
230
-0.0000000000000002
  0
ARC
  5
4F39
  8
0
  6
VERDECKT
 62
     1
 10
-34.3000000000016882
 20
8.1369670462567196
 30
0.0
 40
0.999999999998316
210
0.0
220
-0.0000000000000002
230
-1.0
 50
179.9999999999953104
 51
187.1250163489090141
  0
ARC
  5
4F3A
  8
0
  6
VERDECKT
 62
     1
 10
34.3000000000016314
 20
8.1369670462567356
 30
0.0
 40
0.999999999998373
210
0.0
220
-0.0000000000000002
230
-1.0
 50
352.8749836510909859
 51
0.00000000000458
  0
LINE
  5
4F3B
  8
0
  6
VERDECKT
 62
     1
 10
-35.3000000000000114
 20
8.1369670462568156
 30
-0.0000000000000018
 11
-35.3000000000000114
 21
30.0000000000000213
 31
-0.0000000000000067
210
0.0
220
1.0
230
-0.0000000000000002
  0
LINE
  5
4F3C
  8
0
  6
VERDECKT
 62
     1
 10
35.3000000000000114
 20
8.1369670462568013
 30
-0.0000000000000018
 11
35.3000000000000114
 21
30.0
 31
-0.0000000000000067
210
0.0
220
1.0
230
-0.0000000000000002
  0
LINE
  5
4F3D
  8
0
  6
VERDECKT
 62
     1
 10
-34.3092665479436008
 20
0.1488416815070575
 30
0.0
 11
-35.2922778767136691
 21
8.012932311667603
 31
-0.0000000000000018
210
0.0
220
1.0
230
-0.0000000000000002
  0
LINE
  5
4F3E
  8
0
  6
VERDECKT
 62
     1
 10
34.3092665479436008
 20
0.1488416815070446
 30
0.0
 11
35.2922778767136833
 21
8.0129323116675923
 31
-0.0000000000000018
210
0.0
220
1.0
230
-0.0000000000000002
  0
LINE
  5
4F3F
  8
0
  6
VERDECKT
 62
     1
 10
39.9347703342132974
 20
37.0000000000000071
 30
-0.0000000000000082
 11
40.3976700511860827
 21
36.5
 31
-0.0000000000000081
210
0.0
220
1.0
230
-0.0000000000000002
  0
LINE
  5
4F40
  8
0
  6
VERDECKT
 62
     1
 10
-39.9347703342132903
 20
37.0000000000000071
 30
-0.0000000000000082
 11
-40.3976700511860827
 21
36.5
 31
-0.0000000000000081
210
0.0
220
1.0
230
-0.0000000000000002
  0
LINE
  5
4F41
  8
0
  6
VERDECKT
 62
     1
 10
-37.2879800601020222
 20
34.5496030624552404
 30
-0.0000000000000077
 11
-39.9347703342132903
 21
37.0000000000000213
 31
-0.0000000000000082
210
0.0
220
1.0
230
-0.0000000000000002
  0
LINE
  5
4F42
  8
0
  6
VERDECKT
 62
     1
 10
37.2879800601020293
 20
34.5496030624552191
 30
-0.0000000000000077
 11
39.9347703342132974
 21
37.0
 31
-0.0000000000000082
210
0.0
220
1.0
230
-0.0000000000000002
  0
ARC
  5
4F43
  8
0
  6
VERDECKT
 62
     1
 10
-41.4999999999999787
 20
30.0000000000000107
 30
0.0
 40
6.1999999999999797
210
0.0
220
-0.0000000000000002
230
-1.0
 50
360.0
 51
47.2065004727360886
  0
ARC
  5
4F44
  8
0
  6
VERDECKT
 62
     1
 10
41.4999999999999432
 20
30.0000000000000284
 30
0.0
 40
6.199999999999946
210
0.0
220
-0.0000000000000002
230
-1.0
 50
132.7934995272636058
 51
180.0000000000001137
  0
LINE
  5
4F45
  8
0
  6
VERDECKT
 62
     1
 10
34.3092665479436008
 20
0.1488416815070448
 30
0.0
 11
35.5
 21
-0.0000000000000057
 31
0.0
210
0.0
220
1.0
230
-0.0000000000000002
  0
LINE
  5
4F46
  8
0
  6
VERDECKT
 62
     1
 10
-34.3092665479436008
 20
0.1488416815070571
 30
0.0
 11
-35.5
 21
0.000000000000007
 31
0.0
210
0.0
220
1.0
230
-0.0000000000000002
  0
LINE
  5
4F47
  8
0
  6
VERDECKT
 62
     1
 10
-37.0000000000000284
 20
-58.0000000000001279
 30
0.0000000000000129
 11
36.9999999999999716
 21
-58.0000000000001279
 31
0.0000000000000129
210
0.0
220
1.0
230
-0.0000000000000002
  0
LINE
  5
4F48
  8
0
  6
VERDECKT
 62
     1
 10
-32.0000000000000284
 20
-73.0000000000001279
 30
0.0000000000000162
 11
31.9999999999999716
 21
-73.0000000000001279
 31
0.0000000000000162
210
0.0
220
1.0
230
-0.0000000000000002
  0
LINE
  5
4F49
  8
0
  6
VERDECKT
 62
     1
 10
36.9999999999999716
 20
-58.0000000000001279
 30
0.0000000000000129
 11
36.9999999999999716
 21
-68.0000000000001279
 31
0.0000000000000151
210
0.0
220
1.0
230
-0.0000000000000002
  0
LINE
  5
4F4A
  8
0
  6
VERDECKT
 62
     1
 10
-37.0000000000000284
 20
-58.0000000000001279
 30
0.0000000000000129
 11
-37.0000000000000284
 21
-68.0000000000001279
 31
0.0000000000000151
210
0.0
220
1.0
230
-0.0000000000000002
  0
LINE
  5
4F4B
  8
0
  6
VERDECKT
 62
     1
 10
-37.0000000000000284
 20
-58.0000000000001279
 30
0.0000000000000129
 11
-37.9122537624158724
 21
-52.8263518223331729
 31
0.0000000000000117
210
0.0
220
1.0
230
-0.0000000000000002
  0
LINE
  5
4F4C
  8
0
  6
VERDECKT
 62
     1
 10
36.9999999999999716
 20
-58.0000000000001279
 30
0.0000000000000129
 11
37.9122537624158227
 21
-52.8263518223331729
 31
0.0000000000000117
210
0.0
220
1.0
230
-0.0000000000000002
  0
ARC
  5
4F4D
  8
0
  6
VERDECKT
 62
     1
 10
38.8970615154280921
 20
-53.0000000000001066
 30
0.0
 40
1.0000000000000071
210
0.0
220
-0.0000000000000002
230
-1.0
 50
90.0000000000003979
 51
169.9999999999990052
  0
ARC
  5
4F4E
  8
0
  6
VERDECKT
 62
     1
 10
-38.8970615154280281
 20
-53.0000000000001066
 30
0.0
 40
1.0000000000000071
210
0.0
220
-0.0000000000000002
230
-1.0
 50
10.0000000000009397
 51
89.9999999999995879
  0
LINE
  5
4F4F
  8
0
  6
VERDECKT
 62
     1
 10
40.1756658041690287
 20
-70.4725600474013305
 30
0.0000000000000156
 11
40.9999999999999574
 21
-72.0000000000001279
 31
0.000000000000016
210
0.0
220
1.0
230
-0.0000000000000002
  0
LINE
  5
4F50
  8
0
  6
VERDECKT
 62
     1
 10
-40.1756658041690784
 20
-70.4725600474013305
 30
0.0000000000000156
 11
-41.0000000000000284
 21
-72.0000000000001279
 31
0.000000000000016
210
0.0
220
1.0
230
-0.0000000000000002
  0
ARC
  5
4F51
  8
0
  6
VERDECKT
 62
     1
 10
39.3836461788299275
 20
-70.9000000000001336
 30
0.0
 40
0.9000000000000328
210
0.0
220
-0.0000000000000002
230
-1.0
 50
28.3550060284115588
 51
89.9999999999986642
  0
ARC
  5
4F52
  8
0
  6
VERDECKT
 62
     1
 10
39.3836461788299701
 20
-70.9000000000001336
 30
0.0
 40
0.9000000000000341
210
0.0
220
-0.0000000000000002
230
-1.0
 50
90.0000000000013358
 51
175.3175831377299119
  0
ARC
  5
4F53
  8
0
  6
VERDECKT
 62
     1
 10
-39.3836461788299133
 20
-70.9000000000001336
 30
0.0
 40
0.9000000000000262
210
0.0
220
-0.0000000000000002
230
-1.0
 50
4.6824168622700792
 51
89.9999999999986358
  0
ARC
  5
4F54
  8
0
  6
VERDECKT
 62
     1
 10
-39.3836461788298706
 20
-70.9000000000001336
 30
0.0
 40
0.9000000000000341
210
0.0
220
-0.0000000000000002
230
-1.0
 50
90.0000000000013358
 51
151.6449939715884057
  0
LINE
  5
4F55
  8
0
  6
VERDECKT
 62
     1
 10
39.3836461788298919
 20
-70.0000000000001137
 30
0.0000000000000155
 11
-39.3836461788299488
 21
-70.0000000000001137
 31
0.0000000000000155
210
0.0
220
1.0
230
-0.0000000000000002
  0
ARC
  5
4F56
  8
0
  6
VERDECKT
 62
     1
 10
34.5000000000001776
 20
-70.5000000000001847
 30
0.0
 40
3.999999999999837
210
0.0
220
-0.0000000000000002
230
-1.0
 50
337.9756871629576835
 51
355.3175831377308214
  0
ARC
  5
4F57
  8
0
  6
VERDECKT
 62
     1
 10
-34.5000000000001208
 20
-70.5000000000001847
 30
0.0
 40
3.999999999999837
210
0.0
220
-0.0000000000000002
230
-1.0
 50
184.6824168622690934
 51
202.0243128370422028
  0
LINE
  5
4F58
  8
0
  6
VERDECKT
 62
     1
 10
31.9999999999999716
 20
-73.0000000000001279
 30
0.0000000000000162
 11
31.9999999999999716
 21
-74.5000000000001279
 31
0.0000000000000165
210
0.0
220
1.0
230
-0.0000000000000002
  0
LINE
  5
4F59
  8
0
  6
VERDECKT
 62
     1
 10
-32.0000000000000284
 20
-73.0000000000001279
 30
0.0000000000000162
 11
-32.0000000000000284
 21
-74.5000000000001279
 31
0.0000000000000165
210
0.0
220
1.0
230
-0.0000000000000002
  0
ARC
  5
4F5A
  8
0
  6
VERDECKT
 62
     1
 10
32.0000000000000284
 20
-68.0000000000001279
 30
0.0
 40
5.0
210
0.0
220
-0.0000000000000002
230
-1.0
 50
270.0
 51
0.0
  0
ARC
  5
4F5B
  8
0
  6
VERDECKT
 62
     1
 10
-31.9999999999999716
 20
-68.0000000000001279
 30
0.0
 40
5.0
210
0.0
220
-0.0000000000000002
230
-1.0
 50
180.0
 51
270.0
  0
ENDBLK
  5
4F5D
  8
0
  0
BLOCK
  8
0
  2
A$C817AED6B
 70
     0
 10
0.0
 20
0.0
 30
0.0
  3
A$C817AED6B
  1

  0
LINE
  5
4F61
  8
0
  6
CONTINUOUS
 62
     3
 10
50.2000000000000099
 20
70.0000000000000142
 30
-0.0000000000000155
 11
-50.2000000000000526
 21
69.9999999999999858
 31
-0.0000000000000155
210
-0.0000000000000002
220
1.0
230
-0.0000000000000002
  0
LINE
  5
4F62
  8
0
  6
CONTINUOUS
 62
     3
 10
40.4663561740293432
 20
36.5000000000000213
 30
-0.0000000000000081
 11
-40.4663561740293574
 21
36.5
 31
-0.0000000000000081
210
-0.0000000000000002
220
1.0
230
-0.0000000000000002
  0
ARC
  5
4F63
  8
0
  6
CONTINUOUS
 62
     3
 10
-40.200000000000351
 20
61.9999999999998508
 30
0.0
 40
9.9999999999996501
210
0.0
220
-0.0000000000000002
230
-1.0
 50
194.4775121859296121
 51
209.1143386591438968
  0
ARC
  5
4F64
  8
0
  6
CONTINUOUS
 62
     3
 10
40.2000000000003723
 20
61.9999999999998508
 30
0.0
 40
9.9999999999996518
210
0.0
220
-0.0000000000000002
230
-1.0
 50
330.8856613408559042
 51
345.5224878140703026
  0
LINE
  5
4F65
  8
0
  6
CONTINUOUS
 62
     3
 10
-50.2000000000000597
 20
67.9999999999999574
 30
-0.0000000000000151
 11
-50.2000000000000597
 21
69.9999999999999858
 31
-0.0000000000000155
210
-0.0000000000000002
220
1.0
230
-0.0000000000000002
  0
LINE
  5
4F66
  8
0
  6
CONTINUOUS
 62
     3
 10
50.2000000000000313
 20
67.9999999999999858
 30
-0.0000000000000151
 11
50.2000000000000313
 21
70.0000000000000142
 31
-0.0000000000000155
210
-0.0000000000000002
220
1.0
230
-0.0000000000000002
  0
ARC
  5
4F67
  8
0
  6
CONTINUOUS
 62
     3
 10
-16.307451823296141
 20
54.2861558683188505
 30
0.0
 40
30.0000000000001101
210
0.0
220
-0.0000000000000002
230
-1.0
 50
191.291770005141899
 51
216.361070218876705
  0
ARC
  5
4F68
  8
0
  6
CONTINUOUS
 62
     3
 10
16.3074518232962191
 20
54.2861558683188008
 30
0.0
 40
30.0000000000000497
210
0.0
220
-0.0000000000000002
230
-1.0
 50
323.6389297811231813
 51
348.7082299948580726
  0
ARC
  5
4F69
  8
0
  6
CONTINUOUS
 62
     3
 10
-75.1460194773273145
 20
42.5378386942689701
 30
0.0
 40
30.0000000000004192
210
0.0
220
-0.0000000000000002
230
-1.0
 50
11.2917700051426202
 51
29.1143386591438116
  0
ARC
  5
4F6A
  8
0
  6
CONTINUOUS
 62
     3
 10
75.1460194773267034
 20
42.5378386942691691
 30
0.0
 40
29.9999999999997584
210
0.0
220
-0.0000000000000002
230
-1.0
 50
150.8856613408559042
 51
168.7082299948575042
  0
LINE
  5
4F6B
  8
0
  6
CONTINUOUS
 62
     3
 10
50.8873041304970712
 20
59.5
 30
-0.0000000000000132
 11
-50.8873041304970926
 21
59.4999999999999716
 31
-0.0000000000000132
210
-0.0000000000000002
220
1.0
230
-0.0000000000000002
  0
LINE
  5
4F6C
  8
0
  6
CONTINUOUS
 62
     3
 10
-122.5
 20
66.9999999999999432
 30
-0.0000000000000149
 11
-122.5
 21
67.9999999999999574
 31
-0.0000000000000151
210
-0.0000000000000002
220
1.0
230
-0.0000000000000002
  0
LINE
  5
4F6D
  8
0
  6
CONTINUOUS
 62
     3
 10
122.5
 20
67.0
 30
-0.0000000000000149
 11
122.5
 21
68.0
 31
-0.0000000000000151
210
-0.0000000000000002
220
1.0
230
-0.0000000000000002
  0
LINE
  5
4F6E
  8
0
  6
CONTINUOUS
 62
     3
 10
122.5
 20
67.0
 30
-0.0000000000000149
 11
-122.5
 21
66.9999999999999432
 31
-0.0000000000000149
210
-0.0000000000000002
220
1.0
230
-0.0000000000000002
  0
LINE
  5
4F6F
  8
0
  6
CONTINUOUS
 62
     3
 10
122.5
 20
68.0
 30
-0.0000000000000151
 11
-122.5
 21
67.9999999999999432
 31
-0.0000000000000151
210
-0.0000000000000002
220
1.0
230
-0.0000000000000002
  0
LINE
  5
4F70
  8
0
  6
CONTINUOUS
 62
     3
 10
-50.8873041304970926
 20
59.4999999999999716
 30
-0.0000000000000132
 11
-54.2253917390058717
 21
65.9223695138128107
 31
-0.0000000000000146
210
-0.0000000000000002
220
1.0
230
-0.0000000000000002
  0
LINE
  5
4F71
  8
0
  6
CONTINUOUS
 62
     3
 10
50.887304130497057
 20
59.5
 30
-0.0000000000000132
 11
54.2253917390058504
 21
65.9223695138128392
 31
-0.0000000000000146
210
-0.0000000000000002
220
1.0
230
-0.0000000000000002
  0
ARC
  5
4F72
  8
0
  6
CONTINUOUS
 62
     3
 10
-55.9999999999999929
 20
65.0000000000000142
 30
0.0
 40
1.999999999999952
210
0.0
220
-0.0000000000000002
230
-1.0
 50
27.4635841578801987
 51
90.0000000000001847
  0
ARC
  5
4F73
  8
0
  6
CONTINUOUS
 62
     3
 10
56.0000000000000213
 20
64.9999999999999858
 30
0.0
 40
1.9999999999999569
210
0.0
220
-0.0000000000000002
230
-1.0
 50
89.9999999999997868
 51
152.5364158421197089
  0
LINE
  5
4F74
  8
0
  6
CONTINUOUS
 62
     3
 10
35.5000000000000071
 20
0.0000000000000079
 30
0.0
 11
-35.5000000000000071
 21
-0.0000000000000079
 31
0.0
210
-0.0000000000000002
220
1.0
230
-0.0000000000000002
  0
LINE
  5
4F75
  8
0
  6
CONTINUOUS
 62
     3
 10
40.75
 20
36.1194316653312768
 30
-0.000000000000008
 11
-40.7500000000000071
 21
36.1194316653312626
 31
-0.000000000000008
210
-0.0000000000000002
220
1.0
230
-0.0000000000000002
  0
ARC
  5
4F76
  8
0
  6
CONTINUOUS
 62
     3
 10
-35.5000000000016414
 20
8.0622577482984266
 30
0.0
 40
0.9999999999983659
210
0.0
220
-0.0000000000000002
230
-1.0
 50
179.9999999999953957
 51
187.1250163489087868
  0
ARC
  5
4F77
  8
0
  6
CONTINUOUS
 62
     3
 10
35.5000000000016414
 20
8.0622577482984124
 30
0.0
 40
0.9999999999983659
210
0.0
220
-0.0000000000000002
230
-1.0
 50
352.8749836510909859
 51
0.0000000000045532
  0
LINE
  5
4F78
  8
0
  6
CONTINUOUS
 62
     3
 10
-35.5000000000000213
 20
-0.0000000000000088
 30
0.0
 11
-36.492277876713672
 21
7.9382230137092824
 31
-0.0000000000000018
210
-0.0000000000000002
220
1.0
230
-0.0000000000000002
  0
LINE
  5
4F79
  8
0
  6
CONTINUOUS
 62
     3
 10
35.5000000000000213
 20
0.000000000000007
 30
0.0
 11
36.492277876713672
 21
7.9382230137092984
 31
-0.0000000000000018
210
-0.0000000000000002
220
1.0
230
-0.0000000000000002
  0
LINE
  5
4F7A
  8
0
  6
CONTINUOUS
 62
     3
 10
-36.5000000000000071
 20
8.0622577482984905
 30
-0.0000000000000018
 11
-36.5000000000000213
 21
30.0000000000000107
 31
-0.0000000000000067
210
-0.0000000000000002
220
1.0
230
-0.0000000000000002
  0
LINE
  5
4F7B
  8
0
  6
CONTINUOUS
 62
     3
 10
36.5000000000000071
 20
8.0622577482985083
 30
-0.0000000000000018
 11
36.5
 21
30.0000000000000213
 31
-0.0000000000000067
210
-0.0000000000000002
220
1.0
230
-0.0000000000000002
  0
ARC
  5
4F7C
  8
0
  6
CONTINUOUS
 62
     3
 10
-41.4999999999999716
 20
30.0000000000000284
 30
0.0
 40
4.9999999999999787
210
0.0
220
-0.0000000000000002
230
-1.0
 50
359.9999999999998863
 51
47.2065004727363871
  0
ARC
  5
4F7D
  8
0
  6
CONTINUOUS
 62
     3
 10
41.4999999999999787
 20
30.0000000000000107
 30
0.0
 40
4.9999999999999778
210
0.0
220
-0.0000000000000002
230
-1.0
 50
132.7934995272636058
 51
180.0
  0
LINE
  5
4F7E
  8
0
  6
CONTINUOUS
 62
     3
 10
-38.1032097258887603
 20
33.6690347277864817
 30
-0.0000000000000075
 11
-40.7500000000000071
 21
36.1194316653312626
 31
-0.000000000000008
210
-0.0000000000000002
220
1.0
230
-0.0000000000000002
  0
LINE
  5
4F7F
  8
0
  6
CONTINUOUS
 62
     3
 10
38.103209725888739
 20
33.669034727786503
 30
-0.0000000000000075
 11
40.7499999999999929
 21
36.1194316653312768
 31
-0.000000000000008
210
-0.0000000000000002
220
1.0
230
-0.0000000000000002
  0
LINE
  5
4F80
  8
0
  6
CONTINUOUS
 62
     3
 10
40.3976700511860827
 20
36.5000000000000213
 30
-0.0000000000000081
 11
40.7499999999999929
 21
36.119431665331291
 31
-0.000000000000008
210
-0.0000000000000002
220
1.0
230
-0.0000000000000002
  0
LINE
  5
4F81
  8
0
  6
CONTINUOUS
 62
     3
 10
-40.3976700511860827
 20
36.5
 30
-0.0000000000000081
 11
-40.7500000000000071
 21
36.1194316653312697
 31
-0.000000000000008
210
-0.0000000000000002
220
1.0
230
-0.0000000000000002
  0
LINE
  5
4F82
  8
0
  6
CONTINUOUS
 62
     3
 10
-42.2983424251904907
 20
-57.0000000000001492
 30
0.0000000000000127
 11
0.0016575748095191
 21
-57.0000000000001421
 31
0.0000000000000127
210
-0.0000000000000002
220
1.0
230
-0.0000000000000002
  0
LINE
  5
4F83
  8
0
  6
CONTINUOUS
 62
     3
 10
0.0016575748095288
 20
-57.0000000000001421
 30
0.0000000000000127
 11
42.301657574809532
 21
-57.0000000000001279
 31
0.0000000000000127
210
-0.0000000000000002
220
1.0
230
-0.0000000000000002
  0
LINE
  5
4F84
  8
0
  6
CONTINUOUS
 62
     3
 10
-40.4983424251904793
 20
-62.4949548389093223
 30
0.0000000000000139
 11
0.0016575748095203
 21
-62.4949548389093081
 31
0.0000000000000139
210
-0.0000000000000002
220
1.0
230
-0.0000000000000002
  0
LINE
  5
4F85
  8
0
  6
CONTINUOUS
 62
     3
 10
0.0016575748095303
 20
-62.4949548389093081
 30
0.0000000000000139
 11
40.5016575748095278
 21
-62.494954838909301
 31
0.0000000000000139
210
-0.0000000000000002
220
1.0
230
-0.0000000000000002
  0
LINE
  5
4F86
  8
0
  6
CONTINUOUS
 62
     3
 10
-40.4983424251904793
 20
-63.600000000000108
 30
0.0000000000000141
 11
0.0016575748095206
 21
-63.6000000000001009
 31
0.0000000000000141
210
-0.0000000000000002
220
1.0
230
-0.0000000000000002
  0
LINE
  5
4F87
  8
0
  6
CONTINUOUS
 62
     3
 10
0.0016575748095306
 20
-63.6000000000001009
 30
0.0000000000000141
 11
40.5016575748095278
 21
-63.6000000000001009
 31
0.0000000000000141
210
-0.0000000000000002
220
1.0
230
-0.0000000000000002
  0
LINE
  5
4F88
  8
0
  6
CONTINUOUS
 62
     3
 10
-41.8983424251905134
 20
-65.0000000000001563
 30
0.0000000000000144
 11
0.0016575748095209
 21
-65.0000000000001421
 31
0.0000000000000144
210
-0.0000000000000002
220
1.0
230
-0.0000000000000002
  0
LINE
  5
4F89
  8
0
  6
CONTINUOUS
 62
     3
 10
0.0016575748095289
 20
-65.0000000000001421
 30
0.0000000000000144
 11
41.9016575748095619
 21
-65.0000000000001279
 31
0.0000000000000144
210
-0.0000000000000002
220
1.0
230
-0.0000000000000002
  0
LINE
  5
4F8A
  8
0
  6
CONTINUOUS
 62
     3
 10
-41.8983424251905134
 20
-66.0000000000001563
 30
0.0000000000000147
 11
0.0016575748095211
 21
-66.0000000000001421
 31
0.0000000000000147
210
-0.0000000000000002
220
1.0
230
-0.0000000000000002
  0
LINE
  5
4F8B
  8
0
  6
CONTINUOUS
 62
     3
 10
0.0016575748095292
 20
-66.0000000000001421
 30
0.0000000000000147
 11
41.9016575748095619
 21
-66.0000000000001137
 31
0.0000000000000147
210
-0.0000000000000002
220
1.0
230
-0.0000000000000002
  0
LINE
  5
4F8C
  8
0
  6
CONTINUOUS
 62
     3
 10
-40.4983424251905291
 20
-67.4000000000001336
 30
0.000000000000015
 11
0.0016575748095214
 21
-67.4000000000001194
 31
0.000000000000015
210
-0.0000000000000002
220
1.0
230
-0.0000000000000002
  0
LINE
  5
4F8D
  8
0
  6
CONTINUOUS
 62
     3
 10
0.0016575748095269
 20
-67.4000000000001194
 30
0.000000000000015
 11
40.5016575748095917
 21
-67.4000000000001052
 31
0.000000000000015
210
-0.0000000000000002
220
1.0
230
-0.0000000000000002
  0
LINE
  5
4F8E
  8
0
  6
CONTINUOUS
 62
     3
 10
-40.4983424251905291
 20
-68.0000000000001563
 30
0.0000000000000151
 11
0.0016575748095216
 21
-68.0000000000001421
 31
0.0000000000000151
210
-0.0000000000000002
220
1.0
230
-0.0000000000000002
  0
LINE
  5
4F8F
  8
0
  6
CONTINUOUS
 62
     3
 10
0.0016575748095271
 20
-68.0000000000001421
 30
0.0000000000000151
 11
40.5016575748095917
 21
-68.0000000000001279
 31
0.0000000000000151
210
-0.0000000000000002
220
1.0
230
-0.0000000000000002
  0
LINE
  5
4F90
  8
0
  6
CONTINUOUS
 62
     3
 10
-42.7983424251904907
 20
-72.0000000000001563
 30
0.000000000000016
 11
0.0016575748095224
 21
-72.0000000000001421
 31
0.000000000000016
210
-0.0000000000000002
220
1.0
230
-0.0000000000000002
  0
LINE
  5
4F91
  8
0
  6
CONTINUOUS
 62
     3
 10
0.0016575748095341
 20
-72.0000000000001421
 30
0.000000000000016
 11
42.8016575748095391
 21
-72.0000000000001279
 31
0.000000000000016
210
-0.0000000000000002
220
1.0
230
-0.0000000000000002
  0
LINE
  5
4F92
  8
0
  6
CONTINUOUS
 62
     3
 10
-34.4983424251904793
 20
-74.5000000000001563
 30
0.0000000000000165
 11
0.001657574809523
 21
-74.5000000000001421
 31
0.0000000000000165
210
-0.0000000000000002
220
1.0
230
-0.0000000000000002
  0
LINE
  5
4F93
  8
0
  6
CONTINUOUS
 62
     3
 10
0.0016575748095302
 20
-74.5000000000001421
 30
0.0000000000000165
 11
34.501657574809542
 21
-74.5000000000001279
 31
0.0000000000000165
210
-0.0000000000000002
220
1.0
230
-0.0000000000000002
  0
ARC
  5
4F94
  8
0
  6
CONTINUOUS
 62
     3
 10
38.8954039406185217
 20
-53.0000000000001421
 30
0.0
 40
1.0000000000000271
210
0.0
220
-0.0000000000000002
230
-1.0
 50
29.4119136655303812
 51
89.9999999999992042
  0
ARC
  5
4F95
  8
0
  6
CONTINUOUS
 62
     3
 10
-38.8987190902375701
 20
-53.0000000000001421
 30
0.0
 40
1.000000000000028
210
0.0
220
-0.0000000000000002
230
-1.0
 50
90.0000000000007958
 51
150.5880863344696081
  0
LINE
  5
4F96
  8
0
  6
CONTINUOUS
 62
     3
 10
38.8987190902375914
 20
-52.0000000000000995
 30
0.0000000000000115
 11
-38.8954039406185288
 21
-52.0000000000001208
 31
0.0000000000000115
210
-0.0000000000000002
220
1.0
230
-0.0000000000000002
  0
LINE
  5
4F97
  8
0
  6
CONTINUOUS
 62
     3
 10
39.7698308075868425
 20
-52.5089151031677801
 30
0.0000000000000117
 11
42.3016575748095534
 21
-57.0000000000001279
 31
0.0000000000000127
210
-0.0000000000000002
220
1.0
230
-0.0000000000000002
  0
LINE
  5
4F98
  8
0
  6
CONTINUOUS
 62
     3
 10
-39.766515657967787
 20
-52.5089151031678014
 30
0.0000000000000117
 11
-42.2983424251904907
 21
-57.0000000000001492
 31
0.0000000000000127
210
-0.0000000000000002
220
1.0
230
-0.0000000000000002
  0
ARC
  5
4F99
  8
0
  6
CONTINUOUS
 62
     3
 10
39.2124164285615819
 20
-57.5000000000000782
 30
0.0
 40
0.499999999999993
210
0.0
220
-0.0000000000000002
230
-1.0
 50
90.0000000000016058
 51
200.0
  0
ARC
  5
4F9A
  8
0
  6
CONTINUOUS
 62
     3
 10
-39.2157315781806304
 20
-57.5000000000000711
 30
0.0
 40
0.4999999999999988
210
0.0
220
-0.0000000000000002
230
-1.0
 50
339.9999999999998863
 51
89.9999999999983373
  0
LINE
  5
4F9B
  8
0
  6
CONTINUOUS
 62
     3
 10
38.7458852677876706
 20
-57.6710100716628986
 30
0.0000000000000128
 11
40.501657574809542
 21
-62.494954838909301
 31
0.0000000000000139
210
-0.0000000000000002
220
1.0
230
-0.0000000000000002
  0
LINE
  5
4F9C
  8
0
  6
CONTINUOUS
 62
     3
 10
-38.742570118168608
 20
-57.6710100716629128
 30
0.0000000000000128
 11
-40.4983424251904793
 21
-62.4949548389093223
 31
0.0000000000000139
210
-0.0000000000000002
220
1.0
230
-0.0000000000000002
  0
LINE
  5
4F9D
  8
0
  6
CONTINUOUS
 62
     3
 10
40.5016575748095278
 20
-62.494954838909301
 30
0.0000000000000139
 11
40.5016575748095278
 21
-63.6000000000001009
 31
0.0000000000000141
210
-0.0000000000000002
220
1.0
230
-0.0000000000000002
  0
LINE
  5
4F9E
  8
0
  6
CONTINUOUS
 62
     3
 10
-40.4983424251904793
 20
-62.4949548389093223
 30
0.0000000000000139
 11
-40.4983424251904793
 21
-63.600000000000108
 31
0.0000000000000141
210
-0.0000000000000002
220
1.0
230
-0.0000000000000002
  0
LINE
  5
4F9F
  8
0
  6
CONTINUOUS
 62
     3
 10
40.5016575748095278
 20
-63.6000000000001009
 30
0.0000000000000141
 11
41.901657574809569
 21
-65.0000000000001279
 31
0.0000000000000144
210
-0.0000000000000002
220
1.0
230
-0.0000000000000002
  0
LINE
  5
4FA0
  8
0
  6
CONTINUOUS
 62
     3
 10
-40.4983424251904793
 20
-63.600000000000108
 30
0.0000000000000141
 11
-41.8983424251905134
 21
-65.0000000000001563
 31
0.0000000000000144
210
-0.0000000000000002
220
1.0
230
-0.0000000000000002
  0
LINE
  5
4FA1
  8
0
  6
CONTINUOUS
 62
     3
 10
41.901657574809569
 20
-65.0000000000001279
 30
0.0000000000000144
 11
41.901657574809569
 21
-66.0000000000001137
 31
0.0000000000000147
210
-0.0000000000000002
220
1.0
230
-0.0000000000000002
  0
LINE
  5
4FA2
  8
0
  6
CONTINUOUS
 62
     3
 10
-41.8983424251905134
 20
-65.0000000000001563
 30
0.0000000000000144
 11
-41.8983424251905134
 21
-66.0000000000001563
 31
0.0000000000000147
210
-0.0000000000000002
220
1.0
230
-0.0000000000000002
  0
LINE
  5
4FA3
  8
0
  6
CONTINUOUS
 62
     3
 10
-40.4983424251905291
 20
-67.4000000000001336
 30
0.000000000000015
 11
-41.8983424251905134
 21
-66.0000000000001563
 31
0.0000000000000147
210
-0.0000000000000002
220
1.0
230
-0.0000000000000002
  0
LINE
  5
4FA4
  8
0
  6
CONTINUOUS
 62
     3
 10
40.5016575748095917
 20
-67.4000000000001052
 30
0.000000000000015
 11
41.901657574809569
 21
-66.0000000000001137
 31
0.0000000000000147
210
-0.0000000000000002
220
1.0
230
-0.0000000000000002
  0
LINE
  5
4FA5
  8
0
  6
CONTINUOUS
 62
     3
 10
40.5016575748095917
 20
-67.4000000000001052
 30
0.000000000000015
 11
40.5016575748095917
 21
-68.0000000000001279
 31
0.0000000000000151
210
-0.0000000000000002
220
1.0
230
-0.0000000000000002
  0
LINE
  5
4FA6
  8
0
  6
CONTINUOUS
 62
     3
 10
-40.4983424251905291
 20
-67.4000000000001336
 30
0.000000000000015
 11
-40.4983424251905291
 21
-68.0000000000001563
 31
0.0000000000000151
210
-0.0000000000000002
220
1.0
230
-0.0000000000000002
  0
LINE
  5
4FA7
  8
0
  6
CONTINUOUS
 62
     3
 10
40.5016575748095917
 20
-68.0000000000001279
 30
0.0000000000000151
 11
42.8016575748095391
 21
-72.0000000000001279
 31
0.000000000000016
210
-0.0000000000000002
220
1.0
230
-0.0000000000000002
  0
LINE
  5
4FA8
  8
0
  6
CONTINUOUS
 62
     3
 10
-40.4983424251905291
 20
-68.0000000000001563
 30
0.0000000000000151
 11
-42.7983424251904907
 21
-72.0000000000001563
 31
0.000000000000016
210
-0.0000000000000002
220
1.0
230
-0.0000000000000002
  0
ARC
  5
4FA9
  8
0
  6
CONTINUOUS
 62
     3
 10
34.4983424251905078
 20
-70.500000000000199
 30
0.0
 40
3.9999999999999578
210
0.0
220
-0.0000000000000002
230
-1.0
 50
270.0
 51
337.975687162958593
  0
ARC
  5
4FAA
  8
0
  6
CONTINUOUS
 62
     3
 10
-34.5016575748095633
 20
-70.5000000000001705
 30
0.0
 40
3.9999999999999551
210
0.0
220
-0.0000000000000002
230
-1.0
 50
202.0243128370416912
 51
270.0000000000003979
  0
LINE
  5
4FAB
  8
0
  6
VERDECKT
 62
     1
 10
39.5000000000000071
 20
37.2114462347327972
 30
-0.0000000000000083
 11
-39.5000000000000071
 21
37.2114462347327688
 31
-0.0000000000000083
210
-0.0000000000000002
220
1.0
230
-0.0000000000000002
  0
ARC
  5
4FAC
  8
0
  6
VERDECKT
 62
     1
 10
-40.1999999999999105
 20
62.0000000000000284
 30
0.0
 40
10.0000000000001208
210
0.0
220
-0.0000000000000002
230
-1.0
 50
180.0000000000001137
 51
194.4775121859298963
  0
ARC
  5
4FAD
  8
0
  6
VERDECKT
 62
     1
 10
40.1999999999999389
 20
62.0000000000000213
 30
0.0
 40
10.0000000000001208
210
0.0
220
-0.0000000000000002
230
-1.0
 50
345.5224878140700184
 51
359.9999999999997726
  0
LINE
  5
4FAE
  8
0
  6
VERDECKT
 62
     1
 10
-50.2000000000000597
 20
61.9999999999999929
 30
-0.0000000000000138
 11
-50.2000000000000597
 21
67.9999999999999574
 31
-0.0000000000000151
210
-0.0000000000000002
220
1.0
230
-0.0000000000000002
  0
LINE
  5
4FAF
  8
0
  6
VERDECKT
 62
     1
 10
50.2000000000000313
 20
62.0000000000000071
 30
-0.0000000000000138
 11
50.2000000000000313
 21
67.9999999999999858
 31
-0.0000000000000151
210
-0.0000000000000002
220
1.0
230
-0.0000000000000002
  0
LINE
  5
4FB0
  8
0
  6
VERDECKT
 62
     1
 10
-49.0000000000000497
 20
61.9999999999999929
 30
-0.0000000000000138
 11
-49.0000000000000497
 21
69.9999999999999858
 31
-0.0000000000000155
210
-0.0000000000000002
220
1.0
230
-0.0000000000000002
  0
LINE
  5
4FB1
  8
0
  6
VERDECKT
 62
     1
 10
49.0000000000000213
 20
62.0000000000000071
 30
-0.0000000000000138
 11
49.0000000000000213
 21
70.0000000000000142
 31
-0.0000000000000155
210
-0.0000000000000002
220
1.0
230
-0.0000000000000002
  0
ARC
  5
4FB2
  8
0
  6
VERDECKT
 62
     1
 10
-40.2000000000000313
 20
62.0000000000000071
 30
0.0
 40
8.7999999999999918
210
0.0
220
-0.0000000000000002
230
-1.0
 50
180.0
 51
209.1143386591438116
  0
ARC
  5
4FB3
  8
0
  6
VERDECKT
 62
     1
 10
40.2000000000002728
 20
61.9999999999999432
 30
0.0
 40
8.7999999999997804
210
0.0
220
-0.0000000000000002
230
-1.0
 50
330.8856613408557905
 51
0.0000000000003181
  0
ARC
  5
4FB4
  8
0
  6
VERDECKT
 62
     1
 10
-75.1460194773271013
 20
42.5378386942690696
 30
0.0
 40
31.2000000000001911
210
0.0
220
-0.0000000000000002
230
-1.0
 50
11.2917700051424994
 51
29.1143386591438187
  0
ARC
  5
4FB5
  8
0
  6
VERDECKT
 62
     1
 10
75.1460194773268881
 20
42.5378386942691264
 30
0.0
 40
31.1999999999999389
210
0.0
220
-0.0000000000000002
230
-1.0
 50
150.8856613408559895
 51
168.7082299948575042
  0
ARC
  5
4FB6
  8
0
  6
VERDECKT
 62
     1
 10
-16.3074518232963896
 20
54.2861558683187297
 30
0.0
 40
28.7999999999998302
210
0.0
220
-0.0000000000000002
230
-1.0
 50
191.2917700051418137
 51
216.3610702188767902
  0
ARC
  5
4FB7
  8
0
  6
VERDECKT
 62
     1
 10
16.3074518232962085
 20
54.2861558683188079
 30
0.0
 40
28.8000000000000398
210
0.0
220
-0.0000000000000002
230
-1.0
 50
323.6389297811231813
 51
348.7082299948580726
  0
LINE
  5
4FB8
  8
0
  6
VERDECKT
 62
     1
 10
39.5
 20
37.211446234732783
 30
-0.0000000000000083
 11
40.4663561740293289
 21
36.5000000000000071
 31
-0.0000000000000081
210
-0.0000000000000002
220
1.0
230
-0.0000000000000002
  0
LINE
  5
4FB9
  8
0
  6
VERDECKT
 62
     1
 10
-39.5000000000000071
 20
37.2114462347327617
 30
-0.0000000000000083
 11
-40.4663561740293503
 21
36.4999999999999929
 31
-0.0000000000000081
210
-0.0000000000000002
220
1.0
230
-0.0000000000000002
  0
LINE
  5
4FBA
  8
0
  6
VERDECKT
 62
     1
 10
49.9999999999999929
 20
59.9611847569064125
 30
-0.0000000000000133
 11
-50.0000000000000071
 21
59.9611847569063769
 31
-0.0000000000000133
210
-0.0000000000000002
220
1.0
230
-0.0000000000000002
  0
ARC
  5
4FBB
  8
0
  6
VERDECKT
 62
     1
 10
-55.9999999999999787
 20
65.0000000000000142
 30
0.0
 40
2.9999999999999818
210
0.0
220
-0.0000000000000002
230
-1.0
 50
27.4635841578799713
 51
90.0000000000002558
  0
ARC
  5
4FBC
  8
0
  6
VERDECKT
 62
     1
 10
56.0000000000000071
 20
64.9999999999999858
 30
0.0
 40
2.9999999999999858
210
0.0
220
-0.0000000000000002
230
-1.0
 50
89.99999999999973
 51
152.5364158421199932
  0
LINE
  5
4FBD
  8
0
  6
VERDECKT
 62
     1
 10
-50.0000000000000071
 20
59.9611847569063912
 30
-0.0000000000000133
 11
-53.3380876085087792
 21
66.3835542707192161
 31
-0.0000000000000147
210
-0.0000000000000002
220
1.0
230
-0.0000000000000002
  0
LINE
  5
4FBE
  8
0
  6
VERDECKT
 62
     1
 10
49.9999999999999929
 20
59.9611847569064196
 30
-0.0000000000000133
 11
53.3380876085087507
 21
66.3835542707192445
 31
-0.0000000000000147
210
-0.0000000000000002
220
1.0
230
-0.0000000000000002
  0
LINE
  5
4FBF
  8
0
  6
VERDECKT
 62
     1
 10
50.0
 20
59.9611847569064125
 30
-0.0000000000000133
 11
50.887304130497057
 21
59.5
 31
-0.0000000000000132
210
-0.0000000000000002
220
1.0
230
-0.0000000000000002
  0
LINE
  5
4FC0
  8
0
  6
VERDECKT
 62
     1
 10
-50.0000000000000284
 20
59.9611847569063769
 30
-0.0000000000000133
 11
-50.8873041304970926
 21
59.4999999999999716
 31
-0.0000000000000132
210
-0.0000000000000002
220
1.0
230
-0.0000000000000002
  0
LINE
  5
4FC1
  8
0
  6
VERDECKT
 62
     1
 10
-98.5000000000000853
 20
67.9999999999999574
 30
-0.0000000000000151
 11
-98.5000000000000853
 21
66.9999999999999432
 31
-0.0000000000000149
210
-0.0000000000000002
220
1.0
230
-0.0000000000000002
  0
LINE
  5
4FC2
  8
0
  6
VERDECKT
 62
     1
 10
-106.5
 20
67.9999999999999574
 30
-0.0000000000000151
 11
-106.5
 21
66.9999999999999432
 31
-0.0000000000000149
210
-0.0000000000000002
220
1.0
230
-0.0000000000000002
  0
LINE
  5
4FC3
  8
0
  6
VERDECKT
 62
     1
 10
106.5000000000000995
 20
68.0000000000000142
 30
-0.0000000000000151
 11
106.5000000000000995
 21
67.0
 31
-0.0000000000000149
210
-0.0000000000000002
220
1.0
230
-0.0000000000000002
  0
LINE
  5
4FC4
  8
0
  6
VERDECKT
 62
     1
 10
98.5000000000000426
 20
68.0000000000000142
 30
-0.0000000000000151
 11
98.5000000000000426
 21
67.0
 31
-0.0000000000000149
210
-0.0000000000000002
220
1.0
230
-0.0000000000000002
  0
LINE
  5
4FC5
  8
0
  6
VERDECKT
 62
     1
 10
34.3092665479436008
 20
0.1488416815070584
 30
0.0
 11
-34.3092665479436008
 21
0.1488416815070432
 31
0.0
210
-0.0000000000000002
220
1.0
230
-0.0000000000000002
  0
LINE
  5
4FC6
  8
0
  6
VERDECKT
 62
     1
 10
39.9347703342132974
 20
37.0000000000000071
 30
-0.0000000000000082
 11
-39.9347703342133116
 21
37.0000000000000071
 31
-0.0000000000000082
210
-0.0000000000000002
220
1.0
230
-0.0000000000000002
  0
ARC
  5
4FC7
  8
0
  6
VERDECKT
 62
     1
 10
-34.3000000000016314
 20
8.1369670462567374
 30
0.0
 40
0.9999999999983872
210
0.0
220
-0.0000000000000002
230
-1.0
 50
179.9999999999953957
 51
187.1250163489087015
  0
ARC
  5
4FC8
  8
0
  6
VERDECKT
 62
     1
 10
34.3000000000016314
 20
8.1369670462567232
 30
0.0
 40
0.999999999998387
210
0.0
220
-0.0000000000000002
230
-1.0
 50
352.8749836510912132
 51
0.0000000000045532
  0
LINE
  5
4FC9
  8
0
  6
VERDECKT
 62
     1
 10
-35.3000000000000114
 20
8.1369670462568031
 30
-0.0000000000000018
 11
-35.3000000000000185
 21
30.0000000000000107
 31
-0.0000000000000067
210
-0.0000000000000002
220
1.0
230
-0.0000000000000002
  0
LINE
  5
4FCA
  8
0
  6
VERDECKT
 62
     1
 10
35.3000000000000114
 20
8.1369670462568173
 30
-0.0000000000000018
 11
35.3000000000000114
 21
30.0000000000000213
 31
-0.0000000000000067
210
-0.0000000000000002
220
1.0
230
-0.0000000000000002
  0
LINE
  5
4FCB
  8
0
  6
VERDECKT
 62
     1
 10
-34.3092665479436079
 20
0.1488416815070437
 30
0.0
 11
-35.2922778767136833
 21
8.0129323116675941
 31
-0.0000000000000018
210
-0.0000000000000002
220
1.0
230
-0.0000000000000002
  0
LINE
  5
4FCC
  8
0
  6
VERDECKT
 62
     1
 10
34.3092665479436079
 20
0.1488416815070589
 30
0.0
 11
35.2922778767136833
 21
8.0129323116676083
 31
-0.0000000000000018
210
-0.0000000000000002
220
1.0
230
-0.0000000000000002
  0
LINE
  5
4FCD
  8
0
  6
VERDECKT
 62
     1
 10
39.9347703342132974
 20
37.0000000000000213
 30
-0.0000000000000082
 11
40.3976700511860827
 21
36.5000000000000213
 31
-0.0000000000000081
210
-0.0000000000000002
220
1.0
230
-0.0000000000000002
  0
LINE
  5
4FCE
  8
0
  6
VERDECKT
 62
     1
 10
-39.9347703342133116
 20
37.0000000000000071
 30
-0.0000000000000082
 11
-40.3976700511860827
 21
36.5
 31
-0.0000000000000081
210
-0.0000000000000002
220
1.0
230
-0.0000000000000002
  0
LINE
  5
4FCF
  8
0
  6
VERDECKT
 62
     1
 10
-37.2879800601020506
 20
34.5496030624552333
 30
-0.0000000000000077
 11
-39.9347703342133116
 21
37.0000000000000071
 31
-0.0000000000000082
210
-0.0000000000000002
220
1.0
230
-0.0000000000000002
  0
LINE
  5
4FD0
  8
0
  6
VERDECKT
 62
     1
 10
37.2879800601020293
 20
34.5496030624552475
 30
-0.0000000000000077
 11
39.9347703342132974
 21
37.0000000000000284
 31
-0.0000000000000082
210
-0.0000000000000002
220
1.0
230
-0.0000000000000002
  0
ARC
  5
4FD1
  8
0
  6
VERDECKT
 62
     1
 10
-41.4999999999999432
 20
30.0000000000000497
 30
0.0
 40
6.1999999999999469
210
0.0
220
-0.0000000000000002
230
-1.0
 50
359.9999999999997726
 51
47.2065004727363515
  0
ARC
  5
4FD2
  8
0
  6
VERDECKT
 62
     1
 10
41.5000000000000497
 20
29.9999999999999787
 30
0.0
 40
6.2000000000000481
210
0.0
220
-0.0000000000000002
230
-1.0
 50
132.7934995272640037
 51
179.999999999999801
  0
LINE
  5
4FD3
  8
0
  6
VERDECKT
 62
     1
 10
34.3092665479436079
 20
0.1488416815070586
 30
0.0
 11
35.5000000000000071
 21
0.0000000000000085
 31
0.0
210
-0.0000000000000002
220
1.0
230
-0.0000000000000002
  0
LINE
  5
4FD4
  8
0
  6
VERDECKT
 62
     1
 10
-34.3092665479436079
 20
0.1488416815070434
 30
0.0
 11
-35.5000000000000071
 21
-0.0000000000000072
 31
0.0
210
-0.0000000000000002
220
1.0
230
-0.0000000000000002
  0
LINE
  5
4FD5
  8
0
  6
VERDECKT
 62
     1
 10
-36.9983424251904935
 20
-58.0000000000001421
 30
0.0000000000000129
 11
0.0016575748095193
 21
-58.0000000000001421
 31
0.0000000000000129
210
-0.0000000000000002
220
1.0
230
-0.0000000000000002
  0
LINE
  5
4FD6
  8
0
  6
VERDECKT
 62
     1
 10
0.0016575748095275
 20
-58.0000000000001421
 30
0.0000000000000129
 11
37.001657574809542
 21
-58.0000000000001421
 31
0.0000000000000129
210
-0.0000000000000002
220
1.0
230
-0.0000000000000002
  0
LINE
  5
4FD7
  8
0
  6
VERDECKT
 62
     1
 10
-31.9983424251904793
 20
-73.0000000000001421
 30
0.0000000000000162
 11
0.0016575748095227
 21
-73.0000000000001421
 31
0.0000000000000162
210
-0.0000000000000002
220
1.0
230
-0.0000000000000002
  0
LINE
  5
4FD8
  8
0
  6
VERDECKT
 62
     1
 10
0.001657574809535
 20
-73.0000000000001421
 30
0.0000000000000162
 11
32.0016575748095278
 21
-73.0000000000001279
 31
0.0000000000000162
210
-0.0000000000000002
220
1.0
230
-0.0000000000000002
  0
LINE
  5
4FD9
  8
0
  6
VERDECKT
 62
     1
 10
37.001657574809542
 20
-58.0000000000001421
 30
0.0000000000000129
 11
37.001657574809542
 21
-68.0000000000001279
 31
0.0000000000000151
210
-0.0000000000000002
220
1.0
230
-0.0000000000000002
  0
LINE
  5
4FDA
  8
0
  6
VERDECKT
 62
     1
 10
-36.9983424251904793
 20
-58.0000000000001421
 30
0.0000000000000129
 11
-36.9983424251904793
 21
-68.0000000000001563
 31
0.0000000000000151
210
-0.0000000000000002
220
1.0
230
-0.0000000000000002
  0
LINE
  5
4FDB
  8
0
  6
VERDECKT
 62
     1
 10
-36.9983424251904793
 20
-58.0000000000001421
 30
0.0000000000000129
 11
-37.9105961876063304
 21
-52.8263518223331801
 31
0.0000000000000117
210
-0.0000000000000002
220
1.0
230
-0.0000000000000002
  0
LINE
  5
4FDC
  8
0
  6
VERDECKT
 62
     1
 10
37.001657574809542
 20
-58.0000000000001421
 30
0.0000000000000129
 11
37.9139113372253789
 21
-52.8263518223331729
 31
0.0000000000000117
210
-0.0000000000000002
220
1.0
230
-0.0000000000000002
  0
ARC
  5
4FDD
  8
0
  6
VERDECKT
 62
     1
 10
38.8954039406185288
 20
-53.0000000000001279
 30
0.0
 40
1.0000000000000071
210
0.0
220
-0.0000000000000002
230
-1.0
 50
90.0000000000003979
 51
169.9999999999990052
  0
ARC
  5
4FDE
  8
0
  6
VERDECKT
 62
     1
 10
-38.8987190902375914
 20
-53.0000000000001066
 30
0.0
 40
1.0000000000000071
210
0.0
220
-0.0000000000000002
230
-1.0
 50
10.0000000000009308
 51
89.9999999999995737
  0
LINE
  5
4FDF
  8
0
  6
VERDECKT
 62
     1
 10
40.177323378978592
 20
-70.4725600474013305
 30
0.0000000000000156
 11
41.001657574809542
 21
-72.0000000000001279
 31
0.000000000000016
210
-0.0000000000000002
220
1.0
230
-0.0000000000000002
  0
LINE
  5
4FE0
  8
0
  6
VERDECKT
 62
     1
 10
-40.1740082293595293
 20
-70.4725600474013589
 30
0.0000000000000156
 11
-40.9983424251904722
 21
-72.0000000000001563
 31
0.000000000000016
210
-0.0000000000000002
220
1.0
230
-0.0000000000000002
  0
ARC
  5
4FE1
  8
0
  6
VERDECKT
 62
     1
 10
39.3819886040203784
 20
-70.9000000000001762
 30
0.0
 40
0.900000000000033
210
0.0
220
-0.0000000000000002
230
-1.0
 50
28.3550060284115411
 51
89.9999999999986358
  0
ARC
  5
4FE2
  8
0
  6
VERDECKT
 62
     1
 10
39.381988604020421
 20
-70.9000000000001762
 30
0.0
 40
0.9000000000000342
210
0.0
220
-0.0000000000000002
230
-1.0
 50
90.0000000000013358
 51
175.3175831377299119
  0
ARC
  5
4FE3
  8
0
  6
VERDECKT
 62
     1
 10
-39.3853037536394766
 20
-70.9000000000001336
 30
0.0
 40
0.9000000000000264
210
0.0
220
-0.0000000000000002
230
-1.0
 50
4.6824168622700659
 51
89.9999999999986358
  0
ARC
  5
4FE4
  8
0
  6
VERDECKT
 62
     1
 10
-39.385303753639441
 20
-70.9000000000001336
 30
0.0
 40
0.9000000000000342
210
0.0
220
-0.0000000000000002
230
-1.0
 50
90.0000000000013358
 51
151.6449939715884057
  0
LINE
  5
4FE5
  8
0
  6
VERDECKT
 62
     1
 10
39.3853037536394623
 20
-70.0000000000001137
 30
0.0000000000000155
 11
-39.3819886040203997
 21
-70.0000000000001421
 31
0.0000000000000155
210
-0.0000000000000002
220
1.0
230
-0.0000000000000002
  0
ARC
  5
4FE6
  8
0
  6
VERDECKT
 62
     1
 10
34.4983424251906285
 20
-70.5000000000002132
 30
0.0
 40
3.9999999999998379
210
0.0
220
-0.0000000000000002
230
-1.0
 50
337.9756871629576835
 51
355.3175831377308214
  0
ARC
  5
4FE7
  8
0
  6
VERDECKT
 62
     1
 10
-34.5016575748096912
 20
-70.5000000000001847
 30
0.0
 40
3.9999999999998379
210
0.0
220
-0.0000000000000002
230
-1.0
 50
184.6824168622690934
 51
202.0243128370422028
  0
LINE
  5
4FE8
  8
0
  6
VERDECKT
 62
     1
 10
32.001657574809542
 20
-73.0000000000001279
 30
0.0000000000000162
 11
32.001657574809542
 21
-74.5000000000001279
 31
0.0000000000000165
210
-0.0000000000000002
220
1.0
230
-0.0000000000000002
  0
LINE
  5
4FE9
  8
0
  6
VERDECKT
 62
     1
 10
-31.9983424251904793
 20
-73.0000000000001421
 30
0.0000000000000162
 11
-31.9983424251904793
 21
-74.5000000000001421
 31
0.0000000000000165
210
-0.0000000000000002
220
1.0
230
-0.0000000000000002
  0
ARC
  5
4FEA
  8
0
  6
VERDECKT
 62
     1
 10
31.9983424251904793
 20
-68.0000000000001421
 30
0.0
 40
5.0
210
0.0
220
-0.0000000000000002
230
-1.0
 50
270.0
 51
359.9999999999998863
  0
ARC
  5
4FEB
  8
0
  6
VERDECKT
 62
     1
 10
-32.001657574809542
 20
-68.0000000000001279
 30
0.0
 40
5.0
210
0.0
220
-0.0000000000000002
230
-1.0
 50
180.0
 51
270.0
  0
ENDBLK
  5
4FED
  8
0
  0
ENDSEC
  0
SECTION
  2
ENTITIES
  0
TEXT
  5
3D7
  8
VOLL
 10
78.076754716981128
 20
31.025947764705851
 30
0.0
 40
1.8
  1

  7
GREEKS
  0
INSERT
  5
AD0
  8
ADSK_ASSOC_ENTITY_BACKUPS
  2
*S0
 10
0.0
 20
0.0
 30
0.0
  0
INSERT
  5
4ED7
  8
STEMPEL
  2
A$C5E4D5AFF
 10
0.0
 20
-250.0
 30
0.0
  0
INSERT
  5
4F5E
  8
STEMPEL
  2
A$CF4D0EF28
 10
0.0
 20
0.0
 30
0.0
  0
INSERT
  5
4FEE
  8
STEMPEL
  2
A$C817AED6B
 10
500.0
 20
0.0
 30
0.0
  0
VIEWPORT
  5
AAD
 67
     1
  8
0
 10
296.7534857645576949
 20
209.7423056471700988
 30
0.0
 40
795.6883637233959234
 41
422.1649484536083037
 68
     1
 69
     1
1001
ACAD
1000
MVIEW
1002
{
1070
    16
1010
0.0
1020
0.0
1030
0.0
1010
0.0
1020
0.0
1030
1.0
1040
0.0
1040
422.1649484536083037
1040
296.7534857645576949
1040
209.7423056471700988
1040
50.0
1040
0.0
1040
0.0
1070
     0
1070
  1500
1070
     1
1070
     1
1070
     0
1070
     0
1070
     0
1070
     0
1040
0.0
1040
0.0
1040
0.0
1040
10.0
1040
10.0
1040
10.0
1040
10.0
1070
     0
1002
{
1002
}
1002
}
  0
TEXT
  5
CB0
 67
     1
  8
VOLL
 10
625.5592565604117681
 20
227.4217200880700887
 30
0.0
 40
3.6000000000000001
  1

  7
GREEKS
  0
TEXT
  5
13FD
 67
     1
  8
VOLL
 10
1136.2020779486761057
 20
544.3446897115051115
 30
0.0
 40
1.8
  1

  7
GREEKS
  0
TEXT
  5
13FE
 67
     1
  8
VOLL
 10
1257.6048466178569925
 20
751.6650977567676364
 30
0.0
 40
1.8
  1

  7
GREEKS
  0
TEXT
  5
13FF
 67
     1
  8
VOLL
 10
1587.438057582276997
 20
568.0756737226744235
 30
0.0
 40
1.8
  1

  7
GREEKS
  0
TEXT
  5
1400
 67
     1
  8
VOLL
 10
1583.6057810679399154
 20
556.8718499942134486
 30
0.0
 40
1.8
  1

  7
GREEKS
  0
TEXT
  5
147D
 67
     1
  8
VOLL
 10
541.8878355258799502
 20
83.5838184280439549
 30
0.0
 40
3.6000000000000001
  1

  7
GREEKS
  0
ENDSEC
  0
EOF
