  0
SECTION
  2
HEADER
  9
$ACADVER
  1
AC1009
  9
$INSBASE
 10
0.0
 20
0.0
 30
0.0
  9
$EXTMIN
 10
-149.9999999999537863
 20
-375.9998957656650873
 30
-0.0000000000000189
  9
$EXTMAX
 10
390.0000000000487148
 20
366.0000000000001137
 30
0.0000000000001379
  9
$LIMMIN
 10
0.0
 20
0.0
  9
$LIMMAX
 10
1681.9999999999990905
 20
1188.0
  9
$ORTHOMODE
 70
     1
  9
$REGENMODE
 70
     1
  9
$FILLMODE
 70
     1
  9
$QTEXTMODE
 70
     0
  9
$MIRRTEXT
 70
     1
  9
$DRAGMODE
 70
     2
  9
$LTSCALE
 40
20.0
  9
$OSMODE
 70
   511
  9
$ATTMODE
 70
     1
  9
$TEXTSIZE
 40
3.5
  9
$TRACEWID
 40
1.0
  9
$TEXTSTYLE
  7
STANDARD
  9
$CLAYER
  8
STEMPEL
  9
$CELTYPE
  6
BYLAYER
  9
$CECOLOR
 62
   256
  9
$DIMSCALE
 40
1.0
  9
$DIMASZ
 40
3.5
  9
$DIMEXO
 40
1.0
  9
$DIMDLI
 40
0.38
  9
$DIMRND
 40
0.0
  9
$DIMDLE
 40
0.0
  9
$DIMEXE
 40
1.0
  9
$DIMTP
 40
0.0
  9
$DIMTM
 40
0.000000001
  9
$DIMTXT
 40
3.5
  9
$DIMCEN
 40
0.09
  9
$DIMTSZ
 40
0.0
  9
$DIMTOL
 70
     0
  9
$DIMLIM
 70
     0
  9
$DIMTIH
 70
     0
  9
$DIMTOH
 70
     0
  9
$DIMSE1
 70
     0
  9
$DIMSE2
 70
     0
  9
$DIMTAD
 70
     1
  9
$DIMZIN
 70
     8
  9
$DIMBLK
  1

  9
$DIMASO
 70
     1
  9
$DIMSHO
 70
     0
  9
$DIMPOST
  1

  9
$DIMAPOST
  1

  9
$DIMALT
 70
     0
  9
$DIMALTD
 70
     2
  9
$DIMALTF
 40
25.3999999999999986
  9
$DIMLFAC
 40
2.0
  9
$DIMTOFL
 70
     1
  9
$DIMTVP
 40
0.0
  9
$DIMTIX
 70
     0
  9
$DIMSOXD
 70
     0
  9
$DIMSAH
 70
     0
  9
$DIMBLK1
  1

  9
$DIMBLK2
  1

  9
$DIMSTYLE
  2
LORO
  9
$DIMCLRD
 70
     0
  9
$DIMCLRE
 70
     0
  9
$DIMCLRT
 70
     1
  9
$DIMTFAC
 40
0.5
  9
$DIMGAP
 40
1.5
  9
$LUNITS
 70
     2
  9
$LUPREC
 70
     2
  9
$SKETCHINC
 40
1.0
  9
$FILLETRAD
 40
16.0
  9
$AUNITS
 70
     0
  9
$AUPREC
 70
     0
  9
$MENU
  1
ACAD
  9
$ELEVATION
 40
0.0
  9
$PELEVATION
 40
0.0
  9
$THICKNESS
 40
0.0
  9
$LIMCHECK
 70
     0
  9
$BLIPMODE
 70
     0
  9
$CHAMFERA
 40
2.0
  9
$CHAMFERB
 40
2.0
  9
$SKPOLY
 70
     0
  9
$TDCREATE
 40
2455397.867048610933125
  9
$TDUPDATE
 40
2459636.6130902781151235
  9
$TDINDWG
 40
3.7242594443999999
  9
$TDUSRTIMER
 40
3.7242594443999999
  9
$USRTIMER
 70
     1
  9
$ANGBASE
 50
0.0
  9
$ANGDIR
 70
     0
  9
$PDMODE
 70
     0
  9
$PDSIZE
 40
0.0
  9
$PLINEWID
 40
0.0
  9
$COORDS
 70
     1
  9
$SPLFRAME
 70
     0
  9
$SPLINETYPE
 70
     6
  9
$SPLINESEGS
 70
     8
  9
$ATTDIA
 70
     1
  9
$ATTREQ
 70
     1
  9
$HANDLING
 70
     1
  9
$HANDSEED
  5
1B29E
  9
$SURFTAB1
 70
     6
  9
$SURFTAB2
 70
     6
  9
$SURFTYPE
 70
     6
  9
$SURFU
 70
     6
  9
$SURFV
 70
     6
  9
$UCSNAME
  2

  9
$UCSORG
 10
0.0
 20
0.0
 30
0.0
  9
$UCSXDIR
 10
1.0
 20
0.0
 30
0.0
  9
$UCSYDIR
 10
0.0
 20
1.0
 30
0.0
  9
$PUCSNAME
  2

  9
$PUCSORG
 10
0.0
 20
0.0
 30
0.0
  9
$PUCSXDIR
 10
1.0
 20
0.0
 30
0.0
  9
$PUCSYDIR
 10
0.0
 20
1.0
 30
0.0
  9
$USERI1
 70
     0
  9
$USERI2
 70
     0
  9
$USERI3
 70
     0
  9
$USERI4
 70
     0
  9
$USERI5
 70
     0
  9
$USERR1
 40
0.0
  9
$USERR2
 40
0.0
  9
$USERR3
 40
0.0
  9
$USERR4
 40
0.0
  9
$USERR5
 40
0.0
  9
$WORLDVIEW
 70
     1
  9
$SHADEDGE
 70
     3
  9
$SHADEDIF
 70
    70
  9
$TILEMODE
 70
     1
  9
$MAXACTVP
 70
    16
  9
$PLIMCHECK
 70
     0
  9
$PEXTMIN
 10
1.0000000000000000E+20
 20
1.0000000000000000E+20
 30
1.0000000000000000E+20
  9
$PEXTMAX
 10
-1.0000000000000000E+20
 20
-1.0000000000000000E+20
 30
-1.0000000000000000E+20
  9
$PLIMMIN
 10
-2.9604201121412839
 20
-2.0951699206623071
  9
$PLIMMAX
 10
596.9795798878586766
 20
422.1048300793376029
  9
$UNITMODE
 70
     0
  9
$VISRETAIN
 70
     0
  9
$PLINEGEN
 70
     0
  9
$PSLTSCALE
 70
     0
  0
ENDSEC
  0
SECTION
  2
TABLES
  0
TABLE
  2
VPORT
 70
     1
  0
VPORT
  2
*ACTIVE
 70
     0
 10
0.0
 20
0.0
 11
1.0
 21
1.0
 12
143.8478469583085086
 22
-198.3507028309888085
 13
0.0
 23
0.0
 14
1.0
 24
1.0
 15
10.0
 25
10.0
 16
-0.0000000000007958
 26
0.0
 36
3066.9639702400668284
 17
-23.8478469582610693
 27
193.350754948156208
 37
-0.0000000000000155
 40
745.7952916519345763
 41
1.8720136518771331
 42
50.0
 43
0.0
 44
0.0
 50
0.0
 51
0.0
 71
     0
 72
  1500
 73
     1
 74
     0
 75
     0
 76
     0
 77
     0
 78
     0
  0
ENDTAB
  0
TABLE
  2
LTYPE
 70
     3
  0
LTYPE
  2
CONTINUOUS
 70
     0
  3
Solid line
 72
    65
 73
     0
 40
0.0
  0
LTYPE
  2
STRICHPUNKT
 70
     0
  3
__ . __ . __ . __ . __ . __ . __ . __ . __ . __
 72
    65
 73
     4
 40
1.0
 49
0.5
 49
-0.25
 49
0.0
 49
-0.25
  0
LTYPE
  2
VERDECKT
 70
     0
  3
Verdeckt __ __ __ __ __ __ __ __ __ __ __ __ __
 72
    65
 73
     2
 40
0.375
 49
0.25
 49
-0.125
  0
ENDTAB
  0
TABLE
  2
LAYER
 70
     7
  0
LAYER
  2
0
 70
     0
 62
     7
  6
CONTINUOUS
  0
LAYER
  2
VOLL
 70
     0
 62
     1
  6
CONTINUOUS
  0
LAYER
  2
STEMPEL
 70
     0
 62
     3
  6
CONTINUOUS
  0
LAYER
  2
DEFPOINTS
 70
     0
 62
     7
  6
CONTINUOUS
  0
LAYER
  2
ADSK_ASSOC_ENTITY_BACKUPS
 70
     1
 62
    -7
  6
CONTINUOUS
  0
ENDTAB
  0
TABLE
  2
STYLE
 70
     3
  0
STYLE
  2
STANDARD
 70
     0
 40
0.0
 41
0.8
 50
0.0
 71
     0
 42
3.5
  3
simplex.shx
  4

  0
STYLE
  2
GREEKS
 70
     0
 40
0.0
 41
0.8
 50
0.0
 71
     0
 42
2.5
  3
SIMPLEX.shx
  4

  0
ENDTAB
  0
TABLE
  2
VIEW
 70
     0
  0
ENDTAB
  0
TABLE
  2
UCS
 70
     0
  0
ENDTAB
  0
TABLE
  2
APPID
 70
    30
  0
APPID
  2
ACAD
 70
     0
  0
APPID
  2
ACAD_EXEMPT_FROM_CAD_STANDARDS
 70
     0
  0
APPID
  2
ACAD_NAV_VCDISPLAY
 70
     0
  0
APPID
  2
GRADIENTCOLOR1ACI
 70
     0
  0
APPID
  2
GRADIENTCOLOR2ACI
 70
     0
  0
APPID
  2
ACAUTHENVIRON
 70
     0
  0
APPID
  2
ACDBDYNAMICBLOCKTRUENAME
 70
     0
  0
APPID
  2
ACDBDYNAMICBLOCKGUID
 70
     0
  0
APPID
  2
ACAD_PSEXT
 70
     0
  0
APPID
  2
ACAD_MLEADERVER
 70
     0
  0
APPID
  2
ACAECLAYERSTANDARD
 70
     0
  0
APPID
  2
ACCMTRANSPARENCY
 70
     0
  0
APPID
  2
ACAD_STEPID
 70
     0
  0
APPID
  2
ACSYNERGY
 70
     0
  0
APPID
  2
SYNERGY_BODY_TBR_ID
 70
     0
  0
APPID
  2
ACAD_VIEW_EDGE_ID
 70
     0
  0
APPID
  2
ACAD_DSTYLE_DIMJAG
 70
     0
  0
APPID
  2
ACAD_DSTYLE_DIMBREAK
 70
     0
  0
APPID
  2
ACAD_DSTYLE_DIMTALN
 70
     0
  0
APPID
  2
ACADANNOMONITORALERTICONDI
 70
     0
  0
APPID
  2
ACAD_DIMASSOC_CALC_DIMLFAC
 70
     0
  0
APPID
  2
ACAD_DIMASSOC_DIMLFAC
 70
     0
  0
APPID
  2
ACAD_DIMASSOC_OVERRIDDEN_D
 70
     0
  0
APPID
  2
ACAD_DSTYLE_DIMRADIAL_EXTENSION
 70
     0
  0
APPID
  2
ACADANNOPO
 70
     0
  0
APPID
  2
ACSYNERGYSKETCH
 70
     0
  0
APPID
  2
ACAD_MODELDOC_XFORM
 70
     0
  0
APPID
  2
SYNERGY_EXCLUDED_FROM_SNAPSHOT
 70
     0
  0
APPID
  2
PLOTTRANSPARENCY
 70
     0
  0
APPID
  2
ACAD_TC
 70
     0
  0
ENDTAB
  0
TABLE
  2
DIMSTYLE
 70
     2
  0
DIMSTYLE
  2
STANDARD
 70
     0
  3

  4

  5

  6

  7

 40
1.0
 41
0.18
 42
0.0625
 43
0.38
 44
0.18
 45
0.0
 46
0.0
 47
0.0
 48
0.0
140
0.18
141
0.09
142
0.0
143
25.3999999999999986
144
1.0
145
0.0
146
1.0
147
0.09
 71
     0
 72
     0
 73
     1
 74
     1
 75
     0
 76
     0
 77
     0
 78
     0
170
     0
171
     2
172
     0
173
     0
174
     0
175
     0
176
     0
177
     0
178
     0
  0
DIMSTYLE
  2
LORO
 70
     0
  3

  4

  5

  6

  7

 40
1.0
 41
3.5
 42
1.0
 43
0.38
 44
1.0
 45
0.0
 46
0.0
 47
0.0
 48
0.000000001
140
3.5
141
0.09
142
0.0
143
25.3999999999999986
144
2.0
145
0.0
146
0.5
147
1.5
 71
     0
 72
     0
 73
     0
 74
     0
 75
     0
 76
     0
 77
     1
 78
     8
170
     0
171
     2
172
     1
173
     0
174
     0
175
     0
176
     0
177
     0
178
     1
  0
ENDTAB
  0
ENDSEC
  0
SECTION
  2
BLOCKS
  0
BLOCK
  8
0
  2
$MODEL_SPACE
 70
     0
 10
0.0
 20
0.0
 30
0.0
  3
$MODEL_SPACE
  1

  0
ENDBLK
  5
38
  8
0
  0
BLOCK
 67
     1
  8
0
  2
$PAPER_SPACE
 70
     0
 10
0.0
 20
0.0
 30
0.0
  3
$PAPER_SPACE
  1

  0
ENDBLK
  5
36
 67
     1
  8
0
  0
BLOCK
  8
0
  2
*S0
 70
     1
 10
0.0
 20
0.0
 30
0.0
  3
*S0
  1

  0
ENDBLK
  5
46EF
  8
0
  0
BLOCK
  8
0
  2
A$C67BC2F38
 70
     0
 10
0.0
 20
0.0
 30
0.0
  3
A$C67BC2F38
  1

  0
LINE
  5
1B0FF
  8
0
  6
CONTINUOUS
 62
     3
 10
-75.4999999999998863
 20
-56.9998957656648599
 30
-0.0000000000000127
 11
75.5000000000001137
 21
-56.9998957656648599
 31
-0.0000000000000127
210
0.0
220
1.0
230
0.0000000000000002
  0
LINE
  5
1B100
  8
0
  6
CONTINUOUS
 62
     3
 10
-71.4801488286689164
 20
-59.9998957656648599
 30
-0.0000000000000133
 11
71.4801488286691438
 21
-59.9998957656648599
 31
-0.0000000000000133
210
0.0
220
1.0
230
0.0000000000000002
  0
LINE
  5
1B101
  8
0
  6
CONTINUOUS
 62
     3
 10
-73.2999999999998835
 20
-64.9998957656648599
 30
-0.0000000000000144
 11
73.3000000000001108
 21
-64.9998957656648599
 31
-0.0000000000000144
210
0.0
220
1.0
230
0.0000000000000002
  0
LINE
  5
1B102
  8
0
  6
CONTINUOUS
 62
     3
 10
-73.2999999999998835
 20
-68.0998957656648827
 30
-0.0000000000000151
 11
73.3000000000001108
 21
-68.0998957656648827
 31
-0.0000000000000151
210
0.0
220
1.0
230
0.0000000000000002
  0
LINE
  5
1B103
  8
0
  6
CONTINUOUS
 62
     3
 10
-75.6999999999999318
 20
-70.4998957656648599
 30
-0.0000000000000157
 11
75.7000000000001592
 21
-70.4998957656648599
 31
-0.0000000000000157
210
0.0
220
1.0
230
0.0000000000000002
  0
LINE
  5
1B104
  8
0
  6
CONTINUOUS
 62
     3
 10
-75.6999999999999318
 20
-71.4998957656648599
 30
-0.0000000000000159
 11
75.7000000000001592
 21
-71.4998957656648599
 31
-0.0000000000000159
210
0.0
220
1.0
230
0.0000000000000002
  0
LINE
  5
1B105
  8
0
  6
CONTINUOUS
 62
     3
 10
-73.4999999999998863
 20
-73.6998957656649054
 30
-0.0000000000000164
 11
73.5000000000001137
 21
-73.6998957656649054
 31
-0.0000000000000164
210
0.0
220
1.0
230
0.0000000000000002
  0
LINE
  5
1B106
  8
0
  6
CONTINUOUS
 62
     3
 10
-73.4999999999998863
 20
-76.1893839890133222
 30
-0.0000000000000169
 11
73.5000000000001137
 21
-76.1893839890133222
 31
-0.0000000000000169
210
0.0
220
1.0
230
0.0000000000000002
  0
LINE
  5
1B107
  8
0
  6
CONTINUOUS
 62
     3
 10
-75.6999999999999318
 20
-79.9998957656648599
 30
-0.0000000000000178
 11
75.7000000000001592
 21
-79.9998957656648599
 31
-0.0000000000000178
210
0.0
220
1.0
230
0.0000000000000002
  0
LINE
  5
1B108
  8
0
  6
CONTINUOUS
 62
     3
 10
-64.4999999999997726
 20
-80.9998957656648741
 30
-0.000000000000018
 11
64.5
 21
-80.9998957656648741
 31
-0.000000000000018
210
0.0
220
1.0
230
0.0000000000000002
  0
LINE
  5
1B109
  8
0
  6
CONTINUOUS
 62
     3
 10
-71.4999999999999716
 20
-50.0000000000002771
 30
-0.0000000000000111
 11
71.5000000000001847
 21
-50.0000000000002771
 31
-0.0000000000000111
210
0.0
220
1.0
230
0.0000000000000002
  0
ARC
  5
1B10A
  8
0
  6
CONTINUOUS
 62
     3
 10
70.9999999999998721
 20
-57.9998957656648528
 30
0.0
 40
0.9999999999999857
210
0.0
220
0.0000000000000002
230
-1.0
 50
89.9999999999992042
 51
180.0000000000007105
  0
ARC
  5
1B10B
  8
0
  6
CONTINUOUS
 62
     3
 10
-71.0000000000000995
 20
-57.9998957656648528
 30
0.0
 40
0.9999999999999857
210
0.0
220
0.0000000000000002
230
-1.0
 50
359.9999999999992042
 51
90.00000000000081
  0
LINE
  5
1B10C
  8
0
  6
CONTINUOUS
 62
     3
 10
70.0000000000001137
 20
-57.9998957656648599
 30
-0.0000000000000129
 11
70.0000000000001137
 21
-58.9998957656648599
 31
-0.0000000000000131
210
0.0
220
1.0
230
0.0000000000000002
  0
LINE
  5
1B10D
  8
0
  6
CONTINUOUS
 62
     3
 10
-69.9999999999998863
 20
-57.9998957656648599
 30
-0.0000000000000129
 11
-69.9999999999998863
 21
-58.9998957656648599
 31
-0.0000000000000131
210
0.0
220
1.0
230
0.0000000000000002
  0
ARC
  5
1B10E
  8
0
  6
CONTINUOUS
 62
     3
 10
70.9999999999998721
 20
-58.999895765664867
 30
0.0
 40
0.9999999999999857
210
0.0
220
0.0000000000000002
230
-1.0
 50
179.9999999999992042
 51
270.0000000000007958
  0
ARC
  5
1B10F
  8
0
  6
CONTINUOUS
 62
     3
 10
-71.0000000000000995
 20
-58.999895765664867
 30
0.0
 40
0.9999999999999857
210
0.0
220
0.0000000000000002
230
-1.0
 50
270.0
 51
0.0000000000016284
  0
LINE
  5
1B110
  8
0
  6
CONTINUOUS
 62
     3
 10
71.4801488286691438
 20
-59.9998957656648599
 30
-0.0000000000000133
 11
73.3000000000001251
 21
-64.9998957656648599
 31
-0.0000000000000144
210
0.0
220
1.0
230
0.0000000000000002
  0
LINE
  5
1B111
  8
0
  6
CONTINUOUS
 62
     3
 10
-71.4801488286689164
 20
-59.9998957656648599
 30
-0.0000000000000133
 11
-73.2999999999998977
 21
-64.9998957656648599
 31
-0.0000000000000144
210
0.0
220
1.0
230
0.0000000000000002
  0
LINE
  5
1B112
  8
0
  6
CONTINUOUS
 62
     3
 10
73.3000000000001251
 20
-64.9998957656648599
 30
-0.0000000000000144
 11
73.3000000000001251
 21
-68.0998957656648827
 31
-0.0000000000000151
210
0.0
220
1.0
230
0.0000000000000002
  0
LINE
  5
1B113
  8
0
  6
CONTINUOUS
 62
     3
 10
-73.2999999999998977
 20
-64.9998957656648599
 30
-0.0000000000000144
 11
-73.2999999999998977
 21
-68.0998957656648827
 31
-0.0000000000000151
210
0.0
220
1.0
230
0.0000000000000002
  0
LINE
  5
1B114
  8
0
  6
CONTINUOUS
 62
     3
 10
73.3000000000001251
 20
-68.0998957656648827
 30
-0.0000000000000151
 11
75.7000000000001592
 21
-70.4998957656648599
 31
-0.0000000000000157
210
0.0
220
1.0
230
0.0000000000000002
  0
LINE
  5
1B115
  8
0
  6
CONTINUOUS
 62
     3
 10
-73.2999999999998977
 20
-68.0998957656648827
 30
-0.0000000000000151
 11
-75.6999999999999318
 21
-70.4998957656648599
 31
-0.0000000000000157
210
0.0
220
1.0
230
0.0000000000000002
  0
LINE
  5
1B116
  8
0
  6
CONTINUOUS
 62
     3
 10
75.7000000000001592
 20
-70.4998957656648599
 30
-0.0000000000000157
 11
75.7000000000001592
 21
-71.4998957656648599
 31
-0.0000000000000159
210
0.0
220
1.0
230
0.0000000000000002
  0
LINE
  5
1B117
  8
0
  6
CONTINUOUS
 62
     3
 10
-75.6999999999999318
 20
-70.4998957656648599
 30
-0.0000000000000157
 11
-75.6999999999999318
 21
-71.4998957656648599
 31
-0.0000000000000159
210
0.0
220
1.0
230
0.0000000000000002
  0
LINE
  5
1B118
  8
0
  6
CONTINUOUS
 62
     3
 10
-73.4999999999998863
 20
-73.6998957656649054
 30
-0.0000000000000164
 11
-75.6999999999999318
 21
-71.4998957656648599
 31
-0.0000000000000159
210
0.0
220
1.0
230
0.0000000000000002
  0
LINE
  5
1B119
  8
0
  6
CONTINUOUS
 62
     3
 10
73.5000000000001137
 20
-73.6998957656649054
 30
-0.0000000000000164
 11
75.7000000000001592
 21
-71.4998957656648599
 31
-0.0000000000000159
210
0.0
220
1.0
230
0.0000000000000002
  0
LINE
  5
1B11A
  8
0
  6
CONTINUOUS
 62
     3
 10
73.5000000000001137
 20
-73.6998957656649054
 30
-0.0000000000000164
 11
73.5000000000001137
 21
-76.1893839890133222
 31
-0.0000000000000169
210
0.0
220
1.0
230
0.0000000000000002
  0
LINE
  5
1B11B
  8
0
  6
CONTINUOUS
 62
     3
 10
-73.4999999999998863
 20
-73.6998957656649054
 30
-0.0000000000000164
 11
-73.4999999999998863
 21
-76.1893839890133222
 31
-0.0000000000000169
210
0.0
220
1.0
230
0.0000000000000002
  0
LINE
  5
1B11C
  8
0
  6
CONTINUOUS
 62
     3
 10
73.5000000000001137
 20
-76.1893839890133222
 30
-0.0000000000000169
 11
75.7000000000001592
 21
-79.9998957656648599
 31
-0.0000000000000178
210
0.0
220
1.0
230
0.0000000000000002
  0
LINE
  5
1B11D
  8
0
  6
CONTINUOUS
 62
     3
 10
-73.4999999999998863
 20
-76.1893839890133222
 30
-0.0000000000000169
 11
-75.6999999999999318
 21
-79.9998957656648599
 31
-0.0000000000000178
210
0.0
220
1.0
230
0.0000000000000002
  0
ARC
  5
1B11E
  8
0
  6
CONTINUOUS
 62
     3
 10
64.4999999999997726
 20
-74.9998957656649594
 30
0.0
 40
5.9999999999998996
210
0.0
220
0.0000000000000002
230
-1.0
 50
270.0
 51
303.5573097619210898
  0
ARC
  5
1B11F
  8
0
  6
CONTINUOUS
 62
     3
 10
-64.5
 20
-74.9998957656649594
 30
0.0
 40
5.9999999999999041
210
0.0
220
0.0000000000000002
230
-1.0
 50
236.4426902380789102
 51
270.0
  0
ARC
  5
1B120
  8
0
  6
CONTINUOUS
 62
     3
 10
71.4758400866409431
 20
-52.7998957656648784
 30
0.0
 40
2.8000000000000078
210
0.0
220
0.0000000000000002
230
-1.0
 50
15.0000000000002895
 51
89.5056149120656244
  0
ARC
  5
1B121
  8
0
  6
CONTINUOUS
 62
     3
 10
-71.4758400866411563
 20
-52.7998957656648926
 30
0.0
 40
2.8000000000000211
210
0.0
220
0.0000000000000002
230
-1.0
 50
90.4943850879346599
 51
164.9999999999996021
  0
LINE
  5
1B122
  8
0
  6
CONTINUOUS
 62
     3
 10
74.180432400250524
 20
-52.0752024393777972
 30
-0.0000000000000116
 11
75.5000000000001137
 21
-56.9998957656648599
 31
-0.0000000000000127
210
0.0
220
1.0
230
0.0000000000000002
  0
LINE
  5
1B123
  8
0
  6
CONTINUOUS
 62
     3
 10
-74.1804324002503108
 20
-52.0752024393778115
 30
-0.0000000000000116
 11
-75.4999999999998863
 21
-56.9998957656648599
 31
-0.0000000000000127
210
0.0
220
1.0
230
0.0000000000000002
  0
LINE
  5
1B124
  8
0
  6
CONTINUOUS
 62
     3
 10
-72.1603532929804459
 20
247.9999999999996874
 30
0.0000000000000551
 11
72.1603532929806732
 21
247.9999999999996874
 31
0.0000000000000551
210
0.0
220
1.0
230
0.0000000000000002
  0
CIRCLE
  5
1B125
  8
0
  6
CONTINUOUS
 62
     3
 10
129.9999999999537863
 20
345.9999999999997158
 30
0.0
 40
4.0000000000000098
210
0.0
220
0.0000000000000002
230
-1.0
  0
LINE
  5
1B126
  8
0
  6
CONTINUOUS
 62
     3
 10
95.0000000000487717
 20
365.9999999999997158
 30
0.0000000000000813
 11
95.0000000000487148
 21
345.9999999999997158
 31
0.0000000000000768
210
0.0
220
1.0
230
0.0000000000000002
  0
LINE
  5
1B127
  8
0
  6
CONTINUOUS
 62
     3
 10
95.0000000000487574
 20
365.9999999999997158
 30
0.0000000000000813
 11
93.0000000000487574
 21
365.9999999999997158
 31
0.0000000000000813
210
0.0
220
1.0
230
0.0000000000000002
  0
LINE
  5
1B128
  8
0
  6
CONTINUOUS
 62
     3
 10
93.000000000048729
 20
345.9999999999997158
 30
0.0000000000000768
 11
93.0000000000487859
 21
365.9999999999997158
 31
0.0000000000000813
210
0.0
220
1.0
230
0.0000000000000002
  0
LINE
  5
1B129
  8
0
  6
CONTINUOUS
 62
     3
 10
93.0000000000486011
 20
269.9999999999997158
 30
0.00000000000006
 11
93.000000000048729
 21
345.9999999999997158
 31
0.0000000000000768
210
0.0
220
1.0
230
0.0000000000000002
  0
LINE
  5
1B12A
  8
0
  6
CONTINUOUS
 62
     3
 10
95.0000000000485869
 20
269.9999999999997158
 30
0.00000000000006
 11
95.0000000000487148
 21
345.9999999999997158
 31
0.0000000000000768
210
0.0
220
1.0
230
0.0000000000000002
  0
ARC
  5
1B12B
  8
0
  6
CONTINUOUS
 62
     3
 10
129.9999999999537863
 20
345.9999999999997158
 30
0.0
 40
20.0
210
0.0
220
0.0000000000000002
230
-1.0
 50
359.999999999998181
 51
90.0000000000000284
  0
LINE
  5
1B12C
  8
0
  6
CONTINUOUS
 62
     3
 10
-149.9999999999513989
 20
269.9999999999997158
 30
0.00000000000006
 11
-149.9999999999537863
 21
345.9999999999990905
 31
0.0000000000000768
210
0.0
220
1.0
230
0.0000000000000002
  0
LINE
  5
1B12D
  8
0
  6
CONTINUOUS
 62
     3
 10
91.0000000000486438
 20
269.9999999999997158
 30
0.00000000000006
 11
92.9292893219300851
 21
269.9999999999997158
 31
0.00000000000006
210
0.0
220
1.0
230
0.0000000000000002
  0
LINE
  5
1B12E
  8
0
  6
CONTINUOUS
 62
     3
 10
92.9292893219299856
 20
269.9999999999997158
 30
0.00000000000006
 11
92.9292893219299856
 21
365.9999999999997158
 31
0.0000000000000813
210
0.0
220
1.0
230
0.0000000000000002
  0
LINE
  5
1B12F
  8
0
  6
CONTINUOUS
 62
     3
 10
92.929289321930014
 20
365.9999999999997158
 30
0.0000000000000813
 11
-129.9999999999537863
 21
365.9999999999997158
 31
0.0000000000000813
210
0.0
220
1.0
230
0.0000000000000002
  0
LINE
  5
1B130
  8
0
  6
CONTINUOUS
 62
     3
 10
-149.9999999999513136
 20
267.9999999999997726
 30
0.0000000000000595
 11
-149.9999999999513136
 21
269.9999999999997158
 31
0.00000000000006
210
0.0
220
1.0
230
0.0000000000000002
  0
LINE
  5
1B131
  8
0
  6
CONTINUOUS
 62
     3
 10
91.0000000000486438
 20
267.9999999999997158
 30
0.0000000000000595
 11
91.0000000000486438
 21
269.9999999999997158
 31
0.00000000000006
210
0.0
220
1.0
230
0.0000000000000002
  0
ARC
  5
1B132
  8
0
  6
CONTINUOUS
 62
     3
 10
91.0000000000485869
 20
269.9999999999997158
 30
0.00000000000006
 40
3.9999999999999778
 50
270.0
 51
0.0000000000001895
  0
ARC
  5
1B133
  8
0
  6
CONTINUOUS
 62
     3
 10
91.0000000000485869
 20
269.9999999999997158
 30
0.00000000000006
 40
2.0000000000000031
 50
270.0
 51
359.9999999999997726
  0
LINE
  5
1B134
  8
0
  6
CONTINUOUS
 62
     3
 10
-149.9999999999513136
 20
265.9999999999997158
 30
0.0000000000000591
 11
-149.9999999999513136
 21
267.9999999999997158
 31
0.0000000000000595
210
0.0
220
1.0
230
0.0000000000000002
  0
LINE
  5
1B135
  8
0
  6
CONTINUOUS
 62
     3
 10
0.0000000000486304
 20
265.9999999999997158
 30
0.0000000000000591
 11
91.0000000000485869
 21
265.9999999999997158
 31
0.0000000000000591
210
0.0
220
1.0
230
0.0000000000000002
  0
LINE
  5
1B136
  8
0
  6
CONTINUOUS
 62
     3
 10
0.0000000000486257
 20
265.9999999999997158
 30
0.0000000000000591
 11
-149.9999999999513136
 21
265.9999999999997158
 31
0.0000000000000591
210
0.0
220
1.0
230
0.0000000000000002
  0
LINE
  5
1B137
  8
0
  6
CONTINUOUS
 62
     3
 10
-149.9999999999513136
 20
267.9999999999997158
 30
0.0000000000000595
 11
0.0000000000486295
 21
267.9999999999997158
 31
0.0000000000000595
210
0.0
220
1.0
230
0.0000000000000002
  0
LINE
  5
1B138
  8
0
  6
CONTINUOUS
 62
     3
 10
91.0000000000485869
 20
267.9999999999997158
 30
0.0000000000000595
 11
0.0000000000486295
 21
267.9999999999997158
 31
0.0000000000000595
210
0.0
220
1.0
230
0.0000000000000002
  0
ARC
  5
1B139
  8
0
  6
CONTINUOUS
 62
     3
 10
77.4999999999999147
 20
262.4999999999996021
 30
0.0
 40
3.500000000000056
210
0.0
220
0.0000000000000002
230
-1.0
 50
90.0000000000006963
 51
192.8280495223822015
  0
ARC
  5
1B13A
  8
0
  6
CONTINUOUS
 62
     3
 10
-77.5000000000001705
 20
262.4999999999996021
 30
0.0
 40
3.500000000000048
210
0.0
220
0.0000000000000002
230
-1.0
 50
347.1719504776178269
 51
89.9999999999990763
  0
ARC
  5
1B13B
  8
0
  6
CONTINUOUS
 62
     3
 10
57.9673251498186701
 20
258.0522281027256213
 30
0.0
 40
16.5326748501812197
210
0.0
220
0.0000000000000002
230
-1.0
 50
342.7803027270543907
 51
12.8280495223828499
  0
ARC
  5
1B13C
  8
0
  6
CONTINUOUS
 62
     3
 10
-57.9673251498188975
 20
258.0522281027256213
 30
0.0
 40
16.5326748501812197
210
0.0
220
0.0000000000000002
230
-1.0
 50
167.1719504776170879
 51
197.2196972729454956
  0
LINE
  5
1B13D
  8
0
  6
CONTINUOUS
 62
     3
 10
-72.1603532929804459
 20
247.9999999999996874
 30
0.0000000000000551
 11
-73.7589500707289432
 21
253.1579538910472138
 31
0.0000000000000562
210
0.0
220
1.0
230
0.0000000000000002
  0
LINE
  5
1B13E
  8
0
  6
CONTINUOUS
 62
     3
 10
72.1603532929806732
 20
247.9999999999996874
 30
0.0000000000000551
 11
73.7589500707291705
 21
253.1579538910472138
 31
0.0000000000000562
210
0.0
220
1.0
230
0.0000000000000002
  0
LINE
  5
1B13F
  8
0
  6
CONTINUOUS
 62
     3
 10
-72.0000000000483737
 20
269.9999999999997158
 30
0.00000000000006
 11
72.0000000000486153
 21
269.9999999999997158
 31
0.00000000000006
210
0.0
220
1.0
230
0.0000000000000002
  0
LINE
  5
1B140
  8
0
  6
CONTINUOUS
 62
     3
 10
-65.6999999999998749
 20
-0.0000000000002884
 30
0.0
 11
65.7000000000001023
 21
-0.00000000000028
 31
0.0
210
0.0
220
1.0
230
0.0000000000000002
  0
LINE
  5
1B141
  8
0
  6
CONTINUOUS
 62
     3
 10
-68.4246378256497536
 20
245.2017394338643896
 30
0.0000000000000544
 11
-69.5194308710116502
 21
247.9999999999996874
 31
0.0000000000000551
210
0.0
220
1.0
230
0.0000000000000002
  0
LINE
  5
1B142
  8
0
  6
CONTINUOUS
 62
     3
 10
68.424637825649981
 20
245.2017394338643896
 30
0.0000000000000544
 11
69.5194308710118776
 21
247.9999999999996874
 31
0.0000000000000551
210
0.0
220
1.0
230
0.0000000000000002
  0
ARC
  5
1B143
  8
0
  6
CONTINUOUS
 62
     3
 10
94.5000000000001563
 20
234.9999999999996021
 30
0.0
 40
28.0000000000002416
210
0.0
220
0.0000000000000002
230
-1.0
 50
158.6325470100906045
 51
180.0
  0
ARC
  5
1B144
  8
0
  6
CONTINUOUS
 62
     3
 10
-94.5000000000001563
 20
234.9999999999996021
 30
0.0
 40
28.0000000000000213
210
0.0
220
0.0000000000000002
230
-1.0
 50
0.0
 51
21.3674529899095411
  0
LINE
  5
1B145
  8
0
  6
CONTINUOUS
 62
     3
 10
72.0000000000486153
 20
269.9999999999997158
 30
0.00000000000006
 11
72.0000000000486153
 21
267.9999999999997158
 31
0.0000000000000595
210
0.0
220
1.0
230
0.0000000000000002
  0
LINE
  5
1B146
  8
0
  6
CONTINUOUS
 62
     3
 10
-72.0000000000483737
 20
269.9999999999997158
 30
0.00000000000006
 11
-72.0000000000483737
 21
267.9999999999997158
 31
0.0000000000000595
210
0.0
220
1.0
230
0.0000000000000002
  0
ARC
  5
1B147
  8
0
  6
CONTINUOUS
 62
     3
 10
65.5000000000048033
 20
8.0498756211203126
 30
0.0
 40
0.999999999995083
210
0.0
220
0.0000000000000002
230
-1.0
 50
354.2894068624837018
 51
0.0000000000115009
  0
ARC
  5
1B148
  8
0
  6
CONTINUOUS
 62
     3
 10
-65.5000000000050591
 20
8.0498756211203162
 30
0.0
 40
0.9999999999950546
210
0.0
220
0.0000000000000002
230
-1.0
 50
179.9999999999884039
 51
185.7105931375162129
  0
LINE
  5
1B149
  8
0
  6
CONTINUOUS
 62
     3
 10
66.5000000000000995
 20
234.9999999999996021
 30
0.0000000000000522
 11
66.5000000000001137
 21
8.0498756211205205
 31
0.0000000000000018
210
0.0
220
1.0
230
0.0000000000000002
  0
LINE
  5
1B14A
  8
0
  6
CONTINUOUS
 62
     3
 10
-66.4999999999999005
 20
234.9999999999996021
 30
0.0000000000000522
 11
-66.4999999999998863
 21
8.0498756211205205
 31
0.0000000000000018
210
0.0
220
1.0
230
0.0000000000000002
  0
LINE
  5
1B14B
  8
0
  6
CONTINUOUS
 62
     3
 10
-65.6999999999998892
 20
-0.0000000000002891
 30
0.0
 11
-66.4950371902098709
 21
7.9503719020995129
 31
0.0000000000000018
210
0.0
220
1.0
230
0.0000000000000002
  0
LINE
  5
1B14C
  8
0
  6
CONTINUOUS
 62
     3
 10
65.7000000000001165
 20
-0.0000000000002847
 30
0.0
 11
66.4950371902100983
 21
7.9503719020995218
 31
0.0000000000000018
210
0.0
220
1.0
230
0.0000000000000002
  0
LINE
  5
1B14D
  8
0
  6
VERDECKT
 62
     1
 10
-70.6999999999999318
 20
-76.9998957656648599
 30
-0.0000000000000171
 11
70.7000000000001592
 21
-76.9998957656648599
 31
-0.0000000000000171
210
0.0
220
1.0
230
0.0000000000000002
  0
LINE
  5
1B14E
  8
0
  6
VERDECKT
 62
     1
 10
-61.4999999999998792
 20
-78.9998957656648599
 30
-0.0000000000000175
 11
61.5000000000001066
 21
-78.9998957656648599
 31
-0.0000000000000175
210
0.0
220
1.0
230
0.0000000000000002
  0
LINE
  5
1B14F
  8
0
  6
VERDECKT
 62
     1
 10
70.7000000000001592
 20
-76.9998957656648599
 30
-0.0000000000000171
 11
73.7000000000001592
 21
-79.9998957656648599
 31
-0.0000000000000178
210
0.0
220
1.0
230
0.0000000000000002
  0
LINE
  5
1B150
  8
0
  6
VERDECKT
 62
     1
 10
-70.6999999999999318
 20
-76.9998957656648599
 30
-0.0000000000000171
 11
-73.6999999999999318
 21
-79.9998957656648599
 31
-0.0000000000000178
210
0.0
220
1.0
230
0.0000000000000002
  0
ARC
  5
1B151
  8
0
  6
VERDECKT
 62
     1
 10
64.4999999999997868
 20
-74.9998957656649736
 30
0.0
 40
5.9999999999998836
210
0.0
220
0.0000000000000002
230
-1.0
 50
303.5573097619209761
 51
340.5287793655102178
  0
ARC
  5
1B152
  8
0
  6
VERDECKT
 62
     1
 10
-64.4999999999998437
 20
-74.9998957656648457
 30
0.0
 40
6.0000000000000773
210
0.0
220
0.0000000000000002
230
-1.0
 50
199.4712206344902086
 51
236.4426902380783986
  0
LINE
  5
1B153
  8
0
  6
VERDECKT
 62
     1
 10
61.5000000000001066
 20
-78.9998957656648599
 30
-0.0000000000000175
 11
61.5000000000001066
 21
-80.9998957656648457
 31
-0.000000000000018
210
0.0
220
1.0
230
0.0000000000000002
  0
LINE
  5
1B154
  8
0
  6
VERDECKT
 62
     1
 10
-61.4999999999998792
 20
-78.9998957656648599
 30
-0.0000000000000175
 11
-61.4999999999998792
 21
-80.9998957656648457
 31
-0.000000000000018
210
0.0
220
1.0
230
0.0000000000000002
  0
ARC
  5
1B155
  8
0
  6
VERDECKT
 62
     1
 10
61.4999999999999076
 20
-72.9998957656648741
 30
0.0
 40
5.9999999999999849
210
0.0
220
0.0000000000000002
230
-1.0
 50
270.0
 51
0.0000000000003435
  0
ARC
  5
1B156
  8
0
  6
VERDECKT
 62
     1
 10
-61.5000000000001279
 20
-72.9998957656648741
 30
0.0
 40
5.9999999999999778
210
0.0
220
0.0000000000000002
230
-1.0
 50
179.999999999999801
 51
270.0000000000002274
  0
LINE
  5
1B157
  8
0
  6
VERDECKT
 62
     1
 10
67.5000000000001137
 20
-56.9998957656648599
 30
-0.0000000000000127
 11
67.5000000000001137
 21
-72.9998957656648599
 31
-0.0000000000000162
210
0.0
220
1.0
230
0.0000000000000002
  0
LINE
  5
1B158
  8
0
  6
VERDECKT
 62
     1
 10
-67.4999999999998863
 20
-56.9998957656648599
 30
-0.0000000000000127
 11
-67.4999999999998863
 21
-72.9998957656648599
 31
-0.0000000000000162
210
0.0
220
1.0
230
0.0000000000000002
  0
LINE
  5
1B159
  8
0
  6
VERDECKT
 62
     1
 10
-67.4999999999998863
 20
-56.9998957656648599
 30
-0.0000000000000127
 11
-68.8195675997493908
 21
-52.0752024393778328
 31
-0.0000000000000116
210
0.0
220
1.0
230
0.0000000000000002
  0
LINE
  5
1B15A
  8
0
  6
VERDECKT
 62
     1
 10
67.5000000000001137
 20
-56.9998957656648599
 30
-0.0000000000000127
 11
68.8195675997496039
 21
-52.0752024393778328
 31
-0.0000000000000116
210
0.0
220
1.0
230
0.0000000000000002
  0
ARC
  5
1B15B
  8
0
  6
VERDECKT
 62
     1
 10
71.5241599133588153
 20
-52.7998957656648997
 30
0.0
 40
2.8000000000000269
210
0.0
220
0.0000000000000002
230
-1.0
 50
90.4943850879311782
 51
165.0
  0
ARC
  5
1B15C
  8
0
  6
VERDECKT
 62
     1
 10
-71.5241599133590427
 20
-52.7998957656648997
 30
0.0
 40
2.800000000000034
210
0.0
220
0.0000000000000002
230
-1.0
 50
15.0
 51
89.5056149120688076
  0
LINE
  5
1B15D
  8
0
  6
VERDECKT
 62
     1
 10
-70.2499999999998863
 20
248.5920728806472937
 30
0.0000000000000552
 11
70.2500000000001137
 21
248.5920728806472937
 31
0.0000000000000552
210
0.0
220
1.0
230
0.0000000000000002
  0
LINE
  5
1B15E
  8
0
  6
VERDECKT
 62
     1
 10
91.0000000000486438
 20
267.9999999999997158
 30
0.0000000000000595
 11
91.0000000000486438
 21
265.9999999999997158
 31
0.0000000000000591
210
0.0
220
1.0
230
0.0000000000000002
  0
LINE
  5
1B15F
  8
0
  6
VERDECKT
 62
     1
 10
93.0000000000486153
 20
269.9999999999997158
 30
0.00000000000006
 11
95.0000000000486153
 21
269.9999999999997158
 31
0.00000000000006
210
0.0
220
1.0
230
0.0000000000000002
  0
LINE
  5
1B160
  8
0
  6
VERDECKT
 62
     1
 10
70.2500000000001137
 20
248.5920728806472937
 30
0.0000000000000552
 11
72.1603532929806732
 21
247.9999999999996874
 31
0.0000000000000551
210
0.0
220
1.0
230
0.0000000000000002
  0
LINE
  5
1B161
  8
0
  6
VERDECKT
 62
     1
 10
-70.2499999999999005
 20
248.5920728806472937
 30
0.0000000000000552
 11
-72.1603532929804459
 21
247.9999999999996874
 31
0.0000000000000551
210
0.0
220
1.0
230
0.0000000000000002
  0
LINE
  5
1B162
  8
0
  6
VERDECKT
 62
     1
 10
-70.2499999999998863
 20
248.5920728806472937
 30
0.0000000000000552
 11
-71.8485967777483836
 21
253.7500267716947917
 31
0.0000000000000563
210
0.0
220
1.0
230
0.0000000000000002
  0
LINE
  5
1B163
  8
0
  6
VERDECKT
 62
     1
 10
70.2500000000001137
 20
248.5920728806472937
 30
0.0000000000000552
 11
71.848596777748611
 21
253.7500267716947917
 31
0.0000000000000563
210
0.0
220
1.0
230
0.0000000000000002
  0
ARC
  5
1B164
  8
0
  6
VERDECKT
 62
     1
 10
57.9673251498188122
 20
258.0522281027256213
 30
0.0
 40
14.5326748501810705
210
0.0
220
0.0000000000000002
230
-1.0
 50
342.7803027270542771
 51
12.8280495223831092
  0
ARC
  5
1B165
  8
0
  6
VERDECKT
 62
     1
 10
-57.967325149819132
 20
258.0522281027256213
 30
0.0
 40
14.5326748501809906
210
0.0
220
0.0000000000000002
230
-1.0
 50
167.1719504776170027
 51
197.2196972729458082
  0
ARC
  5
1B166
  8
0
  6
VERDECKT
 62
     1
 10
77.4999999999998863
 20
262.4999999999997158
 30
0.0
 40
5.5
210
0.0
220
0.0000000000000002
230
-1.0
 50
90.0
 51
192.8280495223827131
  0
ARC
  5
1B167
  8
0
  6
VERDECKT
 62
     1
 10
-77.5000000000001137
 20
262.4999999999997158
 30
0.0
 40
5.5000000000000098
210
0.0
220
0.0000000000000002
230
-1.0
 50
347.1719504776165763
 51
90.0
  0
LINE
  5
1B168
  8
0
  6
VERDECKT
 62
     1
 10
93.0000000000486864
 20
349.9999999999997158
 30
0.0000000000000777
 11
95.0000000000487006
 21
349.9999999999997158
 31
0.0000000000000777
210
0.0
220
1.0
230
0.0000000000000002
  0
LINE
  5
1B169
  8
0
  6
VERDECKT
 62
     1
 10
93.0000000000486722
 20
341.9999999999997158
 30
0.0000000000000759
 11
95.0000000000486722
 21
341.9999999999997158
 31
0.0000000000000759
210
0.0
220
1.0
230
0.0000000000000002
  0
LINE
  5
1B16A
  8
0
  6
VERDECKT
 62
     1
 10
-63.7099256195316528
 20
0.1990074380465371
 30
0.0
 11
63.7099256195318731
 21
0.1990074380465452
 31
0.0
210
0.0
220
1.0
230
0.0000000000000002
  0
ARC
  5
1B16B
  8
0
  6
VERDECKT
 62
     1
 10
42.0000000000001421
 20
259.9999999999996021
 30
0.0
 40
29.9999999999997407
210
0.0
220
0.0000000000000002
230
-1.0
 50
338.6325470100903203
 51
0.0000000000001145
  0
ARC
  5
1B16C
  8
0
  6
VERDECKT
 62
     1
 10
-42.0000000000003268
 20
259.9999999999996021
 30
0.0
 40
29.9999999999997584
210
0.0
220
0.0000000000000002
230
-1.0
 50
179.9999999999998863
 51
201.3674529899095944
  0
LINE
  5
1B16D
  8
0
  6
VERDECKT
 62
     1
 10
-69.5194308710116502
 20
247.9999999999996874
 30
0.0000000000000551
 11
-69.9378880439464297
 21
249.0695648922875023
 31
0.0000000000000553
210
0.0
220
1.0
230
0.0000000000000002
  0
LINE
  5
1B16E
  8
0
  6
VERDECKT
 62
     1
 10
69.5194308710118776
 20
247.9999999999996874
 30
0.0000000000000551
 11
69.937888043946657
 21
249.0695648922875023
 31
0.0000000000000553
210
0.0
220
1.0
230
0.0000000000000002
  0
ARC
  5
1B16F
  8
0
  6
VERDECKT
 62
     1
 10
94.4999999999999716
 20
234.9999999999996874
 30
0.0
 40
30.0000000000000711
210
0.0
220
0.0000000000000002
230
-1.0
 50
158.6325470100904056
 51
180.0
  0
ARC
  5
1B170
  8
0
  6
VERDECKT
 62
     1
 10
-94.4999999999999005
 20
234.999999999999801
 30
0.0
 40
29.9999999999997691
210
0.0
220
0.0000000000000002
230
-1.0
 50
359.9999999999997726
 51
21.3674529899095589
  0
LINE
  5
1B171
  8
0
  6
VERDECKT
 62
     1
 10
-66.5621119560533288
 20
245.9304351077119009
 30
0.0000000000000546
 11
-68.0753621743500332
 21
249.7982605661350135
 31
0.0000000000000555
210
0.0
220
1.0
230
0.0000000000000002
  0
LINE
  5
1B172
  8
0
  6
VERDECKT
 62
     1
 10
66.5621119560535561
 20
245.9304351077119009
 30
0.0000000000000546
 11
68.0753621743502464
 21
249.7982605661350135
 31
0.0000000000000555
210
0.0
220
1.0
230
0.0000000000000002
  0
ARC
  5
1B173
  8
0
  6
VERDECKT
 62
     1
 10
42.0000000000000213
 20
259.9999999999997158
 30
0.0
 40
27.9999999999998685
210
0.0
220
0.0000000000000002
230
-1.0
 50
338.6325470100903203
 51
0.0
  0
ARC
  5
1B174
  8
0
  6
VERDECKT
 62
     1
 10
-41.9999999999997868
 20
259.9999999999997726
 30
0.0
 40
28.0000000000003091
210
0.0
220
0.0000000000000002
230
-1.0
 50
180.0
 51
201.3674529899093955
  0
LINE
  5
1B175
  8
0
  6
VERDECKT
 62
     1
 10
70.0000000000001137
 20
269.9999999999997158
 30
0.00000000000006
 11
70.0000000000001137
 21
259.9999999999997158
 31
0.0000000000000577
210
0.0
220
1.0
230
0.0000000000000002
  0
LINE
  5
1B176
  8
0
  6
VERDECKT
 62
     1
 10
-69.9999999999998863
 20
269.9999999999997158
 30
0.00000000000006
 11
-69.9999999999998863
 21
259.9999999999997158
 31
0.0000000000000577
210
0.0
220
1.0
230
0.0000000000000002
  0
LINE
  5
1B177
  8
0
  6
VERDECKT
 62
     1
 10
72.0000000000486153
 20
267.9999999999997158
 30
0.0000000000000595
 11
72.0000000000486153
 21
259.9999999999997158
 31
0.0000000000000577
210
0.0
220
1.0
230
0.0000000000000002
  0
LINE
  5
1B178
  8
0
  6
VERDECKT
 62
     1
 10
-72.0000000000483737
 20
267.9999999999997158
 30
0.0000000000000595
 11
-72.0000000000483737
 21
259.9999999999996021
 31
0.0000000000000577
210
0.0
220
1.0
230
0.0000000000000002
  0
ARC
  5
1B179
  8
0
  6
VERDECKT
 62
     1
 10
63.4999999999805524
 20
8.1496268636070202
 30
0.0
 40
0.9999999999950759
210
0.0
220
0.0000000000000002
230
-1.0
 50
354.2894068624837018
 51
0.0000000000115136
  0
ARC
  5
1B17A
  8
0
  6
VERDECKT
 62
     1
 10
-63.4999999999808225
 20
8.149626863607029
 30
0.0
 40
0.9999999999950404
210
0.0
220
0.0000000000000002
230
-1.0
 50
179.9999999999886029
 51
185.7105931375164118
  0
LINE
  5
1B17B
  8
0
  6
VERDECKT
 62
     1
 10
-63.7099256195316528
 20
0.1990074380465359
 30
0.0
 11
-64.495037190185613
 21
8.0501231445862214
 31
0.0000000000000018
210
0.0
220
1.0
230
0.0000000000000002
  0
LINE
  5
1B17C
  8
0
  6
VERDECKT
 62
     1
 10
63.7099256195318802
 20
0.1990074380465394
 30
0.0
 11
64.4950371901858404
 21
8.050123144586232
 31
0.0000000000000018
210
0.0
220
1.0
230
0.0000000000000002
  0
LINE
  5
1B17D
  8
0
  6
VERDECKT
 62
     1
 10
64.4999999999758415
 20
234.9999999999996874
 30
0.0000000000000522
 11
64.4999999999758558
 21
8.1496268636072386
 31
0.0000000000000018
210
0.0
220
1.0
230
0.0000000000000002
  0
LINE
  5
1B17E
  8
0
  6
VERDECKT
 62
     1
 10
-64.4999999999756426
 20
234.9999999999996021
 30
0.0000000000000522
 11
-64.4999999999756284
 21
8.1496268636072102
 31
0.0000000000000018
210
0.0
220
1.0
230
0.0000000000000002
  0
LINE
  5
1B17F
  8
0
  6
VERDECKT
 62
     1
 10
63.7099256195318731
 20
0.1990074380465409
 30
0.0
 11
65.7000000000001165
 21
-0.0000000000002832
 31
0.0
210
0.0
220
1.0
230
0.0000000000000002
  0
LINE
  5
1B180
  8
0
  6
VERDECKT
 62
     1
 10
-63.7099256195316528
 20
0.1990074380465329
 30
0.0
 11
-65.6999999999998892
 21
-0.0000000000002915
 31
0.0
210
0.0
220
1.0
230
0.0000000000000002
  0
ENDBLK
  5
1B182
  8
0
  0
BLOCK
  8
0
  2
A$C9B160BB1
 70
     0
 10
0.0
 20
0.0
 30
0.0
  3
A$C9B160BB1
  1

  0
LINE
  5
1B186
  8
0
  6
CONTINUOUS
 62
     3
 10
-75.5
 20
-56.9998957656649026
 30
0.0000000000000127
 11
-0.0000000000000016
 21
-56.9998957656648884
 31
0.0000000000000127
210
-0.0000000000000002
220
1.0
230
-0.0000000000000002
  0
LINE
  5
1B187
  8
0
  6
CONTINUOUS
 62
     3
 10
0.0000000000000243
 20
-56.9998957656648884
 30
0.0000000000000127
 11
75.5000000000000142
 21
-56.999895765664867
 31
0.0000000000000127
210
-0.0000000000000002
220
1.0
230
-0.0000000000000002
  0
LINE
  5
1B188
  8
0
  6
CONTINUOUS
 62
     3
 10
-71.4801488286690443
 20
-59.9998957656649097
 30
0.0000000000000133
 11
-0.0000000000000009
 21
-59.9998957656648884
 31
0.0000000000000133
210
-0.0000000000000002
220
1.0
230
-0.0000000000000002
  0
LINE
  5
1B189
  8
0
  6
CONTINUOUS
 62
     3
 10
0.0000000000000167
 20
-59.9998957656648884
 30
0.0000000000000133
 11
71.4801488286690585
 21
-59.999895765664867
 31
0.0000000000000133
210
-0.0000000000000002
220
1.0
230
-0.0000000000000002
  0
LINE
  5
1B18A
  8
0
  6
CONTINUOUS
 62
     3
 10
-73.3000000000000114
 20
-64.9998957656649026
 30
0.0000000000000144
 11
0.0000000000000002
 21
-64.9998957656648884
 31
0.0000000000000144
210
-0.0000000000000002
220
1.0
230
-0.0000000000000002
  0
LINE
  5
1B18B
  8
0
  6
CONTINUOUS
 62
     3
 10
0.0000000000000142
 20
-64.9998957656648884
 30
0.0000000000000144
 11
73.3000000000000256
 21
-64.9998957656648741
 31
0.0000000000000144
210
-0.0000000000000002
220
1.0
230
-0.0000000000000002
  0
LINE
  5
1B18C
  8
0
  6
CONTINUOUS
 62
     3
 10
-73.3000000000000114
 20
-68.0998957656649253
 30
0.0000000000000151
 11
0.0000000000000009
 21
-68.0998957656649111
 31
0.0000000000000151
210
-0.0000000000000002
220
1.0
230
-0.0000000000000002
  0
LINE
  5
1B18D
  8
0
  6
CONTINUOUS
 62
     3
 10
0.0000000000000151
 20
-68.0998957656649111
 30
0.0000000000000151
 11
73.3000000000000256
 21
-68.0998957656648969
 31
0.0000000000000151
210
-0.0000000000000002
220
1.0
230
-0.0000000000000002
  0
LINE
  5
1B18E
  8
0
  6
CONTINUOUS
 62
     3
 10
-75.7000000000000455
 20
-70.4998957656649026
 30
0.0000000000000157
 11
0.0000000000000014
 21
-70.4998957656648741
 31
0.0000000000000157
210
-0.0000000000000002
220
1.0
230
-0.0000000000000002
  0
LINE
  5
1B18F
  8
0
  6
CONTINUOUS
 62
     3
 10
0.0000000000000261
 20
-70.4998957656648741
 30
0.0000000000000157
 11
75.7000000000000739
 21
-70.4998957656648741
 31
0.0000000000000157
210
-0.0000000000000002
220
1.0
230
-0.0000000000000002
  0
LINE
  5
1B190
  8
0
  6
CONTINUOUS
 62
     3
 10
-75.7000000000000455
 20
-71.4998957656649026
 30
0.0000000000000159
 11
0.0000000000000017
 21
-71.4998957656648884
 31
0.0000000000000159
210
-0.0000000000000002
220
1.0
230
-0.0000000000000002
  0
LINE
  5
1B191
  8
0
  6
CONTINUOUS
 62
     3
 10
0.0000000000000264
 20
-71.4998957656648884
 30
0.0000000000000159
 11
75.7000000000000739
 21
-71.4998957656648741
 31
0.0000000000000159
210
-0.0000000000000002
220
1.0
230
-0.0000000000000002
  0
LINE
  5
1B192
  8
0
  6
CONTINUOUS
 62
     3
 10
-73.5
 20
-73.699895765664948
 30
0.0000000000000164
 11
0.0000000000000022
 21
-73.6998957656649338
 31
0.0000000000000164
210
-0.0000000000000002
220
1.0
230
-0.0000000000000002
  0
LINE
  5
1B193
  8
0
  6
CONTINUOUS
 62
     3
 10
0.0000000000000244
 20
-73.6998957656649338
 30
0.0000000000000164
 11
73.5000000000000284
 21
-73.6998957656649196
 31
0.0000000000000164
210
-0.0000000000000002
220
1.0
230
-0.0000000000000002
  0
LINE
  5
1B194
  8
0
  6
CONTINUOUS
 62
     3
 10
-73.5
 20
-76.1893839890133648
 30
0.0000000000000169
 11
0.0000000000000027
 21
-76.1893839890133506
 31
0.0000000000000169
210
-0.0000000000000002
220
1.0
230
-0.0000000000000002
  0
LINE
  5
1B195
  8
0
  6
CONTINUOUS
 62
     3
 10
0.0000000000000251
 20
-76.1893839890133506
 30
0.0000000000000169
 11
73.5000000000000284
 21
-76.1893839890133364
 31
0.0000000000000169
210
-0.0000000000000002
220
1.0
230
-0.0000000000000002
  0
LINE
  5
1B196
  8
0
  6
CONTINUOUS
 62
     3
 10
-75.7000000000000455
 20
-79.9998957656649026
 30
0.0000000000000178
 11
0.0000000000000036
 21
-79.9998957656648884
 31
0.0000000000000178
210
-0.0000000000000002
220
1.0
230
-0.0000000000000002
  0
LINE
  5
1B197
  8
0
  6
CONTINUOUS
 62
     3
 10
0.0000000000000288
 20
-79.9998957656648884
 30
0.0000000000000178
 11
75.7000000000000739
 21
-79.9998957656648741
 31
0.0000000000000178
210
-0.0000000000000002
220
1.0
230
-0.0000000000000002
  0
LINE
  5
1B198
  8
0
  6
CONTINUOUS
 62
     3
 10
-64.4999999999998863
 20
-80.999895765664931
 30
0.000000000000018
 11
0.0000000000000038
 21
-80.9998957656649168
 31
0.000000000000018
210
-0.0000000000000002
220
1.0
230
-0.0000000000000002
  0
LINE
  5
1B199
  8
0
  6
CONTINUOUS
 62
     3
 10
0.000000000000031
 20
-80.9998957656649168
 30
0.000000000000018
 11
64.4999999999999147
 21
-80.9998957656649168
 31
0.000000000000018
210
-0.0000000000000002
220
1.0
230
-0.0000000000000002
  0
LINE
  5
1B19A
  8
0
  6
CONTINUOUS
 62
     3
 10
-71.5000000000000711
 20
-50.0000000000003126
 30
0.0000000000000111
 11
-0.0000000000000031
 21
-50.0000000000002984
 31
0.0000000000000111
210
-0.0000000000000002
220
1.0
230
-0.0000000000000002
  0
LINE
  5
1B19B
  8
0
  6
CONTINUOUS
 62
     3
 10
0.0000000000000117
 20
-50.0000000000002984
 30
0.0000000000000111
 11
71.5000000000000995
 21
-50.0000000000002771
 31
0.0000000000000111
210
-0.0000000000000002
220
1.0
230
-0.0000000000000002
  0
ARC
  5
1B19C
  8
0
  6
CONTINUOUS
 62
     3
 10
70.9999999999999858
 20
-57.9998957656649026
 30
0.0
 40
0.999999999999993
210
0.0
220
-0.0000000000000002
230
-1.0
 50
89.9999999999991758
 51
180.0000000000003979
  0
ARC
  5
1B19D
  8
0
  6
CONTINUOUS
 62
     3
 10
-71.0000000000000142
 20
-57.9998957656648599
 30
0.0
 40
0.9999999999999859
210
0.0
220
-0.0000000000000002
230
-1.0
 50
359.9999999999996021
 51
90.0000000000007958
  0
LINE
  5
1B19E
  8
0
  6
CONTINUOUS
 62
     3
 10
70.0000000000000284
 20
-57.999895765664867
 30
0.0000000000000129
 11
70.0000000000000284
 21
-58.9998957656648599
 31
0.0000000000000131
210
-0.0000000000000002
220
1.0
230
-0.0000000000000002
  0
LINE
  5
1B19F
  8
0
  6
CONTINUOUS
 62
     3
 10
-70.0
 20
-57.9998957656649097
 30
0.0000000000000129
 11
-70.0
 21
-58.9998957656649097
 31
0.0000000000000131
210
-0.0000000000000002
220
1.0
230
-0.0000000000000002
  0
ARC
  5
1B1A0
  8
0
  6
CONTINUOUS
 62
     3
 10
70.9999999999999858
 20
-58.9998957656649168
 30
0.0
 40
0.9999999999999859
210
0.0
220
-0.0000000000000002
230
-1.0
 50
179.9999999999996021
 51
270.0000000000007958
  0
ARC
  5
1B1A1
  8
0
  6
CONTINUOUS
 62
     3
 10
-71.0000000000000142
 20
-58.999895765664867
 30
0.0
 40
0.999999999999993
210
0.0
220
-0.0000000000000002
230
-1.0
 50
270.0
 51
0.0000000000012086
  0
LINE
  5
1B1A2
  8
0
  6
CONTINUOUS
 62
     3
 10
71.4801488286690585
 20
-59.999895765664867
 30
0.0000000000000133
 11
73.3000000000000398
 21
-64.9998957656648741
 31
0.0000000000000144
210
-0.0000000000000002
220
1.0
230
-0.0000000000000002
  0
LINE
  5
1B1A3
  8
0
  6
CONTINUOUS
 62
     3
 10
-71.4801488286690301
 20
-59.9998957656649097
 30
0.0000000000000133
 11
-73.3000000000000114
 21
-64.9998957656649026
 31
0.0000000000000144
210
-0.0000000000000002
220
1.0
230
-0.0000000000000002
  0
LINE
  5
1B1A4
  8
0
  6
CONTINUOUS
 62
     3
 10
73.3000000000000398
 20
-64.9998957656648741
 30
0.0000000000000144
 11
73.3000000000000398
 21
-68.0998957656648969
 31
0.0000000000000151
210
-0.0000000000000002
220
1.0
230
-0.0000000000000002
  0
LINE
  5
1B1A5
  8
0
  6
CONTINUOUS
 62
     3
 10
-73.3000000000000114
 20
-64.9998957656649026
 30
0.0000000000000144
 11
-73.3000000000000114
 21
-68.0998957656649253
 31
0.0000000000000151
210
-0.0000000000000002
220
1.0
230
-0.0000000000000002
  0
LINE
  5
1B1A6
  8
0
  6
CONTINUOUS
 62
     3
 10
73.3000000000000398
 20
-68.0998957656648969
 30
0.0000000000000151
 11
75.7000000000000739
 21
-70.4998957656648741
 31
0.0000000000000157
210
-0.0000000000000002
220
1.0
230
-0.0000000000000002
  0
LINE
  5
1B1A7
  8
0
  6
CONTINUOUS
 62
     3
 10
-73.3000000000000114
 20
-68.0998957656649253
 30
0.0000000000000151
 11
-75.7000000000000455
 21
-70.4998957656649026
 31
0.0000000000000157
210
-0.0000000000000002
220
1.0
230
-0.0000000000000002
  0
LINE
  5
1B1A8
  8
0
  6
CONTINUOUS
 62
     3
 10
75.7000000000000739
 20
-70.4998957656648741
 30
0.0000000000000157
 11
75.7000000000000739
 21
-71.4998957656648741
 31
0.0000000000000159
210
-0.0000000000000002
220
1.0
230
-0.0000000000000002
  0
LINE
  5
1B1A9
  8
0
  6
CONTINUOUS
 62
     3
 10
-75.7000000000000455
 20
-70.4998957656649026
 30
0.0000000000000157
 11
-75.7000000000000455
 21
-71.4998957656649026
 31
0.0000000000000159
210
-0.0000000000000002
220
1.0
230
-0.0000000000000002
  0
LINE
  5
1B1AA
  8
0
  6
CONTINUOUS
 62
     3
 10
-73.5
 20
-73.699895765664948
 30
0.0000000000000164
 11
-75.7000000000000455
 21
-71.4998957656649026
 31
0.0000000000000159
210
-0.0000000000000002
220
1.0
230
-0.0000000000000002
  0
LINE
  5
1B1AB
  8
0
  6
CONTINUOUS
 62
     3
 10
73.5000000000000284
 20
-73.6998957656649196
 30
0.0000000000000164
 11
75.7000000000000739
 21
-71.4998957656648741
 31
0.0000000000000159
210
-0.0000000000000002
220
1.0
230
-0.0000000000000002
  0
LINE
  5
1B1AC
  8
0
  6
CONTINUOUS
 62
     3
 10
73.5000000000000284
 20
-73.6998957656649196
 30
0.0000000000000164
 11
73.5000000000000284
 21
-76.1893839890133364
 31
0.0000000000000169
210
-0.0000000000000002
220
1.0
230
-0.0000000000000002
  0
LINE
  5
1B1AD
  8
0
  6
CONTINUOUS
 62
     3
 10
-73.5
 20
-73.699895765664948
 30
0.0000000000000164
 11
-73.5
 21
-76.1893839890133648
 31
0.0000000000000169
210
-0.0000000000000002
220
1.0
230
-0.0000000000000002
  0
LINE
  5
1B1AE
  8
0
  6
CONTINUOUS
 62
     3
 10
73.5000000000000284
 20
-76.1893839890133364
 30
0.0000000000000169
 11
75.7000000000000739
 21
-79.9998957656648741
 31
0.0000000000000178
210
-0.0000000000000002
220
1.0
230
-0.0000000000000002
  0
LINE
  5
1B1AF
  8
0
  6
CONTINUOUS
 62
     3
 10
-73.5
 20
-76.1893839890133648
 30
0.0000000000000169
 11
-75.7000000000000455
 21
-79.9998957656649026
 31
0.0000000000000178
210
-0.0000000000000002
220
1.0
230
-0.0000000000000002
  0
ARC
  5
1B1B0
  8
0
  6
CONTINUOUS
 62
     3
 10
64.4999999999998863
 20
-74.999895765665002
 30
0.0
 40
5.9999999999999014
210
0.0
220
-0.0000000000000002
230
-1.0
 50
270.0
 51
303.5573097619209761
  0
ARC
  5
1B1B1
  8
0
  6
CONTINUOUS
 62
     3
 10
-64.4999999999999147
 20
-74.9998957656649736
 30
0.0
 40
5.9999999999999041
210
0.0
220
-0.0000000000000002
230
-1.0
 50
236.4426902380789102
 51
270.0
  0
ARC
  5
1B1B2
  8
0
  6
CONTINUOUS
 62
     3
 10
71.4758400866410426
 20
-52.7998957656649281
 30
0.0
 40
2.8000000000000238
210
0.0
220
-0.0000000000000002
230
-1.0
 50
15.0000000000003393
 51
89.5056149120653259
  0
ARC
  5
1B1B3
  8
0
  6
CONTINUOUS
 62
     3
 10
-71.475840086641071
 20
-52.7998957656648926
 30
0.0
 40
2.8000000000000211
210
0.0
220
-0.0000000000000002
230
-1.0
 50
90.4943850879346172
 51
164.9999999999996021
  0
LINE
  5
1B1B4
  8
0
  6
CONTINUOUS
 62
     3
 10
74.1804324002504529
 20
-52.0752024393777972
 30
0.0000000000000116
 11
75.5000000000000284
 21
-56.999895765664867
 31
0.0000000000000127
210
-0.0000000000000002
220
1.0
230
-0.0000000000000002
  0
LINE
  5
1B1B5
  8
0
  6
CONTINUOUS
 62
     3
 10
-74.1804324002504245
 20
-52.075202439377847
 30
0.0000000000000116
 11
-75.5
 21
-56.9998957656649026
 31
0.0000000000000127
210
-0.0000000000000002
220
1.0
230
-0.0000000000000002
  0
LINE
  5
1B1B6
  8
0
  6
CONTINUOUS
 62
     3
 10
-72.1603532929806448
 20
247.999999999999801
 30
-0.0000000000000551
 11
72.1603532929804743
 21
247.9999999999998863
 31
-0.0000000000000551
210
-0.0000000000000002
220
1.0
230
-0.0000000000000002
  0
CIRCLE
  5
1B1B7
  8
0
  6
CONTINUOUS
 62
     3
 10
-130.0
 20
345.9999999999998863
 30
0.0
 40
3.999999999999988
210
0.0
220
-0.0000000000000002
230
-1.0
  0
ARC
  5
1B1B8
  8
0
  6
CONTINUOUS
 62
     3
 10
-130.0
 20
345.9999999999998863
 30
0.0
 40
20.0
210
0.0
220
-0.0000000000000002
230
-1.0
 50
89.9999999999999858
 51
180.0
  0
LINE
  5
1B1B9
  8
0
  6
CONTINUOUS
 62
     3
 10
150.0
 20
269.9999999999998863
 30
-0.00000000000006
 11
150.0
 21
345.9999999999998863
 31
-0.0000000000000768
210
-0.0000000000000002
220
1.0
230
-0.0000000000000002
  0
LINE
  5
1B1BA
  8
0
  6
CONTINUOUS
 62
     3
 10
130.0
 20
366.0
 30
-0.0000000000000813
 11
-92.9292893218813845
 21
365.9999999999998863
 31
-0.0000000000000813
210
-0.0000000000000002
220
1.0
230
-0.0000000000000002
  0
LINE
  5
1B1BB
  8
0
  6
CONTINUOUS
 62
     3
 10
-92.9292893218813845
 20
269.9999999999997726
 30
-0.00000000000006
 11
-92.9292893218814271
 21
365.9999999999998863
 31
-0.0000000000000813
210
-0.0000000000000002
220
1.0
230
-0.0000000000000002
  0
LINE
  5
1B1BC
  8
0
  6
CONTINUOUS
 62
     3
 10
-91.0000000000000568
 20
269.9999999999997726
 30
-0.00000000000006
 11
-92.9292893218814982
 21
269.9999999999997726
 31
-0.00000000000006
210
-0.0000000000000002
220
1.0
230
-0.0000000000000002
  0
LINE
  5
1B1BD
  8
0
  6
CONTINUOUS
 62
     3
 10
-95.0000000000002274
 20
345.9999999999993179
 30
-0.0000000000000768
 11
-95.0000000000002842
 21
365.9999999999998863
 31
-0.0000000000000813
210
-0.0000000000000002
220
1.0
230
-0.0000000000000002
  0
LINE
  5
1B1BE
  8
0
  6
CONTINUOUS
 62
     3
 10
-93.0000000000002842
 20
365.9999999999998863
 30
-0.0000000000000813
 11
-93.0000000000002274
 21
345.9999999999993179
 31
-0.0000000000000768
210
-0.0000000000000002
220
1.0
230
-0.0000000000000002
  0
LINE
  5
1B1BF
  8
0
  6
CONTINUOUS
 62
     3
 10
-93.00000000000027
 20
365.9999999999998863
 30
-0.0000000000000813
 11
-95.0000000000002558
 21
365.9999999999998863
 31
-0.0000000000000813
210
-0.0000000000000002
220
1.0
230
-0.0000000000000002
  0
LINE
  5
1B1C0
  8
0
  6
CONTINUOUS
 62
     3
 10
-93.0000000000000853
 20
269.9999999999997726
 30
-0.00000000000006
 11
-93.0000000000002274
 21
345.9999999999993179
 31
-0.0000000000000768
210
-0.0000000000000002
220
1.0
230
-0.0000000000000002
  0
LINE
  5
1B1C1
  8
0
  6
CONTINUOUS
 62
     3
 10
-95.0000000000002274
 20
345.9999999999993179
 30
-0.0000000000000768
 11
-95.0000000000000853
 21
269.9999999999997726
 31
-0.00000000000006
210
-0.0000000000000002
220
1.0
230
-0.0000000000000002
  0
ARC
  5
1B1C2
  8
0
  6
CONTINUOUS
 62
     3
 10
-91.0000000000000853
 20
269.9999999999997726
 30
-0.00000000000006
 40
4.0
 50
180.0
 51
269.9999999999993747
  0
ARC
  5
1B1C3
  8
0
  6
CONTINUOUS
 62
     3
 10
91.0000000000000853
 20
269.9999999999998863
 30
0.0
 40
2.0000000000000169
210
0.0
220
-0.0000000000000002
230
-1.0
 50
270.0
 51
359.9999999999984084
  0
LINE
  5
1B1C4
  8
0
  6
CONTINUOUS
 62
     3
 10
150.0
 20
267.9999999999998863
 30
-0.0000000000000595
 11
150.0
 21
269.9999999999998863
 31
-0.00000000000006
210
-0.0000000000000002
220
1.0
230
-0.0000000000000002
  0
LINE
  5
1B1C5
  8
0
  6
CONTINUOUS
 62
     3
 10
-91.0000000000000568
 20
267.9999999999997726
 30
-0.0000000000000595
 11
-91.0000000000000568
 21
269.9999999999997726
 31
-0.00000000000006
210
-0.0000000000000002
220
1.0
230
-0.0000000000000002
  0
LINE
  5
1B1C6
  8
0
  6
CONTINUOUS
 62
     3
 10
-91.0000000000000995
 20
265.9999999999997726
 30
-0.0000000000000591
 11
-0.0000000000000733
 21
265.9999999999997726
 31
-0.0000000000000591
210
-0.0000000000000002
220
1.0
230
-0.0000000000000002
  0
LINE
  5
1B1C7
  8
0
  6
CONTINUOUS
 62
     3
 10
-0.0000000000000729
 20
267.9999999999997726
 30
-0.0000000000000595
 11
-91.0000000000000995
 21
267.9999999999997726
 31
-0.0000000000000595
210
-0.0000000000000002
220
1.0
230
-0.0000000000000002
  0
LINE
  5
1B1C8
  8
0
  6
CONTINUOUS
 62
     3
 10
150.0
 20
265.9999999999998863
 30
-0.0000000000000591
 11
-0.0000000000000591
 21
265.9999999999997726
 31
-0.0000000000000591
210
-0.0000000000000002
220
1.0
230
-0.0000000000000002
  0
LINE
  5
1B1C9
  8
0
  6
CONTINUOUS
 62
     3
 10
-0.000000000000071
 20
267.9999999999997726
 30
-0.0000000000000595
 11
150.0
 21
267.9999999999998863
 31
-0.0000000000000595
210
-0.0000000000000002
220
1.0
230
-0.0000000000000002
  0
LINE
  5
1B1CA
  8
0
  6
CONTINUOUS
 62
     3
 10
150.0
 20
265.9999999999998863
 30
-0.0000000000000591
 11
150.0
 21
267.9999999999998863
 31
-0.0000000000000595
210
-0.0000000000000002
220
1.0
230
-0.0000000000000002
  0
ARC
  5
1B1CB
  8
0
  6
CONTINUOUS
 62
     3
 10
77.5000000000001421
 20
262.4999999999997726
 30
0.0
 40
3.5000000000000568
210
0.0
220
-0.0000000000000002
230
-1.0
 50
90.0000000000006679
 51
192.8280495223822015
  0
ARC
  5
1B1CC
  8
0
  6
CONTINUOUS
 62
     3
 10
-77.4999999999999858
 20
262.4999999999997726
 30
0.0
 40
3.5000000000000488
210
0.0
220
-0.0000000000000002
230
-1.0
 50
347.1719504776178269
 51
89.9999999999990479
  0
ARC
  5
1B1CD
  8
0
  6
CONTINUOUS
 62
     3
 10
57.9673251498186914
 20
258.0522281027256781
 30
0.0
 40
16.5326748501814187
210
0.0
220
-0.0000000000000002
230
-1.0
 50
342.7803027270546181
 51
12.8280495223827007
  0
ARC
  5
1B1CE
  8
0
  6
CONTINUOUS
 62
     3
 10
-57.9673251498189188
 20
258.0522281027256781
 30
0.0
 40
16.5326748501810314
210
0.0
220
-0.0000000000000002
230
-1.0
 50
167.171950477616889
 51
197.2196972729458082
  0
LINE
  5
1B1CF
  8
0
  6
CONTINUOUS
 62
     3
 10
-72.1603532929806448
 20
247.999999999999801
 30
-0.0000000000000551
 11
-73.7589500707291563
 21
253.1579538910472991
 31
-0.0000000000000562
210
-0.0000000000000002
220
1.0
230
-0.0000000000000002
  0
LINE
  5
1B1D0
  8
0
  6
CONTINUOUS
 62
     3
 10
72.1603532929804885
 20
247.9999999999998863
 30
-0.0000000000000551
 11
73.7589500707289858
 21
253.1579538910474128
 31
-0.0000000000000562
210
-0.0000000000000002
220
1.0
230
-0.0000000000000002
  0
LINE
  5
1B1D1
  8
0
  6
CONTINUOUS
 62
     3
 10
-72.0000000000485443
 20
269.9999999999997726
 30
-0.00000000000006
 11
72.0000000000484448
 21
269.9999999999997726
 31
-0.00000000000006
210
-0.0000000000000002
220
1.0
230
-0.0000000000000002
  0
LINE
  5
1B1D2
  8
0
  6
CONTINUOUS
 62
     3
 10
-65.7000000000000028
 20
-0.0000000000003028
 30
0.0
 11
65.7000000000000028
 21
-0.0000000000002656
 31
0.0
210
-0.0000000000000002
220
1.0
230
-0.0000000000000002
  0
LINE
  5
1B1D3
  8
0
  6
CONTINUOUS
 62
     3
 10
-68.4246378256499383
 20
245.2017394338645033
 30
-0.0000000000000544
 11
-69.5194308710118349
 21
247.999999999999801
 31
-0.0000000000000551
210
-0.0000000000000002
220
1.0
230
-0.0000000000000002
  0
LINE
  5
1B1D4
  8
0
  6
CONTINUOUS
 62
     3
 10
68.4246378256498247
 20
245.2017394338645886
 30
-0.0000000000000544
 11
69.5194308710117213
 21
247.9999999999998863
 31
-0.0000000000000551
210
-0.0000000000000002
220
1.0
230
-0.0000000000000002
  0
ARC
  5
1B1D5
  8
0
  6
CONTINUOUS
 62
     3
 10
94.5000000000003268
 20
234.9999999999996874
 30
0.0
 40
28.0000000000002487
210
0.0
220
-0.0000000000000002
230
-1.0
 50
158.6325470100904909
 51
180.0
  0
ARC
  5
1B1D6
  8
0
  6
CONTINUOUS
 62
     3
 10
-94.4999999999999858
 20
234.999999999999801
 30
0.0
 40
28.0000000000000213
210
0.0
220
-0.0000000000000002
230
-1.0
 50
0.0
 51
21.3674529899095305
  0
LINE
  5
1B1D7
  8
0
  6
CONTINUOUS
 62
     3
 10
72.000000000048459
 20
269.9999999999997726
 30
-0.00000000000006
 11
72.000000000048459
 21
267.9999999999997726
 31
-0.0000000000000595
210
-0.0000000000000002
220
1.0
230
-0.0000000000000002
  0
LINE
  5
1B1D8
  8
0
  6
CONTINUOUS
 62
     3
 10
-72.0000000000485727
 20
269.9999999999997726
 30
-0.00000000000006
 11
-72.0000000000485727
 21
267.9999999999997726
 31
-0.0000000000000595
210
-0.0000000000000002
220
1.0
230
-0.0000000000000002
  0
ARC
  5
1B1D9
  8
0
  6
CONTINUOUS
 62
     3
 10
65.5000000000049312
 20
8.0498756211203002
 30
0.0
 40
0.9999999999950832
210
0.0
220
-0.0000000000000002
230
-1.0
 50
354.2894068624837018
 51
0.0000000000114882
  0
ARC
  5
1B1DA
  8
0
  6
CONTINUOUS
 62
     3
 10
-65.5000000000049596
 20
8.0498756211203357
 30
0.0
 40
0.9999999999950548
210
0.0
220
-0.0000000000000002
230
-1.0
 50
179.9999999999884039
 51
185.7105931375162129
  0
LINE
  5
1B1DB
  8
0
  6
CONTINUOUS
 62
     3
 10
66.4999999999999432
 20
234.999999999999801
 30
-0.0000000000000522
 11
66.5000000000000142
 21
8.0498756211205382
 31
-0.0000000000000018
210
-0.0000000000000002
220
1.0
230
-0.0000000000000002
  0
LINE
  5
1B1DC
  8
0
  6
CONTINUOUS
 62
     3
 10
-66.5000000000000853
 20
234.9999999999996874
 30
-0.0000000000000522
 11
-66.5000000000000142
 21
8.0498756211205098
 31
-0.0000000000000018
210
-0.0000000000000002
220
1.0
230
-0.0000000000000002
  0
LINE
  5
1B1DD
  8
0
  6
CONTINUOUS
 62
     3
 10
-65.7000000000000171
 20
-0.0000000000003037
 30
0.0
 11
-66.4950371902099988
 21
7.9503719020995023
 31
-0.0000000000000018
210
-0.0000000000000002
220
1.0
230
-0.0000000000000002
  0
LINE
  5
1B1DE
  8
0
  6
CONTINUOUS
 62
     3
 10
65.7000000000000171
 20
-0.0000000000002665
 30
0.0
 11
66.4950371902099988
 21
7.9503719020995414
 31
-0.0000000000000018
210
-0.0000000000000002
220
1.0
230
-0.0000000000000002
  0
LINE
  5
1B1DF
  8
0
  6
VERDECKT
 62
     1
 10
-70.7000000000000455
 20
-76.9998957656649026
 30
0.0000000000000171
 11
0.0000000000000029
 21
-76.9998957656648884
 31
0.0000000000000171
210
-0.0000000000000002
220
1.0
230
-0.0000000000000002
  0
LINE
  5
1B1E0
  8
0
  6
VERDECKT
 62
     1
 10
0.0000000000000246
 20
-76.9998957656648884
 30
0.0000000000000171
 11
70.7000000000000739
 21
-76.9998957656648741
 31
0.0000000000000171
210
-0.0000000000000002
220
1.0
230
-0.0000000000000002
  0
LINE
  5
1B1E1
  8
0
  6
VERDECKT
 62
     1
 10
-61.4999999999999929
 20
-78.9998957656649026
 30
0.0000000000000175
 11
0.0000000000000104
 21
-78.9998957656648884
 31
0.0000000000000175
210
-0.0000000000000002
220
1.0
230
-0.0000000000000002
  0
LINE
  5
1B1E2
  8
0
  6
VERDECKT
 62
     1
 10
0.0000000000000267
 20
-78.9998957656648884
 30
0.0000000000000175
 11
61.5000000000000284
 21
-78.9998957656648741
 31
0.0000000000000175
210
-0.0000000000000002
220
1.0
230
-0.0000000000000002
  0
LINE
  5
1B1E3
  8
0
  6
VERDECKT
 62
     1
 10
70.7000000000000739
 20
-76.9998957656648741
 30
0.0000000000000171
 11
73.7000000000000739
 21
-79.9998957656648741
 31
0.0000000000000178
210
-0.0000000000000002
220
1.0
230
-0.0000000000000002
  0
LINE
  5
1B1E4
  8
0
  6
VERDECKT
 62
     1
 10
-70.7000000000000455
 20
-76.9998957656649026
 30
0.0000000000000171
 11
-73.7000000000000455
 21
-79.9998957656649026
 31
0.0000000000000178
210
-0.0000000000000002
220
1.0
230
-0.0000000000000002
  0
ARC
  5
1B1E5
  8
0
  6
VERDECKT
 62
     1
 10
64.4999999999997442
 20
-74.9998957656648884
 30
0.0
 40
6.000000000000079
210
0.0
220
-0.0000000000000002
230
-1.0
 50
303.5573097619216014
 51
340.5287793655097062
  0
ARC
  5
1B1E6
  8
0
  6
VERDECKT
 62
     1
 10
-64.4999999999997726
 20
-74.9998957656648599
 30
0.0
 40
6.000000000000079
210
0.0
220
-0.0000000000000002
230
-1.0
 50
199.4712206344902086
 51
236.4426902380783986
  0
LINE
  5
1B1E7
  8
0
  6
VERDECKT
 62
     1
 10
61.5000000000000284
 20
-78.9998957656648741
 30
0.0000000000000175
 11
61.5000000000000284
 21
-80.9998957656648884
 31
0.000000000000018
210
-0.0000000000000002
220
1.0
230
-0.0000000000000002
  0
LINE
  5
1B1E8
  8
0
  6
VERDECKT
 62
     1
 10
-61.5
 20
-78.9998957656649026
 30
0.0000000000000175
 11
-61.4999999999999929
 21
-80.9998957656649168
 31
0.000000000000018
210
-0.0000000000000002
220
1.0
230
-0.0000000000000002
  0
ARC
  5
1B1E9
  8
0
  6
VERDECKT
 62
     1
 10
61.5000000000000213
 20
-72.9998957656649168
 30
0.0
 40
5.9999999999999858
210
0.0
220
-0.0000000000000002
230
-1.0
 50
270.0
 51
0.0000000000003308
  0
ARC
  5
1B1EA
  8
0
  6
VERDECKT
 62
     1
 10
-61.5000000000000497
 20
-72.9998957656648741
 30
0.0
 40
5.9999999999999787
210
0.0
220
-0.0000000000000002
230
-1.0
 50
179.999999999999801
 51
270.0000000000002274
  0
LINE
  5
1B1EB
  8
0
  6
VERDECKT
 62
     1
 10
67.5000000000000284
 20
-56.999895765664867
 30
0.0000000000000127
 11
67.5000000000000284
 21
-72.9998957656648741
 31
0.0000000000000162
210
-0.0000000000000002
220
1.0
230
-0.0000000000000002
  0
LINE
  5
1B1EC
  8
0
  6
VERDECKT
 62
     1
 10
-67.5
 20
-56.9998957656649026
 30
0.0000000000000127
 11
-67.5
 21
-72.9998957656649026
 31
0.0000000000000162
210
-0.0000000000000002
220
1.0
230
-0.0000000000000002
  0
LINE
  5
1B1ED
  8
0
  6
VERDECKT
 62
     1
 10
-67.5
 20
-56.9998957656649026
 30
0.0000000000000127
 11
-68.8195675997495044
 21
-52.0752024393778683
 31
0.0000000000000116
210
-0.0000000000000002
220
1.0
230
-0.0000000000000002
  0
LINE
  5
1B1EE
  8
0
  6
VERDECKT
 62
     1
 10
67.5000000000000284
 20
-56.999895765664867
 30
0.0000000000000127
 11
68.8195675997495329
 21
-52.0752024393778328
 31
0.0000000000000116
210
-0.0000000000000002
220
1.0
230
-0.0000000000000002
  0
ARC
  5
1B1EF
  8
0
  6
VERDECKT
 62
     1
 10
71.5241599133589148
 20
-52.7998957656649424
 30
0.0
 40
2.8000000000000269
210
0.0
220
-0.0000000000000002
230
-1.0
 50
90.494385087931164
 51
165.0
  0
ARC
  5
1B1F0
  8
0
  6
VERDECKT
 62
     1
 10
-71.5241599133589574
 20
-52.7998957656648997
 30
0.0
 40
2.800000000000034
210
0.0
220
-0.0000000000000002
230
-1.0
 50
14.9999999999999893
 51
89.5056149120688076
  0
LINE
  5
1B1F1
  8
0
  6
VERDECKT
 62
     1
 10
-70.2500000000000995
 20
248.5920728806474074
 30
-0.0000000000000552
 11
70.2499999999999289
 21
248.5920728806474074
 31
-0.0000000000000552
210
-0.0000000000000002
220
1.0
230
-0.0000000000000002
  0
LINE
  5
1B1F2
  8
0
  6
VERDECKT
 62
     1
 10
-93.0000000000000142
 20
269.9999999999997726
 30
-0.00000000000006
 11
-95.0000000000000284
 21
269.9999999999997726
 31
-0.00000000000006
210
-0.0000000000000002
220
1.0
230
-0.0000000000000002
  0
LINE
  5
1B1F3
  8
0
  6
VERDECKT
 62
     1
 10
-91.0000000000000284
 20
267.9999999999997726
 30
-0.0000000000000595
 11
-91.0000000000000284
 21
265.9999999999997726
 31
-0.0000000000000591
210
-0.0000000000000002
220
1.0
230
-0.0000000000000002
  0
LINE
  5
1B1F4
  8
0
  6
VERDECKT
 62
     1
 10
70.2499999999999432
 20
248.5920728806474926
 30
-0.0000000000000552
 11
72.1603532929804885
 21
247.9999999999998863
 31
-0.0000000000000551
210
-0.0000000000000002
220
1.0
230
-0.0000000000000002
  0
LINE
  5
1B1F5
  8
0
  6
VERDECKT
 62
     1
 10
-70.2500000000001137
 20
248.5920728806474074
 30
-0.0000000000000552
 11
-72.1603532929806448
 21
247.999999999999801
 31
-0.0000000000000551
210
-0.0000000000000002
220
1.0
230
-0.0000000000000002
  0
LINE
  5
1B1F6
  8
0
  6
VERDECKT
 62
     1
 10
-70.2500000000000995
 20
248.5920728806472937
 30
-0.0000000000000552
 11
-71.8485967777485968
 21
253.7500267716949054
 31
-0.0000000000000563
210
-0.0000000000000002
220
1.0
230
-0.0000000000000002
  0
LINE
  5
1B1F7
  8
0
  6
VERDECKT
 62
     1
 10
70.2499999999999289
 20
248.5920728806474074
 30
-0.0000000000000552
 11
71.8485967777484262
 21
253.7500267716949907
 31
-0.0000000000000563
210
-0.0000000000000002
220
1.0
230
-0.0000000000000002
  0
ARC
  5
1B1F8
  8
0
  6
VERDECKT
 62
     1
 10
57.9673251498190396
 20
258.0522281027256781
 30
0.0
 40
14.5326748501810705
210
0.0
220
-0.0000000000000002
230
-1.0
 50
342.7803027270542202
 51
12.8280495223831199
  0
ARC
  5
1B1F9
  8
0
  6
VERDECKT
 62
     1
 10
-57.967325149818862
 20
258.0522281027256781
 30
0.0
 40
14.5326748501810705
210
0.0
220
-0.0000000000000002
230
-1.0
 50
167.1719504776168037
 51
197.2196972729456945
  0
ARC
  5
1B1FA
  8
0
  6
VERDECKT
 62
     1
 10
77.5000000000000995
 20
262.4999999999997726
 30
0.0
 40
5.5
210
0.0
220
-0.0000000000000002
230
-1.0
 50
89.9999999999999858
 51
192.8280495223827131
  0
ARC
  5
1B1FB
  8
0
  6
VERDECKT
 62
     1
 10
-77.4999999999999147
 20
262.4999999999997726
 30
0.0
 40
5.5000000000000124
210
0.0
220
-0.0000000000000002
230
-1.0
 50
347.1719504776173153
 51
90.0
  0
LINE
  5
1B1FC
  8
0
  6
VERDECKT
 62
     1
 10
-93.0000000000001563
 20
341.9999999999998863
 30
-0.0000000000000759
 11
-95.0000000000001563
 21
341.9999999999998863
 31
-0.0000000000000759
210
-0.0000000000000002
220
1.0
230
-0.0000000000000002
  0
LINE
  5
1B1FD
  8
0
  6
VERDECKT
 62
     1
 10
-93.0000000000001847
 20
349.9999999999998863
 30
-0.0000000000000777
 11
-95.0000000000001847
 21
349.9999999999998863
 31
-0.0000000000000777
210
-0.0000000000000002
220
1.0
230
-0.0000000000000002
  0
LINE
  5
1B1FE
  8
0
  6
VERDECKT
 62
     1
 10
-63.7099256195317807
 20
0.1990074380465232
 30
0.0
 11
63.7099256195317594
 21
0.1990074380465594
 31
0.0
210
-0.0000000000000002
220
1.0
230
-0.0000000000000002
  0
ARC
  5
1B1FF
  8
0
  6
VERDECKT
 62
     1
 10
42.0000000000003197
 20
259.9999999999997726
 30
0.0
 40
29.9999999999997513
210
0.0
220
-0.0000000000000002
230
-1.0
 50
338.6325470100903203
 51
0.0000000000001018
  0
ARC
  5
1B200
  8
0
  6
VERDECKT
 62
     1
 10
-42.0000000000001705
 20
259.9999999999997726
 30
0.0
 40
29.9999999999997691
210
0.0
220
-0.0000000000000002
230
-1.0
 50
179.9999999999998863
 51
201.3674529899095944
  0
LINE
  5
1B201
  8
0
  6
VERDECKT
 62
     1
 10
-69.5194308710118349
 20
247.999999999999801
 30
-0.0000000000000551
 11
-69.9378880439466144
 21
249.0695648922875023
 31
-0.0000000000000553
210
-0.0000000000000002
220
1.0
230
-0.0000000000000002
  0
LINE
  5
1B202
  8
0
  6
VERDECKT
 62
     1
 10
69.5194308710117213
 20
247.9999999999998863
 30
-0.0000000000000551
 11
69.9378880439465007
 21
249.0695648922875876
 31
-0.0000000000000553
210
-0.0000000000000002
220
1.0
230
-0.0000000000000002
  0
ARC
  5
1B203
  8
0
  6
VERDECKT
 62
     1
 10
94.5000000000001563
 20
234.999999999999801
 30
0.0
 40
30.0000000000000817
210
0.0
220
-0.0000000000000002
230
-1.0
 50
158.6325470100904056
 51
180.0
  0
ARC
  5
1B204
  8
0
  6
VERDECKT
 62
     1
 10
-94.4999999999996163
 20
235.0
 30
0.0
 40
29.9999999999996483
210
0.0
220
-0.0000000000000002
230
-1.0
 50
359.9999999999996021
 51
21.3674529899095802
  0
LINE
  5
1B205
  8
0
  6
VERDECKT
 62
     1
 10
-66.5621119560535135
 20
245.9304351077119861
 30
-0.0000000000000546
 11
-68.0753621743502038
 21
249.7982605661350988
 31
-0.0000000000000555
210
-0.0000000000000002
220
1.0
230
-0.0000000000000002
  0
LINE
  5
1B206
  8
0
  6
VERDECKT
 62
     1
 10
66.5621119560533998
 20
245.9304351077120998
 30
-0.0000000000000546
 11
68.0753621743500901
 21
249.7982605661352125
 31
-0.0000000000000555
210
-0.0000000000000002
220
1.0
230
-0.0000000000000002
  0
ARC
  5
1B207
  8
0
  6
VERDECKT
 62
     1
 10
42.000000000000199
 20
259.9999999999997726
 30
0.0
 40
27.9999999999998792
210
0.0
220
-0.0000000000000002
230
-1.0
 50
338.6325470100903203
 51
0.0
  0
ARC
  5
1B208
  8
0
  6
VERDECKT
 62
     1
 10
-42.0000000000000711
 20
259.9999999999997726
 30
0.0
 40
27.9999999999998685
210
0.0
220
-0.0000000000000002
230
-1.0
 50
180.0
 51
201.3674529899097081
  0
LINE
  5
1B209
  8
0
  6
VERDECKT
 62
     1
 10
69.9999999999999574
 20
269.9999999999997726
 30
-0.00000000000006
 11
69.9999999999999574
 21
259.9999999999997726
 31
-0.0000000000000577
210
-0.0000000000000002
220
1.0
230
-0.0000000000000002
  0
LINE
  5
1B20A
  8
0
  6
VERDECKT
 62
     1
 10
-70.0000000000000711
 20
269.9999999999997726
 30
-0.00000000000006
 11
-70.0000000000000711
 21
259.9999999999997726
 31
-0.0000000000000577
210
-0.0000000000000002
220
1.0
230
-0.0000000000000002
  0
LINE
  5
1B20B
  8
0
  6
VERDECKT
 62
     1
 10
72.000000000048459
 20
267.9999999999997726
 30
-0.0000000000000595
 11
72.000000000048459
 21
259.9999999999997726
 31
-0.0000000000000577
210
-0.0000000000000002
220
1.0
230
-0.0000000000000002
  0
LINE
  5
1B20C
  8
0
  6
VERDECKT
 62
     1
 10
-72.0000000000485727
 20
267.9999999999997726
 30
-0.0000000000000595
 11
-72.0000000000485727
 21
259.9999999999997726
 31
-0.0000000000000577
210
-0.0000000000000002
220
1.0
230
-0.0000000000000002
  0
ARC
  5
1B20D
  8
0
  6
VERDECKT
 62
     1
 10
63.4999999999806803
 20
8.1496268636070095
 30
0.0
 40
0.999999999995076
210
0.0
220
-0.0000000000000002
230
-1.0
 50
354.2894068624837018
 51
0.0000000000115009
  0
ARC
  5
1B20E
  8
0
  6
VERDECKT
 62
     1
 10
-63.499999999980723
 20
8.1496268636070468
 30
0.0
 40
0.9999999999950405
210
0.0
220
-0.0000000000000002
230
-1.0
 50
179.9999999999886029
 51
185.7105931375164118
  0
LINE
  5
1B20F
  8
0
  6
VERDECKT
 62
     1
 10
-63.7099256195317807
 20
0.1990074380465218
 30
0.0
 11
-64.4950371901857409
 21
8.0501231445862107
 31
-0.0000000000000018
210
-0.0000000000000002
220
1.0
230
-0.0000000000000002
  0
LINE
  5
1B210
  8
0
  6
VERDECKT
 62
     1
 10
63.7099256195317807
 20
0.1990074380465581
 30
0.0
 11
64.4950371901857409
 21
8.0501231445862498
 31
-0.0000000000000018
210
-0.0000000000000002
220
1.0
230
-0.0000000000000002
  0
LINE
  5
1B211
  8
0
  6
VERDECKT
 62
     1
 10
64.4999999999756852
 20
234.999999999999801
 30
-0.0000000000000522
 11
64.4999999999757563
 21
8.1496268636072564
 31
-0.0000000000000018
210
-0.0000000000000002
220
1.0
230
-0.0000000000000002
  0
LINE
  5
1B212
  8
0
  6
VERDECKT
 62
     1
 10
-64.4999999999758273
 20
234.9999999999996874
 30
-0.0000000000000522
 11
-64.4999999999757563
 21
8.1496268636071996
 31
-0.0000000000000018
210
-0.0000000000000002
220
1.0
230
-0.0000000000000002
  0
LINE
  5
1B213
  8
0
  6
VERDECKT
 62
     1
 10
63.7099256195317665
 20
0.1990074380465551
 30
0.0
 11
65.7000000000000171
 21
-0.0000000000002687
 31
0.0
210
-0.0000000000000002
220
1.0
230
-0.0000000000000002
  0
LINE
  5
1B214
  8
0
  6
VERDECKT
 62
     1
 10
-63.7099256195317665
 20
0.199007438046519
 30
0.0
 11
-65.7000000000000171
 21
-0.0000000000003059
 31
0.0
210
-0.0000000000000002
220
1.0
230
-0.0000000000000002
  0
ENDBLK
  5
1B216
  8
0
  0
BLOCK
  8
0
  2
A$C65680EF9
 70
     0
 10
0.0
 20
0.0
 30
0.0
  3
A$C65680EF9
  1

  0
CIRCLE
  5
1B21A
  8
0
  6
CONTINUOUS
 62
     3
 10
0.0000000000000961
 20
0.0000000000000018
 30
0.0
 40
61.5
  0
LINE
  5
1B21B
  8
0
  6
CONTINUOUS
 62
     3
 10
95.0000000000488569
 20
-130.0
 30
0.0
 11
95.0000000000487859
 21
-150.0
 31
0.0
  0
LINE
  5
1B21C
  8
0
  6
CONTINUOUS
 62
     3
 10
93.0000000000488001
 20
-150.0
 30
0.0
 11
93.0000000000488711
 21
-130.0
 31
0.0
  0
LINE
  5
1B21D
  8
0
  6
CONTINUOUS
 62
     3
 10
93.0000000000488001
 20
-150.0
 30
0.0
 11
95.0000000000487859
 21
-150.0
 31
0.0000000000000004
  0
LINE
  5
1B21E
  8
0
  6
CONTINUOUS
 62
     3
 10
93.0000000000488569
 20
-130.0
 30
0.0
 11
93.0000000000489138
 21
92.9292893218812992
 31
0.0
  0
LINE
  5
1B21F
  8
0
  6
CONTINUOUS
 62
     3
 10
-149.999999999953701
 20
95.0000000000001421
 30
-0.0000000000000568
 11
-129.999999999953701
 21
95.0000000000001847
 31
-0.0000000000000568
  0
LINE
  5
1B220
  8
0
  6
CONTINUOUS
 62
     3
 10
-149.999999999953701
 20
95.0000000000001421
 30
-0.0000000000000568
 11
-149.999999999953701
 21
93.0000000000001421
 31
-0.0000000000000568
  0
LINE
  5
1B221
  8
0
  6
CONTINUOUS
 62
     3
 10
-129.999999999953701
 20
93.0000000000001847
 30
-0.0000000000000568
 11
-149.999999999953701
 21
93.0000000000001421
 31
-0.0000000000000568
  0
LINE
  5
1B222
  8
0
  6
CONTINUOUS
 62
     3
 10
92.9292893219300993
 20
93.0000000000001279
 30
0.0
 11
-129.999999999953701
 21
93.0000000000001563
 31
-0.0000000000000495
  0
LINE
  5
1B223
  8
0
  6
CONTINUOUS
 62
     3
 10
-149.9999999999511999
 20
91.0000000000000284
 30
-0.0000000000000568
 11
-149.9999999999511999
 21
93.0000000000000142
 31
-0.0000000000000568
  0
LINE
  5
1B224
  8
0
  6
CONTINUOUS
 62
     3
 10
91.0000000000487006
 20
90.9999999999999858
 30
0.0
 11
91.0000000000487006
 21
92.9999999999999858
 31
0.0
  0
LINE
  5
1B225
  8
0
  6
CONTINUOUS
 62
     3
 10
92.9292893219300993
 20
93.0000000000001279
 30
0.0
 11
92.9292893219300993
 21
95.0000000000001137
 31
0.0
  0
LINE
  5
1B226
  8
0
  6
CONTINUOUS
 62
     3
 10
92.9292893219300993
 20
95.0000000000001137
 30
0.0
 11
-129.999999999953701
 21
95.0000000000001705
 31
-0.0000000000000495
  0
LINE
  5
1B227
  8
0
  6
CONTINUOUS
 62
     3
 10
91.000000000048658
 20
-150.0
 30
0.0
 11
93.000000000048658
 21
-150.0
 31
0.0
  0
LINE
  5
1B228
  8
0
  6
CONTINUOUS
 62
     3
 10
93.0000000000489138
 20
92.9292893218813134
 30
0.0
 11
95.0000000000488853
 21
92.9292893218813134
 31
0.0000000000000004
  0
LINE
  5
1B229
  8
0
  6
CONTINUOUS
 62
     3
 10
91.0000000000487006
 20
90.9999999999999858
 30
0.0
 11
93.0000000000486864
 21
90.9999999999999858
 31
0.0
  0
LINE
  5
1B22A
  8
0
  6
CONTINUOUS
 62
     3
 10
95.0000000000488569
 20
-130.0
 30
0.0
 11
95.0000000000488996
 21
92.9292893218812992
 31
0.0
  0
LINE
  5
1B22B
  8
0
  6
CONTINUOUS
 62
     3
 10
-149.9999999999513136
 20
0.0000000000000133
 30
-0.0000000000000568
 11
-149.9999999999511999
 21
91.0000000000000284
 31
-0.0000000000000568
  0
ARC
  5
1B22C
  8
0
  6
CONTINUOUS
 62
     3
 10
0.000000000048746
 20
-0.0000000000000142
 30
0.0
 40
150.0
 50
180.0
 51
270.0
  0
LINE
  5
1B22D
  8
0
  6
CONTINUOUS
 62
     3
 10
91.000000000048658
 20
-150.0
 30
0.0
 11
0.0000000000486864
 21
-150.0
 31
-0.0000000000000202
  0
CIRCLE
  5
1B22E
  8
0
  6
CONTINUOUS
 62
     3
 10
0.0000000000001801
 20
-0.0000000000000029
 30
0.0
 40
64.5
  0
CIRCLE
  5
1B22F
  8
0
  6
CONTINUOUS
 62
     3
 10
0.0000000000001692
 20
0.0000000000000043
 30
0.0
 40
69.9999999999999858
  0
CIRCLE
  5
1B230
  8
0
  6
CONTINUOUS
 62
     3
 10
0.0000000000001692
 20
0.0000000000000043
 30
0.0
 40
72.0000000000485016
  0
CIRCLE
  5
1B231
  8
0
  6
CONTINUOUS
 62
     3
 10
0.0000000000001137
 20
0.0
 30
0.0
 40
63.7099256195317594
  0
CIRCLE
  5
1B232
  8
0
  6
VERDECKT
 62
     1
 10
0.000000000000101
 20
0.0000000000000031
 30
0.0
 40
75.5
  0
CIRCLE
  5
1B233
  8
0
  6
VERDECKT
 62
     1
 10
0.0000000000001004
 20
0.0000000000000029
 30
0.0
 40
71.4801488286690301
  0
CIRCLE
  5
1B234
  8
0
  6
VERDECKT
 62
     1
 10
0.0000000000000993
 20
0.0000000000000026
 30
0.0
 40
73.3000000000000114
  0
CIRCLE
  5
1B235
  8
0
  6
VERDECKT
 62
     1
 10
0.000000000000098
 20
0.0000000000000023
 30
0.0
 40
75.7000000000000455
  0
CIRCLE
  5
1B236
  8
0
  6
VERDECKT
 62
     1
 10
0.0000000000000973
 20
0.0000000000000021
 30
0.0
 40
73.5
  0
CIRCLE
  5
1B237
  8
0
  6
VERDECKT
 62
     1
 10
0.0000000000000959
 20
0.0000000000000017
 30
0.0
 40
73.7000000000000455
  0
CIRCLE
  5
1B238
  8
0
  6
VERDECKT
 62
     1
 10
0.0000000000000966
 20
0.0000000000000019
 30
0.0
 40
70.7000000000000455
  0
CIRCLE
  5
1B239
  8
0
  6
VERDECKT
 62
     1
 10
0.0000000000000966
 20
0.0000000000000019
 30
0.0
 40
70.1568542494921985
  0
CIRCLE
  5
1B23A
  8
0
  6
VERDECKT
 62
     1
 10
0.000000000000101
 20
0.0000000000000031
 30
0.0
 40
67.5
  0
CIRCLE
  5
1B23B
  8
0
  6
VERDECKT
 62
     1
 10
0.0000000000001688
 20
0.0000000000000314
 30
0.0
 40
72.1603532929805596
  0
CIRCLE
  5
1B23C
  8
0
  6
VERDECKT
 62
     1
 10
0.0000000000001689
 20
0.0000000000000314
 30
0.0
 40
70.25
  0
LINE
  5
1B23D
  8
0
  6
VERDECKT
 62
     1
 10
91.0000000000487006
 20
92.9999999999999432
 30
0.0
 11
91.0000000000487006
 21
94.9999999999999574
 31
0.0
  0
LINE
  5
1B23E
  8
0
  6
VERDECKT
 62
     1
 10
93.0000000000486864
 20
90.9999999999999858
 30
0.0
 11
95.0000000000486722
 21
90.9999999999999858
 31
0.0000000000000004
  0
CIRCLE
  5
1B23F
  8
0
  6
VERDECKT
 62
     1
 10
0.000000000000172
 20
0.0000000000000322
 30
0.0
 40
74.0
  0
CIRCLE
  5
1B240
  8
0
  6
VERDECKT
 62
     1
 10
0.000000000000171
 20
0.000000000000032
 30
0.0
 40
74.5
  0
CIRCLE
  5
1B241
  8
0
  6
VERDECKT
 62
     1
 10
0.000000000000171
 20
0.000000000000032
 30
0.0
 40
72.5
  0
LINE
  5
1B242
  8
0
  6
VERDECKT
 62
     1
 10
-133.999999999953701
 20
93.0000000000000853
 30
-0.0000000000000568
 11
-133.999999999953701
 21
95.0000000000000853
 31
-0.0000000000000568
  0
LINE
  5
1B243
  8
0
  6
VERDECKT
 62
     1
 10
-125.999999999953701
 20
93.0000000000001421
 30
0.0
 11
-125.999999999953701
 21
95.0000000000001421
 31
0.0
  0
LINE
  5
1B244
  8
0
  6
VERDECKT
 62
     1
 10
93.0000000000487574
 20
-126.0
 30
0.0
 11
95.0000000000487574
 21
-126.0
 31
0.0000000000000004
  0
LINE
  5
1B245
  8
0
  6
VERDECKT
 62
     1
 10
93.0000000000488143
 20
-134.0
 30
0.0
 11
95.0000000000487859
 21
-134.0
 31
0.0000000000000004
  0
CIRCLE
  5
1B246
  8
0
  6
VERDECKT
 62
     1
 10
0.0000000000001517
 20
-0.0000000000000091
 30
0.0
 40
66.5000000000000142
  0
CIRCLE
  5
1B247
  8
0
  6
VERDECKT
 62
     1
 10
0.0000000000001137
 20
0.0
 30
0.0
 40
65.7000000000000028
  0
ENDBLK
  5
1B249
  8
0
  0
ENDSEC
  0
SECTION
  2
ENTITIES
  0
TEXT
  5
416B
  8
VOLL
 10
441.2467849443549994
 20
195.2108867802037935
 30
0.0
 40
1.8
  1

  7
GREEKS
  0
INSERT
  5
46F1
  8
ADSK_ASSOC_ENTITY_BACKUPS
  2
*S0
 10
0.0
 20
0.0
 30
0.0
  0
INSERT
  5
1B183
  8
STEMPEL
  2
A$C67BC2F38
 10
0.0
 20
0.0
 30
0.0
  0
INSERT
  5
1B217
  8
STEMPEL
  2
A$C9B160BB1
 10
240.0000000000486864
 20
0.0000000000001137
 30
0.0000000000001199
  0
INSERT
  5
1B24A
  8
STEMPEL
  2
A$C65680EF9
 10
0.0000000000000355
 20
-225.9998957656650873
 30
0.0000000000000427
  0
VIEWPORT
  5
46D0
 67
     1
  8
0
 10
297.0095798878588198
 20
210.0048300793376939
 30
0.0
 40
798.1701256077442395
 41
426.3698209718668863
 68
     1
 69
     1
1001
ACAD
1000
MVIEW
1002
{
1070
    16
1010
0.0
1020
0.0
1030
0.0
1010
0.0
1020
0.0
1030
1.0
1040
0.0
1040
426.3698209718668863
1040
297.0095798878588198
1040
210.0048300793376939
1040
50.0
1040
0.0
1040
0.0
1070
     0
1070
  1500
1070
     1
1070
     1
1070
     0
1070
     0
1070
     0
1070
     0
1040
0.0
1040
0.0
1040
0.0
1040
10.0
1040
10.0
1040
10.0
1040
10.0
1070
     0
1002
{
1002
}
1002
}
  0
ENDSEC
  0
EOF
