  0
SECTION
  2
HEADER
  9
$ACADVER
  1
AC1009
  9
$INSBASE
 10
0.0
 20
0.0
 30
0.0
  9
$EXTMIN
 10
-149.9999999999537863
 20
-375.9998957656650873
 30
-0.0000000000000375
  9
$EXTMAX
 10
390.000000000048999
 20
168.9999999999996874
 30
0.000000000000018
  9
$LIMMIN
 10
0.0
 20
0.0
  9
$LIMMAX
 10
1681.9999999999990905
 20
1188.0
  9
$ORTHOMODE
 70
     1
  9
$REGENMODE
 70
     1
  9
$FILLMODE
 70
     1
  9
$QTEXTMODE
 70
     0
  9
$MIRRTEXT
 70
     1
  9
$DRAGMODE
 70
     2
  9
$LTSCALE
 40
20.0
  9
$OSMODE
 70
   511
  9
$ATTMODE
 70
     1
  9
$TEXTSIZE
 40
3.5
  9
$TRACEWID
 40
1.0
  9
$TEXTSTYLE
  7
STANDARD
  9
$CLAYER
  8
STEMPEL
  9
$CELTYPE
  6
BYLAYER
  9
$CECOLOR
 62
   256
  9
$DIMSCALE
 40
1.0
  9
$DIMASZ
 40
3.5
  9
$DIMEXO
 40
1.0
  9
$DIMDLI
 40
0.38
  9
$DIMRND
 40
0.0
  9
$DIMDLE
 40
0.0
  9
$DIMEXE
 40
1.0
  9
$DIMTP
 40
0.0
  9
$DIMTM
 40
0.000000001
  9
$DIMTXT
 40
3.5
  9
$DIMCEN
 40
0.09
  9
$DIMTSZ
 40
0.0
  9
$DIMTOL
 70
     0
  9
$DIMLIM
 70
     0
  9
$DIMTIH
 70
     0
  9
$DIMTOH
 70
     0
  9
$DIMSE1
 70
     0
  9
$DIMSE2
 70
     0
  9
$DIMTAD
 70
     1
  9
$DIMZIN
 70
     8
  9
$DIMBLK
  1

  9
$DIMASO
 70
     1
  9
$DIMSHO
 70
     0
  9
$DIMPOST
  1

  9
$DIMAPOST
  1

  9
$DIMALT
 70
     0
  9
$DIMALTD
 70
     2
  9
$DIMALTF
 40
25.3999999999999986
  9
$DIMLFAC
 40
2.0
  9
$DIMTOFL
 70
     1
  9
$DIMTVP
 40
0.0
  9
$DIMTIX
 70
     0
  9
$DIMSOXD
 70
     0
  9
$DIMSAH
 70
     0
  9
$DIMBLK1
  1

  9
$DIMBLK2
  1

  9
$DIMSTYLE
  2
LORO
  9
$DIMCLRD
 70
     0
  9
$DIMCLRE
 70
     0
  9
$DIMCLRT
 70
     1
  9
$DIMTFAC
 40
0.5
  9
$DIMGAP
 40
1.5
  9
$LUNITS
 70
     2
  9
$LUPREC
 70
     2
  9
$SKETCHINC
 40
1.0
  9
$FILLETRAD
 40
16.0
  9
$AUNITS
 70
     0
  9
$AUPREC
 70
     0
  9
$MENU
  1
ACAD
  9
$ELEVATION
 40
0.0
  9
$PELEVATION
 40
0.0
  9
$THICKNESS
 40
0.0
  9
$LIMCHECK
 70
     0
  9
$BLIPMODE
 70
     0
  9
$CHAMFERA
 40
2.0
  9
$CHAMFERB
 40
2.0
  9
$SKPOLY
 70
     0
  9
$TDCREATE
 40
2455397.867048610933125
  9
$TDUPDATE
 40
2459636.6119212959893048
  9
$TDINDWG
 40
3.8529862963000001
  9
$TDUSRTIMER
 40
3.8529862963000001
  9
$USRTIMER
 70
     1
  9
$ANGBASE
 50
0.0
  9
$ANGDIR
 70
     0
  9
$PDMODE
 70
     0
  9
$PDSIZE
 40
0.0
  9
$PLINEWID
 40
0.0
  9
$COORDS
 70
     1
  9
$SPLFRAME
 70
     0
  9
$SPLINETYPE
 70
     6
  9
$SPLINESEGS
 70
     8
  9
$ATTDIA
 70
     1
  9
$ATTREQ
 70
     1
  9
$HANDLING
 70
     1
  9
$HANDSEED
  5
1B87B
  9
$SURFTAB1
 70
     6
  9
$SURFTAB2
 70
     6
  9
$SURFTYPE
 70
     6
  9
$SURFU
 70
     6
  9
$SURFV
 70
     6
  9
$UCSNAME
  2

  9
$UCSORG
 10
0.0
 20
0.0
 30
0.0
  9
$UCSXDIR
 10
1.0
 20
0.0
 30
0.0
  9
$UCSYDIR
 10
0.0
 20
1.0
 30
0.0
  9
$PUCSNAME
  2

  9
$PUCSORG
 10
0.0
 20
0.0
 30
0.0
  9
$PUCSXDIR
 10
1.0
 20
0.0
 30
0.0
  9
$PUCSYDIR
 10
0.0
 20
1.0
 30
0.0
  9
$USERI1
 70
     0
  9
$USERI2
 70
     0
  9
$USERI3
 70
     0
  9
$USERI4
 70
     0
  9
$USERI5
 70
     0
  9
$USERR1
 40
0.0
  9
$USERR2
 40
0.0
  9
$USERR3
 40
0.0
  9
$USERR4
 40
0.0
  9
$USERR5
 40
0.0
  9
$WORLDVIEW
 70
     1
  9
$SHADEDGE
 70
     3
  9
$SHADEDIF
 70
    70
  9
$TILEMODE
 70
     1
  9
$MAXACTVP
 70
    16
  9
$PLIMCHECK
 70
     0
  9
$PEXTMIN
 10
1.0000000000000000E+20
 20
1.0000000000000000E+20
 30
1.0000000000000000E+20
  9
$PEXTMAX
 10
-1.0000000000000000E+20
 20
-1.0000000000000000E+20
 30
-1.0000000000000000E+20
  9
$PLIMMIN
 10
-2.9604201121412839
 20
-2.0951699206623071
  9
$PLIMMAX
 10
596.9795798878586766
 20
422.1048300793376029
  9
$UNITMODE
 70
     0
  9
$VISRETAIN
 70
     0
  9
$PLINEGEN
 70
     0
  9
$PSLTSCALE
 70
     0
  0
ENDSEC
  0
SECTION
  2
TABLES
  0
TABLE
  2
VPORT
 70
     1
  0
VPORT
  2
*ACTIVE
 70
     0
 10
0.0
 20
0.0
 11
1.0
 21
1.0
 12
25.0
 22
-25.0
 13
0.0
 23
0.0
 14
1.0
 24
1.0
 15
10.0
 25
10.0
 16
-0.00000000000027
 26
0.0
 36
1257.0767151033749087
 17
95.0000000000476064
 27
-78.4999478828326289
 37
0.0000000000000099
 40
547.7876190176631326
 41
1.872013651877132
 42
50.0
 43
0.0
 44
0.0
 50
0.0
 51
0.0
 71
     0
 72
  1500
 73
     1
 74
     0
 75
     0
 76
     0
 77
     0
 78
     0
  0
ENDTAB
  0
TABLE
  2
LTYPE
 70
     3
  0
LTYPE
  2
CONTINUOUS
 70
     0
  3
Solid line
 72
    65
 73
     0
 40
0.0
  0
LTYPE
  2
STRICHPUNKT
 70
     0
  3
__ . __ . __ . __ . __ . __ . __ . __ . __ . __
 72
    65
 73
     4
 40
1.0
 49
0.5
 49
-0.25
 49
0.0
 49
-0.25
  0
LTYPE
  2
VERDECKT
 70
     0
  3
Verdeckt __ __ __ __ __ __ __ __ __ __ __ __ __
 72
    65
 73
     2
 40
0.375
 49
0.25
 49
-0.125
  0
ENDTAB
  0
TABLE
  2
LAYER
 70
     7
  0
LAYER
  2
0
 70
     0
 62
     7
  6
CONTINUOUS
  0
LAYER
  2
VOLL
 70
     0
 62
     1
  6
CONTINUOUS
  0
LAYER
  2
STEMPEL
 70
     0
 62
     3
  6
CONTINUOUS
  0
LAYER
  2
DEFPOINTS
 70
     0
 62
     7
  6
CONTINUOUS
  0
LAYER
  2
ADSK_ASSOC_ENTITY_BACKUPS
 70
     1
 62
    -7
  6
CONTINUOUS
  0
ENDTAB
  0
TABLE
  2
STYLE
 70
     3
  0
STYLE
  2
STANDARD
 70
     0
 40
0.0
 41
0.8
 50
0.0
 71
     0
 42
3.5
  3
simplex.shx
  4

  0
STYLE
  2
GREEKS
 70
     0
 40
0.0
 41
0.8
 50
0.0
 71
     0
 42
2.5
  3
SIMPLEX.shx
  4

  0
ENDTAB
  0
TABLE
  2
VIEW
 70
     0
  0
ENDTAB
  0
TABLE
  2
UCS
 70
     0
  0
ENDTAB
  0
TABLE
  2
APPID
 70
    30
  0
APPID
  2
ACAD
 70
     0
  0
APPID
  2
ACAD_EXEMPT_FROM_CAD_STANDARDS
 70
     0
  0
APPID
  2
ACAD_NAV_VCDISPLAY
 70
     0
  0
APPID
  2
GRADIENTCOLOR1ACI
 70
     0
  0
APPID
  2
GRADIENTCOLOR2ACI
 70
     0
  0
APPID
  2
ACAUTHENVIRON
 70
     0
  0
APPID
  2
ACDBDYNAMICBLOCKTRUENAME
 70
     0
  0
APPID
  2
ACDBDYNAMICBLOCKGUID
 70
     0
  0
APPID
  2
ACAD_PSEXT
 70
     0
  0
APPID
  2
ACAD_MLEADERVER
 70
     0
  0
APPID
  2
ACAECLAYERSTANDARD
 70
     0
  0
APPID
  2
ACCMTRANSPARENCY
 70
     0
  0
APPID
  2
ACAD_STEPID
 70
     0
  0
APPID
  2
ACSYNERGY
 70
     0
  0
APPID
  2
SYNERGY_BODY_TBR_ID
 70
     0
  0
APPID
  2
ACAD_VIEW_EDGE_ID
 70
     0
  0
APPID
  2
ACAD_DSTYLE_DIMJAG
 70
     0
  0
APPID
  2
ACAD_DSTYLE_DIMBREAK
 70
     0
  0
APPID
  2
ACAD_DSTYLE_DIMTALN
 70
     0
  0
APPID
  2
ACADANNOMONITORALERTICONDI
 70
     0
  0
APPID
  2
ACAD_DIMASSOC_CALC_DIMLFAC
 70
     0
  0
APPID
  2
ACAD_DIMASSOC_DIMLFAC
 70
     0
  0
APPID
  2
ACAD_DIMASSOC_OVERRIDDEN_D
 70
     0
  0
APPID
  2
ACAD_DSTYLE_DIMRADIAL_EXTENSION
 70
     0
  0
APPID
  2
ACADANNOPO
 70
     0
  0
APPID
  2
ACSYNERGYSKETCH
 70
     0
  0
APPID
  2
ACAD_MODELDOC_XFORM
 70
     0
  0
APPID
  2
SYNERGY_EXCLUDED_FROM_SNAPSHOT
 70
     0
  0
APPID
  2
PLOTTRANSPARENCY
 70
     0
  0
APPID
  2
ACAD_TC
 70
     0
  0
ENDTAB
  0
TABLE
  2
DIMSTYLE
 70
     2
  0
DIMSTYLE
  2
STANDARD
 70
     0
  3

  4

  5

  6

  7

 40
1.0
 41
0.18
 42
0.0625
 43
0.38
 44
0.18
 45
0.0
 46
0.0
 47
0.0
 48
0.0
140
0.18
141
0.09
142
0.0
143
25.3999999999999986
144
1.0
145
0.0
146
1.0
147
0.09
 71
     0
 72
     0
 73
     1
 74
     1
 75
     0
 76
     0
 77
     0
 78
     0
170
     0
171
     2
172
     0
173
     0
174
     0
175
     0
176
     0
177
     0
178
     0
  0
DIMSTYLE
  2
LORO
 70
     0
  3

  4

  5

  6

  7

 40
1.0
 41
3.5
 42
1.0
 43
0.38
 44
1.0
 45
0.0
 46
0.0
 47
0.0
 48
0.000000001
140
3.5
141
0.09
142
0.0
143
25.3999999999999986
144
2.0
145
0.0
146
0.5
147
1.5
 71
     0
 72
     0
 73
     0
 74
     0
 75
     0
 76
     0
 77
     1
 78
     8
170
     0
171
     2
172
     1
173
     0
174
     0
175
     0
176
     0
177
     0
178
     1
  0
ENDTAB
  0
ENDSEC
  0
SECTION
  2
BLOCKS
  0
BLOCK
  8
0
  2
$MODEL_SPACE
 70
     0
 10
0.0
 20
0.0
 30
0.0
  3
$MODEL_SPACE
  1

  0
ENDBLK
  5
38
  8
0
  0
BLOCK
 67
     1
  8
0
  2
$PAPER_SPACE
 70
     0
 10
0.0
 20
0.0
 30
0.0
  3
$PAPER_SPACE
  1

  0
ENDBLK
  5
36
 67
     1
  8
0
  0
BLOCK
  8
0
  2
*S0
 70
     1
 10
0.0
 20
0.0
 30
0.0
  3
*S0
  1

  0
ENDBLK
  5
46EF
  8
0
  0
BLOCK
  8
0
  2
A$C436FC519
 70
     0
 10
0.0
 20
0.0
 30
0.0
  3
A$C436FC519
  1

  0
LINE
  5
1B6DB
  8
0
  6
CONTINUOUS
 62
     3
 10
-75.4999999999998863
 20
-56.999895765664867
 30
0.0000000000000127
 11
75.5000000000001137
 21
-56.999895765664867
 31
0.0000000000000127
210
0.0
220
1.0
230
-0.0000000000000002
  0
LINE
  5
1B6DC
  8
0
  6
CONTINUOUS
 62
     3
 10
-71.4801488286689164
 20
-59.9998957656648813
 30
0.0000000000000133
 11
71.4801488286691438
 21
-59.9998957656648813
 31
0.0000000000000133
210
0.0
220
1.0
230
-0.0000000000000002
  0
LINE
  5
1B6DD
  8
0
  6
CONTINUOUS
 62
     3
 10
-73.2999999999998835
 20
-64.9998957656648741
 30
0.0000000000000144
 11
73.3000000000001108
 21
-64.9998957656648741
 31
0.0000000000000144
210
0.0
220
1.0
230
-0.0000000000000002
  0
LINE
  5
1B6DE
  8
0
  6
CONTINUOUS
 62
     3
 10
-73.2999999999998835
 20
-68.0998957656648969
 30
0.0000000000000151
 11
73.3000000000001108
 21
-68.0998957656648969
 31
0.0000000000000151
210
0.0
220
1.0
230
-0.0000000000000002
  0
LINE
  5
1B6DF
  8
0
  6
CONTINUOUS
 62
     3
 10
-75.6999999999999318
 20
-70.4998957656648741
 30
0.0000000000000157
 11
75.7000000000001592
 21
-70.4998957656648741
 31
0.0000000000000157
210
0.0
220
1.0
230
-0.0000000000000002
  0
LINE
  5
1B6E0
  8
0
  6
CONTINUOUS
 62
     3
 10
-75.6999999999999318
 20
-71.4998957656648741
 30
0.0000000000000159
 11
75.7000000000001592
 21
-71.4998957656648741
 31
0.0000000000000159
210
0.0
220
1.0
230
-0.0000000000000002
  0
LINE
  5
1B6E1
  8
0
  6
CONTINUOUS
 62
     3
 10
-73.4999999999998863
 20
-73.6998957656649196
 30
0.0000000000000164
 11
73.5000000000001137
 21
-73.6998957656649196
 31
0.0000000000000164
210
0.0
220
1.0
230
-0.0000000000000002
  0
LINE
  5
1B6E2
  8
0
  6
CONTINUOUS
 62
     3
 10
-73.4999999999998863
 20
-76.1893839890133364
 30
0.0000000000000169
 11
73.5000000000001137
 21
-76.1893839890133364
 31
0.0000000000000169
210
0.0
220
1.0
230
-0.0000000000000002
  0
LINE
  5
1B6E3
  8
0
  6
CONTINUOUS
 62
     3
 10
-75.6999999999999318
 20
-79.9998957656648741
 30
0.0000000000000178
 11
75.7000000000001592
 21
-79.9998957656648741
 31
0.0000000000000178
210
0.0
220
1.0
230
-0.0000000000000002
  0
LINE
  5
1B6E4
  8
0
  6
CONTINUOUS
 62
     3
 10
-64.4999999999997726
 20
-80.9998957656648884
 30
0.000000000000018
 11
64.5
 21
-80.9998957656648884
 31
0.000000000000018
210
0.0
220
1.0
230
-0.0000000000000002
  0
LINE
  5
1B6E5
  8
0
  6
CONTINUOUS
 62
     3
 10
-71.4999999999999716
 20
-50.0000000000002913
 30
0.0000000000000111
 11
71.5000000000001847
 21
-50.0000000000002913
 31
0.0000000000000111
210
0.0
220
1.0
230
-0.0000000000000002
  0
ARC
  5
1B6E6
  8
0
  6
CONTINUOUS
 62
     3
 10
70.9999999999998721
 20
-57.9998957656648599
 30
0.0
 40
0.9999999999999857
210
0.0
220
-0.0000000000000002
230
-1.0
 50
89.9999999999992042
 51
180.0000000000007105
  0
ARC
  5
1B6E7
  8
0
  6
CONTINUOUS
 62
     3
 10
-71.0000000000000995
 20
-57.9998957656648599
 30
0.0
 40
0.9999999999999857
210
0.0
220
-0.0000000000000002
230
-1.0
 50
359.9999999999992042
 51
90.00000000000081
  0
LINE
  5
1B6E8
  8
0
  6
CONTINUOUS
 62
     3
 10
70.0000000000001137
 20
-57.999895765664867
 30
0.0000000000000129
 11
70.0000000000001137
 21
-58.999895765664867
 31
0.0000000000000131
210
0.0
220
1.0
230
-0.0000000000000002
  0
LINE
  5
1B6E9
  8
0
  6
CONTINUOUS
 62
     3
 10
-69.9999999999998863
 20
-57.999895765664867
 30
0.0000000000000129
 11
-69.9999999999998863
 21
-58.999895765664867
 31
0.0000000000000131
210
0.0
220
1.0
230
-0.0000000000000002
  0
ARC
  5
1B6EA
  8
0
  6
CONTINUOUS
 62
     3
 10
70.9999999999998721
 20
-58.9998957656648884
 30
0.0
 40
0.9999999999999857
210
0.0
220
-0.0000000000000002
230
-1.0
 50
179.9999999999992042
 51
270.0000000000007958
  0
ARC
  5
1B6EB
  8
0
  6
CONTINUOUS
 62
     3
 10
-71.0000000000000995
 20
-58.9998957656648884
 30
0.0
 40
0.9999999999999857
210
0.0
220
-0.0000000000000002
230
-1.0
 50
270.0
 51
0.0000000000016284
  0
LINE
  5
1B6EC
  8
0
  6
CONTINUOUS
 62
     3
 10
71.4801488286691438
 20
-59.9998957656648813
 30
0.0000000000000133
 11
73.3000000000001251
 21
-64.9998957656648741
 31
0.0000000000000144
210
0.0
220
1.0
230
-0.0000000000000002
  0
LINE
  5
1B6ED
  8
0
  6
CONTINUOUS
 62
     3
 10
-71.4801488286689164
 20
-59.9998957656648813
 30
0.0000000000000133
 11
-73.2999999999998977
 21
-64.9998957656648741
 31
0.0000000000000144
210
0.0
220
1.0
230
-0.0000000000000002
  0
LINE
  5
1B6EE
  8
0
  6
CONTINUOUS
 62
     3
 10
73.3000000000001251
 20
-64.9998957656648741
 30
0.0000000000000144
 11
73.3000000000001251
 21
-68.0998957656648969
 31
0.0000000000000151
210
0.0
220
1.0
230
-0.0000000000000002
  0
LINE
  5
1B6EF
  8
0
  6
CONTINUOUS
 62
     3
 10
-73.2999999999998977
 20
-64.9998957656648741
 30
0.0000000000000144
 11
-73.2999999999998977
 21
-68.0998957656648969
 31
0.0000000000000151
210
0.0
220
1.0
230
-0.0000000000000002
  0
LINE
  5
1B6F0
  8
0
  6
CONTINUOUS
 62
     3
 10
73.3000000000001251
 20
-68.0998957656648969
 30
0.0000000000000151
 11
75.7000000000001592
 21
-70.4998957656648741
 31
0.0000000000000157
210
0.0
220
1.0
230
-0.0000000000000002
  0
LINE
  5
1B6F1
  8
0
  6
CONTINUOUS
 62
     3
 10
-73.2999999999998977
 20
-68.0998957656648969
 30
0.0000000000000151
 11
-75.6999999999999318
 21
-70.4998957656648741
 31
0.0000000000000157
210
0.0
220
1.0
230
-0.0000000000000002
  0
LINE
  5
1B6F2
  8
0
  6
CONTINUOUS
 62
     3
 10
75.7000000000001592
 20
-70.4998957656648741
 30
0.0000000000000157
 11
75.7000000000001592
 21
-71.4998957656648741
 31
0.0000000000000159
210
0.0
220
1.0
230
-0.0000000000000002
  0
LINE
  5
1B6F3
  8
0
  6
CONTINUOUS
 62
     3
 10
-75.6999999999999318
 20
-70.4998957656648741
 30
0.0000000000000157
 11
-75.6999999999999318
 21
-71.4998957656648741
 31
0.0000000000000159
210
0.0
220
1.0
230
-0.0000000000000002
  0
LINE
  5
1B6F4
  8
0
  6
CONTINUOUS
 62
     3
 10
-73.4999999999998863
 20
-73.6998957656649196
 30
0.0000000000000164
 11
-75.6999999999999318
 21
-71.4998957656648741
 31
0.0000000000000159
210
0.0
220
1.0
230
-0.0000000000000002
  0
LINE
  5
1B6F5
  8
0
  6
CONTINUOUS
 62
     3
 10
73.5000000000001137
 20
-73.6998957656649196
 30
0.0000000000000164
 11
75.7000000000001592
 21
-71.4998957656648741
 31
0.0000000000000159
210
0.0
220
1.0
230
-0.0000000000000002
  0
LINE
  5
1B6F6
  8
0
  6
CONTINUOUS
 62
     3
 10
73.5000000000001137
 20
-73.6998957656649196
 30
0.0000000000000164
 11
73.5000000000001137
 21
-76.1893839890133364
 31
0.0000000000000169
210
0.0
220
1.0
230
-0.0000000000000002
  0
LINE
  5
1B6F7
  8
0
  6
CONTINUOUS
 62
     3
 10
-73.4999999999998863
 20
-73.6998957656649196
 30
0.0000000000000164
 11
-73.4999999999998863
 21
-76.1893839890133364
 31
0.0000000000000169
210
0.0
220
1.0
230
-0.0000000000000002
  0
LINE
  5
1B6F8
  8
0
  6
CONTINUOUS
 62
     3
 10
73.5000000000001137
 20
-76.1893839890133364
 30
0.0000000000000169
 11
75.7000000000001592
 21
-79.9998957656648741
 31
0.0000000000000178
210
0.0
220
1.0
230
-0.0000000000000002
  0
LINE
  5
1B6F9
  8
0
  6
CONTINUOUS
 62
     3
 10
-73.4999999999998863
 20
-76.1893839890133364
 30
0.0000000000000169
 11
-75.6999999999999318
 21
-79.9998957656648741
 31
0.0000000000000178
210
0.0
220
1.0
230
-0.0000000000000002
  0
ARC
  5
1B6FA
  8
0
  6
CONTINUOUS
 62
     3
 10
64.4999999999997726
 20
-74.9998957656649736
 30
0.0
 40
5.9999999999998996
210
0.0
220
-0.0000000000000002
230
-1.0
 50
270.0
 51
303.5573097619210898
  0
ARC
  5
1B6FB
  8
0
  6
CONTINUOUS
 62
     3
 10
-64.5
 20
-74.9998957656649736
 30
0.0
 40
5.9999999999999041
210
0.0
220
-0.0000000000000002
230
-1.0
 50
236.4426902380789102
 51
270.0
  0
ARC
  5
1B6FC
  8
0
  6
CONTINUOUS
 62
     3
 10
71.4758400866409431
 20
-52.7998957656648926
 30
0.0
 40
2.8000000000000078
210
0.0
220
-0.0000000000000002
230
-1.0
 50
15.0000000000002895
 51
89.5056149120656244
  0
ARC
  5
1B6FD
  8
0
  6
CONTINUOUS
 62
     3
 10
-71.4758400866411563
 20
-52.7998957656649068
 30
0.0
 40
2.8000000000000211
210
0.0
220
-0.0000000000000002
230
-1.0
 50
90.4943850879346599
 51
164.9999999999996021
  0
LINE
  5
1B6FE
  8
0
  6
CONTINUOUS
 62
     3
 10
74.180432400250524
 20
-52.0752024393778186
 30
0.0000000000000116
 11
75.5000000000001137
 21
-56.999895765664867
 31
0.0000000000000127
210
0.0
220
1.0
230
-0.0000000000000002
  0
LINE
  5
1B6FF
  8
0
  6
CONTINUOUS
 62
     3
 10
-74.1804324002503108
 20
-52.0752024393778186
 30
0.0000000000000116
 11
-75.4999999999998863
 21
-56.999895765664867
 31
0.0000000000000127
210
0.0
220
1.0
230
-0.0000000000000002
  0
LINE
  5
1B700
  8
0
  6
CONTINUOUS
 62
     3
 10
-72.0000000000483595
 20
72.99999999999973
 30
-0.0000000000000162
 11
72.0000000000486438
 21
72.99999999999973
 31
-0.0000000000000162
210
0.0
220
1.0
230
-0.0000000000000002
  0
LINE
  5
1B701
  8
0
  6
CONTINUOUS
 62
     3
 10
-65.6999999999998465
 20
-0.0000000000002884
 30
0.0
 11
65.7000000000001307
 21
-0.00000000000028
 31
0.0
210
0.0
220
1.0
230
-0.0000000000000002
  0
LINE
  5
1B702
  8
0
  6
CONTINUOUS
 62
     3
 10
-68.4246378256497252
 20
48.2017394338644465
 30
-0.0000000000000107
 11
-69.5194308710116218
 21
50.9999999999997726
 31
-0.0000000000000113
210
0.0
220
1.0
230
-0.0000000000000002
  0
LINE
  5
1B703
  8
0
  6
CONTINUOUS
 62
     3
 10
68.4246378256500094
 20
48.2017394338644607
 30
-0.0000000000000107
 11
69.519430871011906
 21
50.9999999999997726
 31
-0.0000000000000113
210
0.0
220
1.0
230
-0.0000000000000002
  0
ARC
  5
1B704
  8
0
  6
CONTINUOUS
 62
     3
 10
94.5000000000003553
 20
37.9999999999996021
 30
0.0
 40
28.0000000000005116
210
0.0
220
-0.0000000000000002
230
-1.0
 50
158.6325470100906045
 51
179.9999999999996874
  0
ARC
  5
1B705
  8
0
  6
CONTINUOUS
 62
     3
 10
-94.5000000000001847
 20
37.9999999999997229
 30
0.0
 40
28.0000000000000284
210
0.0
220
-0.0000000000000002
230
-1.0
 50
0.0
 51
21.3674529899094985
  0
LINE
  5
1B706
  8
0
  6
CONTINUOUS
 62
     3
 10
72.0000000000486438
 20
72.99999999999973
 30
-0.0000000000000162
 11
72.0000000000486438
 21
70.9999999999997584
 31
-0.0000000000000158
210
0.0
220
1.0
230
-0.0000000000000002
  0
LINE
  5
1B707
  8
0
  6
CONTINUOUS
 62
     3
 10
-72.0000000000483595
 20
72.99999999999973
 30
-0.0000000000000162
 11
-72.0000000000483595
 21
70.9999999999997584
 31
-0.0000000000000158
210
0.0
220
1.0
230
-0.0000000000000002
  0
ARC
  5
1B708
  8
0
  6
CONTINUOUS
 62
     3
 10
65.5000000000047748
 20
8.0498756211203144
 30
0.0
 40
0.999999999995083
210
0.0
220
-0.0000000000000002
230
-1.0
 50
354.2894068624837018
 51
0.0000000000115009
  0
ARC
  5
1B709
  8
0
  6
CONTINUOUS
 62
     3
 10
-65.5000000000050733
 20
8.0498756211203197
 30
0.0
 40
0.9999999999950546
210
0.0
220
-0.0000000000000002
230
-1.0
 50
179.9999999999884039
 51
185.7105931375162129
  0
LINE
  5
1B70A
  8
0
  6
CONTINUOUS
 62
     3
 10
66.5000000000001421
 20
37.9999999999997229
 30
-0.0000000000000084
 11
66.5000000000001421
 21
8.0498756211205222
 31
-0.0000000000000018
210
0.0
220
1.0
230
-0.0000000000000002
  0
LINE
  5
1B70B
  8
0
  6
CONTINUOUS
 62
     3
 10
-66.4999999999998579
 20
37.9999999999997087
 30
-0.0000000000000084
 11
-66.4999999999998579
 21
8.0498756211205151
 31
-0.0000000000000018
210
0.0
220
1.0
230
-0.0000000000000002
  0
LINE
  5
1B70C
  8
0
  6
CONTINUOUS
 62
     3
 10
-65.6999999999998607
 20
-0.0000000000002891
 30
0.0
 11
-66.4950371902098425
 21
7.9503719020995147
 31
-0.0000000000000018
210
0.0
220
1.0
230
-0.0000000000000002
  0
LINE
  5
1B70D
  8
0
  6
CONTINUOUS
 62
     3
 10
65.700000000000145
 20
-0.0000000000002847
 30
0.0
 11
66.4950371902101267
 21
7.9503719020995236
 31
-0.0000000000000018
210
0.0
220
1.0
230
-0.0000000000000002
  0
LINE
  5
1B70E
  8
0
  6
CONTINUOUS
 62
     3
 10
-72.1603532929804459
 20
50.9999999999997726
 30
-0.0000000000000113
 11
72.1603532929806732
 21
50.9999999999997726
 31
-0.0000000000000113
210
0.0
220
1.0
230
-0.0000000000000002
  0
CIRCLE
  5
1B70F
  8
0
  6
CONTINUOUS
 62
     3
 10
129.9999999999537863
 20
148.9999999999996874
 30
0.0
 40
4.0000000000000098
210
0.0
220
-0.0000000000000002
230
-1.0
  0
LINE
  5
1B710
  8
0
  6
CONTINUOUS
 62
     3
 10
95.0000000000487717
 20
168.9999999999996874
 30
-0.0000000000000375
 11
95.0000000000487148
 21
148.9999999999996874
 31
-0.0000000000000331
210
0.0
220
1.0
230
-0.0000000000000002
  0
LINE
  5
1B711
  8
0
  6
CONTINUOUS
 62
     3
 10
95.0000000000487574
 20
168.9999999999996874
 30
-0.0000000000000375
 11
93.0000000000487574
 21
168.9999999999996874
 31
-0.0000000000000375
210
0.0
220
1.0
230
-0.0000000000000002
  0
LINE
  5
1B712
  8
0
  6
CONTINUOUS
 62
     3
 10
93.000000000048729
 20
148.9999999999996874
 30
-0.0000000000000331
 11
93.0000000000487859
 21
168.9999999999996874
 31
-0.0000000000000375
210
0.0
220
1.0
230
-0.0000000000000002
  0
LINE
  5
1B713
  8
0
  6
CONTINUOUS
 62
     3
 10
93.0000000000486011
 20
72.9999999999997442
 30
-0.0000000000000162
 11
93.000000000048729
 21
148.9999999999996874
 31
-0.0000000000000331
210
0.0
220
1.0
230
-0.0000000000000002
  0
LINE
  5
1B714
  8
0
  6
CONTINUOUS
 62
     3
 10
95.0000000000485869
 20
72.9999999999997442
 30
-0.0000000000000162
 11
95.0000000000487148
 21
148.9999999999996874
 31
-0.0000000000000331
210
0.0
220
1.0
230
-0.0000000000000002
  0
ARC
  5
1B715
  8
0
  6
CONTINUOUS
 62
     3
 10
129.9999999999537863
 20
148.9999999999996874
 30
0.0
 40
20.0
210
0.0
220
-0.0000000000000002
230
-1.0
 50
359.999999999998181
 51
90.0000000000000284
  0
LINE
  5
1B716
  8
0
  6
CONTINUOUS
 62
     3
 10
-149.9999999999513989
 20
72.9999999999997442
 30
-0.0000000000000162
 11
-149.9999999999537863
 21
148.9999999999990905
 31
-0.0000000000000331
210
0.0
220
1.0
230
-0.0000000000000002
  0
LINE
  5
1B717
  8
0
  6
CONTINUOUS
 62
     3
 10
91.0000000000486438
 20
72.9999999999997442
 30
-0.0000000000000162
 11
92.9292893219300851
 21
72.9999999999997442
 31
-0.0000000000000162
210
0.0
220
1.0
230
-0.0000000000000002
  0
LINE
  5
1B718
  8
0
  6
CONTINUOUS
 62
     3
 10
92.9292893219299856
 20
72.9999999999997442
 30
-0.0000000000000162
 11
92.9292893219299856
 21
168.9999999999996874
 31
-0.0000000000000375
210
0.0
220
1.0
230
-0.0000000000000002
  0
LINE
  5
1B719
  8
0
  6
CONTINUOUS
 62
     3
 10
92.929289321930014
 20
168.9999999999996874
 30
-0.0000000000000375
 11
-129.9999999999537863
 21
168.9999999999996874
 31
-0.0000000000000375
210
0.0
220
1.0
230
-0.0000000000000002
  0
LINE
  5
1B71A
  8
0
  6
CONTINUOUS
 62
     3
 10
-149.9999999999513136
 20
70.9999999999997726
 30
-0.0000000000000158
 11
-149.9999999999513136
 21
72.9999999999997442
 31
-0.0000000000000162
210
0.0
220
1.0
230
-0.0000000000000002
  0
LINE
  5
1B71B
  8
0
  6
CONTINUOUS
 62
     3
 10
91.0000000000486438
 20
70.9999999999997584
 30
-0.0000000000000158
 11
91.0000000000486438
 21
72.9999999999997442
 31
-0.0000000000000162
210
0.0
220
1.0
230
-0.0000000000000002
  0
ARC
  5
1B71C
  8
0
  6
CONTINUOUS
 62
     3
 10
91.0000000000485869
 20
72.9999999999997442
 30
-0.0000000000000162
 40
3.9999999999999778
 50
270.0
 51
0.0000000000001895
  0
ARC
  5
1B71D
  8
0
  6
CONTINUOUS
 62
     3
 10
91.0000000000485869
 20
72.9999999999997442
 30
-0.0000000000000162
 40
2.0000000000000031
 50
270.0
 51
359.9999999999997726
  0
LINE
  5
1B71E
  8
0
  6
CONTINUOUS
 62
     3
 10
-149.9999999999513136
 20
68.9999999999997726
 30
-0.0000000000000153
 11
-149.9999999999513136
 21
70.9999999999997726
 31
-0.0000000000000158
210
0.0
220
1.0
230
-0.0000000000000002
  0
LINE
  5
1B71F
  8
0
  6
CONTINUOUS
 62
     3
 10
0.0000000000486304
 20
68.9999999999997584
 30
-0.0000000000000153
 11
91.0000000000485869
 21
68.9999999999997584
 31
-0.0000000000000153
210
0.0
220
1.0
230
-0.0000000000000002
  0
LINE
  5
1B720
  8
0
  6
CONTINUOUS
 62
     3
 10
0.0000000000486257
 20
68.9999999999997584
 30
-0.0000000000000153
 11
-149.9999999999513136
 21
68.9999999999997726
 31
-0.0000000000000153
210
0.0
220
1.0
230
-0.0000000000000002
  0
LINE
  5
1B721
  8
0
  6
CONTINUOUS
 62
     3
 10
-149.9999999999513136
 20
70.9999999999997726
 30
-0.0000000000000158
 11
0.0000000000486295
 21
70.9999999999997584
 31
-0.0000000000000158
210
0.0
220
1.0
230
-0.0000000000000002
  0
LINE
  5
1B722
  8
0
  6
CONTINUOUS
 62
     3
 10
91.0000000000485869
 20
70.9999999999997584
 30
-0.0000000000000158
 11
0.0000000000486295
 21
70.9999999999997584
 31
-0.0000000000000158
210
0.0
220
1.0
230
-0.0000000000000002
  0
ARC
  5
1B723
  8
0
  6
CONTINUOUS
 62
     3
 10
77.4999999999999005
 20
65.4999999999997442
 30
0.0
 40
3.5000000000000129
210
0.0
220
-0.0000000000000002
230
-1.0
 50
90.0000000000002416
 51
192.8280495223827984
  0
ARC
  5
1B724
  8
0
  6
CONTINUOUS
 62
     3
 10
-77.5000000000000853
 20
65.4999999999997868
 30
0.0
 40
3.4999999999999751
210
0.0
220
-0.0000000000000002
230
-1.0
 50
347.1719504776168037
 51
90.000000000000469
  0
ARC
  5
1B725
  8
0
  6
CONTINUOUS
 62
     3
 10
57.9673251498184712
 20
61.0522281027256781
 30
0.0
 40
16.5326748501814116
210
0.0
220
-0.0000000000000002
230
-1.0
 50
342.7803027270546181
 51
12.8280495223827504
  0
ARC
  5
1B726
  8
0
  6
CONTINUOUS
 62
     3
 10
-57.967325149818862
 20
61.0522281027256426
 30
0.0
 40
16.5326748501812588
210
0.0
220
-0.0000000000000002
230
-1.0
 50
167.171950477616889
 51
197.2196972729454103
  0
LINE
  5
1B727
  8
0
  6
CONTINUOUS
 62
     3
 10
-72.1603532929804459
 20
50.9999999999997726
 30
-0.0000000000000113
 11
-73.7589500707289432
 21
56.157953891047292
 31
-0.0000000000000125
210
0.0
220
1.0
230
-0.0000000000000002
  0
LINE
  5
1B728
  8
0
  6
CONTINUOUS
 62
     3
 10
72.1603532929806732
 20
50.9999999999997726
 30
-0.0000000000000113
 11
73.7589500707291705
 21
56.157953891047292
 31
-0.0000000000000125
210
0.0
220
1.0
230
-0.0000000000000002
  0
LINE
  5
1B729
  8
0
  6
VERDECKT
 62
     1
 10
-70.6999999999999318
 20
-76.9998957656648741
 30
0.0000000000000171
 11
70.7000000000001592
 21
-76.9998957656648741
 31
0.0000000000000171
210
0.0
220
1.0
230
-0.0000000000000002
  0
LINE
  5
1B72A
  8
0
  6
VERDECKT
 62
     1
 10
-61.4999999999998792
 20
-78.9998957656648741
 30
0.0000000000000175
 11
61.5000000000001066
 21
-78.9998957656648741
 31
0.0000000000000175
210
0.0
220
1.0
230
-0.0000000000000002
  0
LINE
  5
1B72B
  8
0
  6
VERDECKT
 62
     1
 10
70.7000000000001592
 20
-76.9998957656648741
 30
0.0000000000000171
 11
73.7000000000001592
 21
-79.9998957656648741
 31
0.0000000000000178
210
0.0
220
1.0
230
-0.0000000000000002
  0
LINE
  5
1B72C
  8
0
  6
VERDECKT
 62
     1
 10
-70.6999999999999318
 20
-76.9998957656648741
 30
0.0000000000000171
 11
-73.6999999999999318
 21
-79.9998957656648741
 31
0.0000000000000178
210
0.0
220
1.0
230
-0.0000000000000002
  0
ARC
  5
1B72D
  8
0
  6
VERDECKT
 62
     1
 10
64.4999999999997868
 20
-74.9998957656649736
 30
0.0
 40
5.9999999999998836
210
0.0
220
-0.0000000000000002
230
-1.0
 50
303.5573097619209761
 51
340.5287793655102178
  0
ARC
  5
1B72E
  8
0
  6
VERDECKT
 62
     1
 10
-64.4999999999998437
 20
-74.9998957656648599
 30
0.0
 40
6.0000000000000773
210
0.0
220
-0.0000000000000002
230
-1.0
 50
199.4712206344902086
 51
236.4426902380783986
  0
LINE
  5
1B72F
  8
0
  6
VERDECKT
 62
     1
 10
61.5000000000001066
 20
-78.9998957656648741
 30
0.0000000000000175
 11
61.5000000000001066
 21
-80.9998957656648741
 31
0.000000000000018
210
0.0
220
1.0
230
-0.0000000000000002
  0
LINE
  5
1B730
  8
0
  6
VERDECKT
 62
     1
 10
-61.4999999999998792
 20
-78.9998957656648741
 30
0.0000000000000175
 11
-61.4999999999998792
 21
-80.9998957656648741
 31
0.000000000000018
210
0.0
220
1.0
230
-0.0000000000000002
  0
ARC
  5
1B731
  8
0
  6
VERDECKT
 62
     1
 10
61.4999999999999076
 20
-72.9998957656648741
 30
0.0
 40
5.9999999999999849
210
0.0
220
-0.0000000000000002
230
-1.0
 50
270.0
 51
0.0000000000003435
  0
ARC
  5
1B732
  8
0
  6
VERDECKT
 62
     1
 10
-61.5000000000001279
 20
-72.9998957656648741
 30
0.0
 40
5.9999999999999778
210
0.0
220
-0.0000000000000002
230
-1.0
 50
179.999999999999801
 51
270.0000000000002274
  0
LINE
  5
1B733
  8
0
  6
VERDECKT
 62
     1
 10
67.5000000000001137
 20
-56.999895765664867
 30
0.0000000000000127
 11
67.5000000000001137
 21
-72.9998957656648741
 31
0.0000000000000162
210
0.0
220
1.0
230
-0.0000000000000002
  0
LINE
  5
1B734
  8
0
  6
VERDECKT
 62
     1
 10
-67.4999999999998863
 20
-56.999895765664867
 30
0.0000000000000127
 11
-67.4999999999998863
 21
-72.9998957656648741
 31
0.0000000000000162
210
0.0
220
1.0
230
-0.0000000000000002
  0
LINE
  5
1B735
  8
0
  6
VERDECKT
 62
     1
 10
-67.4999999999998863
 20
-56.999895765664867
 30
0.0000000000000127
 11
-68.8195675997493908
 21
-52.075202439377847
 31
0.0000000000000116
210
0.0
220
1.0
230
-0.0000000000000002
  0
LINE
  5
1B736
  8
0
  6
VERDECKT
 62
     1
 10
67.5000000000001137
 20
-56.999895765664867
 30
0.0000000000000127
 11
68.8195675997496039
 21
-52.075202439377847
 31
0.0000000000000116
210
0.0
220
1.0
230
-0.0000000000000002
  0
ARC
  5
1B737
  8
0
  6
VERDECKT
 62
     1
 10
71.5241599133588153
 20
-52.7998957656649068
 30
0.0
 40
2.8000000000000269
210
0.0
220
-0.0000000000000002
230
-1.0
 50
90.4943850879311782
 51
165.0
  0
ARC
  5
1B738
  8
0
  6
VERDECKT
 62
     1
 10
-71.5241599133590427
 20
-52.7998957656649068
 30
0.0
 40
2.800000000000034
210
0.0
220
-0.0000000000000002
230
-1.0
 50
15.0
 51
89.5056149120688076
  0
LINE
  5
1B739
  8
0
  6
VERDECKT
 62
     1
 10
-63.7099256195316173
 20
0.1990074380465372
 30
0.0
 11
63.7099256195318873
 21
0.1990074380465453
 31
0.0
210
0.0
220
1.0
230
-0.0000000000000002
  0
ARC
  5
1B73A
  8
0
  6
VERDECKT
 62
     1
 10
41.9999999999994529
 20
62.9999999999998082
 30
0.0
 40
30.0000000000004086
210
0.0
220
-0.0000000000000002
230
-1.0
 50
338.6325470100906045
 51
359.9999999999997726
  0
ARC
  5
1B73B
  8
0
  6
VERDECKT
 62
     1
 10
-42.0000000000001776
 20
62.9999999999997087
 30
0.0
 40
29.9999999999999503
210
0.0
220
-0.0000000000000002
230
-1.0
 50
179.9999999999998863
 51
201.3674529899095091
  0
LINE
  5
1B73C
  8
0
  6
VERDECKT
 62
     1
 10
-69.5194308710116218
 20
50.9999999999997726
 30
-0.0000000000000113
 11
-69.9378880439464155
 21
52.0695648922875165
 31
-0.0000000000000116
210
0.0
220
1.0
230
-0.0000000000000002
  0
LINE
  5
1B73D
  8
0
  6
VERDECKT
 62
     1
 10
69.519430871011906
 20
50.9999999999997726
 30
-0.0000000000000113
 11
69.9378880439466855
 21
52.0695648922875307
 31
-0.0000000000000116
210
0.0
220
1.0
230
-0.0000000000000002
  0
ARC
  5
1B73E
  8
0
  6
VERDECKT
 62
     1
 10
94.5000000000001279
 20
37.9999999999997371
 30
0.0
 40
30.0000000000002593
210
0.0
220
-0.0000000000000002
230
-1.0
 50
158.6325470100906045
 51
180.0
  0
ARC
  5
1B73F
  8
0
  6
VERDECKT
 62
     1
 10
-94.4999999999994458
 20
37.9999999999999218
 30
0.0
 40
29.9999999999993108
210
0.0
220
-0.0000000000000002
230
-1.0
 50
0.0
 51
21.3674529899101309
  0
LINE
  5
1B740
  8
0
  6
VERDECKT
 62
     1
 10
-66.5621119560533003
 20
48.9304351077119719
 30
-0.0000000000000109
 11
-68.0753621743499906
 21
52.7982605661350206
 31
-0.0000000000000117
210
0.0
220
1.0
230
-0.0000000000000002
  0
LINE
  5
1B741
  8
0
  6
VERDECKT
 62
     1
 10
66.5621119560535845
 20
48.9304351077119932
 30
-0.0000000000000109
 11
68.0753621743502606
 21
52.7982605661350206
 31
-0.0000000000000117
210
0.0
220
1.0
230
-0.0000000000000002
  0
ARC
  5
1B742
  8
0
  6
VERDECKT
 62
     1
 10
42.0000000000001634
 20
62.9999999999997016
 30
0.0
 40
27.9999999999997016
210
0.0
220
-0.0000000000000002
230
-1.0
 50
338.6325470100903203
 51
0.0000000000000763
  0
ARC
  5
1B743
  8
0
  6
VERDECKT
 62
     1
 10
-42.0000000000000711
 20
62.9999999999997513
 30
0.0
 40
28.0000000000000604
210
0.0
220
-0.0000000000000002
230
-1.0
 50
180.0
 51
201.3674529899093955
  0
LINE
  5
1B744
  8
0
  6
VERDECKT
 62
     1
 10
70.0000000000001421
 20
72.9999999999997442
 30
-0.0000000000000162
 11
70.0000000000001421
 21
62.9999999999997371
 31
-0.000000000000014
210
0.0
220
1.0
230
-0.0000000000000002
  0
LINE
  5
1B745
  8
0
  6
VERDECKT
 62
     1
 10
-69.9999999999998437
 20
72.99999999999973
 30
-0.0000000000000162
 11
-69.9999999999998437
 21
62.9999999999997371
 31
-0.000000000000014
210
0.0
220
1.0
230
-0.0000000000000002
  0
LINE
  5
1B746
  8
0
  6
VERDECKT
 62
     1
 10
72.0000000000486438
 20
70.9999999999997584
 30
-0.0000000000000158
 11
72.0000000000486438
 21
62.99999999999973
 31
-0.000000000000014
210
0.0
220
1.0
230
-0.0000000000000002
  0
LINE
  5
1B747
  8
0
  6
VERDECKT
 62
     1
 10
-72.0000000000483595
 20
70.9999999999997584
 30
-0.0000000000000158
 11
-72.0000000000483595
 21
62.99999999999973
 31
-0.000000000000014
210
0.0
220
1.0
230
-0.0000000000000002
  0
ARC
  5
1B748
  8
0
  6
VERDECKT
 62
     1
 10
63.4999999999805169
 20
8.1496268636070202
 30
0.0
 40
0.9999999999950759
210
0.0
220
-0.0000000000000002
230
-1.0
 50
354.2894068624837018
 51
0.0000000000115136
  0
ARC
  5
1B749
  8
0
  6
VERDECKT
 62
     1
 10
-63.4999999999808367
 20
8.1496268636070308
 30
0.0
 40
0.9999999999950404
210
0.0
220
-0.0000000000000002
230
-1.0
 50
179.9999999999886029
 51
185.7105931375164118
  0
LINE
  5
1B74A
  8
0
  6
VERDECKT
 62
     1
 10
-63.7099256195316173
 20
0.1990074380465359
 30
0.0
 11
-64.4950371901855846
 21
8.0501231445862231
 31
-0.0000000000000018
210
0.0
220
1.0
230
-0.0000000000000002
  0
LINE
  5
1B74B
  8
0
  6
VERDECKT
 62
     1
 10
63.7099256195319015
 20
0.1990074380465395
 30
0.0
 11
64.4950371901858546
 21
8.0501231445862338
 31
-0.0000000000000018
210
0.0
220
1.0
230
-0.0000000000000002
  0
LINE
  5
1B74C
  8
0
  6
VERDECKT
 62
     1
 10
64.4999999999758842
 20
37.9999999999997371
 30
-0.0000000000000084
 11
64.4999999999758842
 21
8.1496268636072298
 31
-0.0000000000000018
210
0.0
220
1.0
230
-0.0000000000000002
  0
LINE
  5
1B74D
  8
0
  6
VERDECKT
 62
     1
 10
-64.4999999999756
 20
37.99999999999973
 30
-0.0000000000000084
 11
-64.4999999999756
 21
8.1496268636072227
 31
-0.0000000000000018
210
0.0
220
1.0
230
-0.0000000000000002
  0
LINE
  5
1B74E
  8
0
  6
VERDECKT
 62
     1
 10
63.7099256195319015
 20
0.199007438046541
 30
0.0
 11
65.700000000000145
 21
-0.0000000000002832
 31
0.0
210
0.0
220
1.0
230
-0.0000000000000002
  0
LINE
  5
1B74F
  8
0
  6
VERDECKT
 62
     1
 10
-63.7099256195316173
 20
0.199007438046533
 30
0.0
 11
-65.6999999999998607
 21
-0.0000000000002915
 31
0.0
210
0.0
220
1.0
230
-0.0000000000000002
  0
LINE
  5
1B750
  8
0
  6
VERDECKT
 62
     1
 10
-70.2499999999998863
 20
51.5920728806473576
 30
-0.0000000000000115
 11
70.2500000000001137
 21
51.5920728806473576
 31
-0.0000000000000115
210
0.0
220
1.0
230
-0.0000000000000002
  0
LINE
  5
1B751
  8
0
  6
VERDECKT
 62
     1
 10
91.0000000000486438
 20
70.9999999999997584
 30
-0.0000000000000158
 11
91.0000000000486438
 21
68.9999999999997584
 31
-0.0000000000000153
210
0.0
220
1.0
230
-0.0000000000000002
  0
LINE
  5
1B752
  8
0
  6
VERDECKT
 62
     1
 10
93.0000000000486153
 20
72.9999999999997442
 30
-0.0000000000000162
 11
95.0000000000486153
 21
72.9999999999997442
 31
-0.0000000000000162
210
0.0
220
1.0
230
-0.0000000000000002
  0
LINE
  5
1B753
  8
0
  6
VERDECKT
 62
     1
 10
70.2500000000001137
 20
51.5920728806473718
 30
-0.0000000000000115
 11
72.1603532929806732
 21
50.9999999999997797
 31
-0.0000000000000113
210
0.0
220
1.0
230
-0.0000000000000002
  0
LINE
  5
1B754
  8
0
  6
VERDECKT
 62
     1
 10
-70.2499999999998863
 20
51.5920728806473718
 30
-0.0000000000000115
 11
-72.1603532929804459
 21
50.9999999999997797
 31
-0.0000000000000113
210
0.0
220
1.0
230
-0.0000000000000002
  0
LINE
  5
1B755
  8
0
  6
VERDECKT
 62
     1
 10
-70.2499999999998863
 20
51.5920728806473576
 30
-0.0000000000000115
 11
-71.8485967777483836
 21
56.7500267716948699
 31
-0.0000000000000126
210
0.0
220
1.0
230
-0.0000000000000002
  0
LINE
  5
1B756
  8
0
  6
VERDECKT
 62
     1
 10
70.2500000000001137
 20
51.5920728806473576
 30
-0.0000000000000115
 11
71.848596777748611
 21
56.7500267716948699
 31
-0.0000000000000126
210
0.0
220
1.0
230
-0.0000000000000002
  0
ARC
  5
1B757
  8
0
  6
VERDECKT
 62
     1
 10
57.9673251498186417
 20
61.0522281027256426
 30
0.0
 40
14.5326748501812499
210
0.0
220
-0.0000000000000002
230
-1.0
 50
342.7803027270546181
 51
12.8280495223830204
  0
ARC
  5
1B758
  8
0
  6
VERDECKT
 62
     1
 10
-57.967325149818862
 20
61.0522281027256426
 30
0.0
 40
14.5326748501812499
210
0.0
220
-0.0000000000000002
230
-1.0
 50
167.171950477616889
 51
197.2196972729454103
  0
ARC
  5
1B759
  8
0
  6
VERDECKT
 62
     1
 10
77.4999999999999005
 20
65.4999999999997442
 30
0.0
 40
5.5000000000000284
210
0.0
220
-0.0000000000000002
230
-1.0
 50
90.0000000000001705
 51
192.8280495223827131
  0
ARC
  5
1B75A
  8
0
  6
VERDECKT
 62
     1
 10
-77.5000000000001279
 20
65.4999999999997442
 30
0.0
 40
5.5000000000000249
210
0.0
220
-0.0000000000000002
230
-1.0
 50
347.1719504776173153
 51
89.9999999999998437
  0
LINE
  5
1B75B
  8
0
  6
VERDECKT
 62
     1
 10
93.0000000000486864
 20
152.9999999999996874
 30
-0.000000000000034
 11
95.0000000000487006
 21
152.9999999999996874
 31
-0.000000000000034
210
0.0
220
1.0
230
-0.0000000000000002
  0
LINE
  5
1B75C
  8
0
  6
VERDECKT
 62
     1
 10
93.0000000000486722
 20
144.9999999999996874
 30
-0.0000000000000322
 11
95.0000000000486722
 21
144.9999999999996874
 31
-0.0000000000000322
210
0.0
220
1.0
230
-0.0000000000000002
  0
ENDBLK
  5
1B75E
  8
0
  0
BLOCK
  8
0
  2
A$CFD6D9054
 70
     0
 10
0.0
 20
0.0
 30
0.0
  3
A$CFD6D9054
  1

  0
LINE
  5
1B762
  8
0
  6
CONTINUOUS
 62
     3
 10
-75.5
 20
-56.9998957656649026
 30
0.0000000000000127
 11
-0.0000000000000016
 21
-56.9998957656648884
 31
0.0000000000000127
210
-0.0000000000000002
220
1.0
230
-0.0000000000000002
  0
LINE
  5
1B763
  8
0
  6
CONTINUOUS
 62
     3
 10
0.0000000000000243
 20
-56.9998957656648884
 30
0.0000000000000127
 11
75.5000000000000142
 21
-56.999895765664867
 31
0.0000000000000127
210
-0.0000000000000002
220
1.0
230
-0.0000000000000002
  0
LINE
  5
1B764
  8
0
  6
CONTINUOUS
 62
     3
 10
-71.4801488286690443
 20
-59.9998957656649097
 30
0.0000000000000133
 11
-0.0000000000000009
 21
-59.9998957656648884
 31
0.0000000000000133
210
-0.0000000000000002
220
1.0
230
-0.0000000000000002
  0
LINE
  5
1B765
  8
0
  6
CONTINUOUS
 62
     3
 10
0.0000000000000167
 20
-59.9998957656648884
 30
0.0000000000000133
 11
71.4801488286690585
 21
-59.999895765664867
 31
0.0000000000000133
210
-0.0000000000000002
220
1.0
230
-0.0000000000000002
  0
LINE
  5
1B766
  8
0
  6
CONTINUOUS
 62
     3
 10
-73.3000000000000114
 20
-64.9998957656649026
 30
0.0000000000000144
 11
0.0000000000000002
 21
-64.9998957656648884
 31
0.0000000000000144
210
-0.0000000000000002
220
1.0
230
-0.0000000000000002
  0
LINE
  5
1B767
  8
0
  6
CONTINUOUS
 62
     3
 10
0.0000000000000142
 20
-64.9998957656648884
 30
0.0000000000000144
 11
73.3000000000000256
 21
-64.9998957656648741
 31
0.0000000000000144
210
-0.0000000000000002
220
1.0
230
-0.0000000000000002
  0
LINE
  5
1B768
  8
0
  6
CONTINUOUS
 62
     3
 10
-73.3000000000000114
 20
-68.0998957656649253
 30
0.0000000000000151
 11
0.0000000000000009
 21
-68.0998957656649111
 31
0.0000000000000151
210
-0.0000000000000002
220
1.0
230
-0.0000000000000002
  0
LINE
  5
1B769
  8
0
  6
CONTINUOUS
 62
     3
 10
0.0000000000000151
 20
-68.0998957656649111
 30
0.0000000000000151
 11
73.3000000000000256
 21
-68.0998957656648969
 31
0.0000000000000151
210
-0.0000000000000002
220
1.0
230
-0.0000000000000002
  0
LINE
  5
1B76A
  8
0
  6
CONTINUOUS
 62
     3
 10
-75.7000000000000455
 20
-70.4998957656649026
 30
0.0000000000000157
 11
0.0000000000000014
 21
-70.4998957656648741
 31
0.0000000000000157
210
-0.0000000000000002
220
1.0
230
-0.0000000000000002
  0
LINE
  5
1B76B
  8
0
  6
CONTINUOUS
 62
     3
 10
0.0000000000000261
 20
-70.4998957656648741
 30
0.0000000000000157
 11
75.7000000000000739
 21
-70.4998957656648741
 31
0.0000000000000157
210
-0.0000000000000002
220
1.0
230
-0.0000000000000002
  0
LINE
  5
1B76C
  8
0
  6
CONTINUOUS
 62
     3
 10
-75.7000000000000455
 20
-71.4998957656649026
 30
0.0000000000000159
 11
0.0000000000000017
 21
-71.4998957656648884
 31
0.0000000000000159
210
-0.0000000000000002
220
1.0
230
-0.0000000000000002
  0
LINE
  5
1B76D
  8
0
  6
CONTINUOUS
 62
     3
 10
0.0000000000000264
 20
-71.4998957656648884
 30
0.0000000000000159
 11
75.7000000000000739
 21
-71.4998957656648741
 31
0.0000000000000159
210
-0.0000000000000002
220
1.0
230
-0.0000000000000002
  0
LINE
  5
1B76E
  8
0
  6
CONTINUOUS
 62
     3
 10
-73.5
 20
-73.699895765664948
 30
0.0000000000000164
 11
0.0000000000000022
 21
-73.6998957656649338
 31
0.0000000000000164
210
-0.0000000000000002
220
1.0
230
-0.0000000000000002
  0
LINE
  5
1B76F
  8
0
  6
CONTINUOUS
 62
     3
 10
0.0000000000000244
 20
-73.6998957656649338
 30
0.0000000000000164
 11
73.5000000000000284
 21
-73.6998957656649196
 31
0.0000000000000164
210
-0.0000000000000002
220
1.0
230
-0.0000000000000002
  0
LINE
  5
1B770
  8
0
  6
CONTINUOUS
 62
     3
 10
-73.5
 20
-76.1893839890133648
 30
0.0000000000000169
 11
0.0000000000000027
 21
-76.1893839890133506
 31
0.0000000000000169
210
-0.0000000000000002
220
1.0
230
-0.0000000000000002
  0
LINE
  5
1B771
  8
0
  6
CONTINUOUS
 62
     3
 10
0.0000000000000251
 20
-76.1893839890133506
 30
0.0000000000000169
 11
73.5000000000000284
 21
-76.1893839890133364
 31
0.0000000000000169
210
-0.0000000000000002
220
1.0
230
-0.0000000000000002
  0
LINE
  5
1B772
  8
0
  6
CONTINUOUS
 62
     3
 10
-75.7000000000000455
 20
-79.9998957656649026
 30
0.0000000000000178
 11
0.0000000000000036
 21
-79.9998957656648884
 31
0.0000000000000178
210
-0.0000000000000002
220
1.0
230
-0.0000000000000002
  0
LINE
  5
1B773
  8
0
  6
CONTINUOUS
 62
     3
 10
0.0000000000000288
 20
-79.9998957656648884
 30
0.0000000000000178
 11
75.7000000000000739
 21
-79.9998957656648741
 31
0.0000000000000178
210
-0.0000000000000002
220
1.0
230
-0.0000000000000002
  0
LINE
  5
1B774
  8
0
  6
CONTINUOUS
 62
     3
 10
-64.4999999999998863
 20
-80.999895765664931
 30
0.000000000000018
 11
0.0000000000000038
 21
-80.9998957656649168
 31
0.000000000000018
210
-0.0000000000000002
220
1.0
230
-0.0000000000000002
  0
LINE
  5
1B775
  8
0
  6
CONTINUOUS
 62
     3
 10
0.000000000000031
 20
-80.9998957656649168
 30
0.000000000000018
 11
64.4999999999999147
 21
-80.9998957656649168
 31
0.000000000000018
210
-0.0000000000000002
220
1.0
230
-0.0000000000000002
  0
LINE
  5
1B776
  8
0
  6
CONTINUOUS
 62
     3
 10
-71.5000000000000711
 20
-50.0000000000003126
 30
0.0000000000000111
 11
-0.0000000000000031
 21
-50.0000000000002984
 31
0.0000000000000111
210
-0.0000000000000002
220
1.0
230
-0.0000000000000002
  0
LINE
  5
1B777
  8
0
  6
CONTINUOUS
 62
     3
 10
0.0000000000000117
 20
-50.0000000000002984
 30
0.0000000000000111
 11
71.5000000000000995
 21
-50.0000000000002771
 31
0.0000000000000111
210
-0.0000000000000002
220
1.0
230
-0.0000000000000002
  0
ARC
  5
1B778
  8
0
  6
CONTINUOUS
 62
     3
 10
70.9999999999999858
 20
-57.9998957656649026
 30
0.0
 40
0.999999999999993
210
0.0
220
-0.0000000000000002
230
-1.0
 50
89.9999999999991758
 51
180.0000000000003979
  0
ARC
  5
1B779
  8
0
  6
CONTINUOUS
 62
     3
 10
-71.0000000000000142
 20
-57.9998957656648599
 30
0.0
 40
0.9999999999999859
210
0.0
220
-0.0000000000000002
230
-1.0
 50
359.9999999999996021
 51
90.0000000000007958
  0
LINE
  5
1B77A
  8
0
  6
CONTINUOUS
 62
     3
 10
70.0000000000000284
 20
-57.999895765664867
 30
0.0000000000000129
 11
70.0000000000000284
 21
-58.9998957656648599
 31
0.0000000000000131
210
-0.0000000000000002
220
1.0
230
-0.0000000000000002
  0
LINE
  5
1B77B
  8
0
  6
CONTINUOUS
 62
     3
 10
-70.0
 20
-57.9998957656649097
 30
0.0000000000000129
 11
-70.0
 21
-58.9998957656649097
 31
0.0000000000000131
210
-0.0000000000000002
220
1.0
230
-0.0000000000000002
  0
ARC
  5
1B77C
  8
0
  6
CONTINUOUS
 62
     3
 10
70.9999999999999858
 20
-58.9998957656649168
 30
0.0
 40
0.9999999999999859
210
0.0
220
-0.0000000000000002
230
-1.0
 50
179.9999999999996021
 51
270.0000000000007958
  0
ARC
  5
1B77D
  8
0
  6
CONTINUOUS
 62
     3
 10
-71.0000000000000142
 20
-58.999895765664867
 30
0.0
 40
0.999999999999993
210
0.0
220
-0.0000000000000002
230
-1.0
 50
270.0
 51
0.0000000000012086
  0
LINE
  5
1B77E
  8
0
  6
CONTINUOUS
 62
     3
 10
71.4801488286690585
 20
-59.999895765664867
 30
0.0000000000000133
 11
73.3000000000000398
 21
-64.9998957656648741
 31
0.0000000000000144
210
-0.0000000000000002
220
1.0
230
-0.0000000000000002
  0
LINE
  5
1B77F
  8
0
  6
CONTINUOUS
 62
     3
 10
-71.4801488286690301
 20
-59.9998957656649097
 30
0.0000000000000133
 11
-73.3000000000000114
 21
-64.9998957656649026
 31
0.0000000000000144
210
-0.0000000000000002
220
1.0
230
-0.0000000000000002
  0
LINE
  5
1B780
  8
0
  6
CONTINUOUS
 62
     3
 10
73.3000000000000398
 20
-64.9998957656648741
 30
0.0000000000000144
 11
73.3000000000000398
 21
-68.0998957656648969
 31
0.0000000000000151
210
-0.0000000000000002
220
1.0
230
-0.0000000000000002
  0
LINE
  5
1B781
  8
0
  6
CONTINUOUS
 62
     3
 10
-73.3000000000000114
 20
-64.9998957656649026
 30
0.0000000000000144
 11
-73.3000000000000114
 21
-68.0998957656649253
 31
0.0000000000000151
210
-0.0000000000000002
220
1.0
230
-0.0000000000000002
  0
LINE
  5
1B782
  8
0
  6
CONTINUOUS
 62
     3
 10
73.3000000000000398
 20
-68.0998957656648969
 30
0.0000000000000151
 11
75.7000000000000739
 21
-70.4998957656648741
 31
0.0000000000000157
210
-0.0000000000000002
220
1.0
230
-0.0000000000000002
  0
LINE
  5
1B783
  8
0
  6
CONTINUOUS
 62
     3
 10
-73.3000000000000114
 20
-68.0998957656649253
 30
0.0000000000000151
 11
-75.7000000000000455
 21
-70.4998957656649026
 31
0.0000000000000157
210
-0.0000000000000002
220
1.0
230
-0.0000000000000002
  0
LINE
  5
1B784
  8
0
  6
CONTINUOUS
 62
     3
 10
75.7000000000000739
 20
-70.4998957656648741
 30
0.0000000000000157
 11
75.7000000000000739
 21
-71.4998957656648741
 31
0.0000000000000159
210
-0.0000000000000002
220
1.0
230
-0.0000000000000002
  0
LINE
  5
1B785
  8
0
  6
CONTINUOUS
 62
     3
 10
-75.7000000000000455
 20
-70.4998957656649026
 30
0.0000000000000157
 11
-75.7000000000000455
 21
-71.4998957656649026
 31
0.0000000000000159
210
-0.0000000000000002
220
1.0
230
-0.0000000000000002
  0
LINE
  5
1B786
  8
0
  6
CONTINUOUS
 62
     3
 10
-73.5
 20
-73.699895765664948
 30
0.0000000000000164
 11
-75.7000000000000455
 21
-71.4998957656649026
 31
0.0000000000000159
210
-0.0000000000000002
220
1.0
230
-0.0000000000000002
  0
LINE
  5
1B787
  8
0
  6
CONTINUOUS
 62
     3
 10
73.5000000000000284
 20
-73.6998957656649196
 30
0.0000000000000164
 11
75.7000000000000739
 21
-71.4998957656648741
 31
0.0000000000000159
210
-0.0000000000000002
220
1.0
230
-0.0000000000000002
  0
LINE
  5
1B788
  8
0
  6
CONTINUOUS
 62
     3
 10
73.5000000000000284
 20
-73.6998957656649196
 30
0.0000000000000164
 11
73.5000000000000284
 21
-76.1893839890133364
 31
0.0000000000000169
210
-0.0000000000000002
220
1.0
230
-0.0000000000000002
  0
LINE
  5
1B789
  8
0
  6
CONTINUOUS
 62
     3
 10
-73.5
 20
-73.699895765664948
 30
0.0000000000000164
 11
-73.5
 21
-76.1893839890133648
 31
0.0000000000000169
210
-0.0000000000000002
220
1.0
230
-0.0000000000000002
  0
LINE
  5
1B78A
  8
0
  6
CONTINUOUS
 62
     3
 10
73.5000000000000284
 20
-76.1893839890133364
 30
0.0000000000000169
 11
75.7000000000000739
 21
-79.9998957656648741
 31
0.0000000000000178
210
-0.0000000000000002
220
1.0
230
-0.0000000000000002
  0
LINE
  5
1B78B
  8
0
  6
CONTINUOUS
 62
     3
 10
-73.5
 20
-76.1893839890133648
 30
0.0000000000000169
 11
-75.7000000000000455
 21
-79.9998957656649026
 31
0.0000000000000178
210
-0.0000000000000002
220
1.0
230
-0.0000000000000002
  0
ARC
  5
1B78C
  8
0
  6
CONTINUOUS
 62
     3
 10
64.4999999999998863
 20
-74.999895765665002
 30
0.0
 40
5.9999999999999014
210
0.0
220
-0.0000000000000002
230
-1.0
 50
270.0
 51
303.5573097619209761
  0
ARC
  5
1B78D
  8
0
  6
CONTINUOUS
 62
     3
 10
-64.4999999999999147
 20
-74.9998957656649736
 30
0.0
 40
5.9999999999999041
210
0.0
220
-0.0000000000000002
230
-1.0
 50
236.4426902380789102
 51
270.0
  0
ARC
  5
1B78E
  8
0
  6
CONTINUOUS
 62
     3
 10
71.4758400866410426
 20
-52.7998957656649281
 30
0.0
 40
2.8000000000000238
210
0.0
220
-0.0000000000000002
230
-1.0
 50
15.0000000000003393
 51
89.5056149120653259
  0
ARC
  5
1B78F
  8
0
  6
CONTINUOUS
 62
     3
 10
-71.475840086641071
 20
-52.7998957656648926
 30
0.0
 40
2.8000000000000211
210
0.0
220
-0.0000000000000002
230
-1.0
 50
90.4943850879346172
 51
164.9999999999996021
  0
LINE
  5
1B790
  8
0
  6
CONTINUOUS
 62
     3
 10
74.1804324002504529
 20
-52.0752024393777972
 30
0.0000000000000116
 11
75.5000000000000284
 21
-56.999895765664867
 31
0.0000000000000127
210
-0.0000000000000002
220
1.0
230
-0.0000000000000002
  0
LINE
  5
1B791
  8
0
  6
CONTINUOUS
 62
     3
 10
-74.1804324002504245
 20
-52.075202439377847
 30
0.0000000000000116
 11
-75.5
 21
-56.9998957656649026
 31
0.0000000000000127
210
-0.0000000000000002
220
1.0
230
-0.0000000000000002
  0
LINE
  5
1B792
  8
0
  6
CONTINUOUS
 62
     3
 10
-72.0000000000485159
 20
72.99999999999973
 30
-0.0000000000000162
 11
72.0000000000484732
 21
72.9999999999997442
 31
-0.0000000000000162
210
-0.0000000000000002
220
1.0
230
-0.0000000000000002
  0
LINE
  5
1B793
  8
0
  6
CONTINUOUS
 62
     3
 10
-65.7000000000000028
 20
-0.0000000000003028
 30
0.0
 11
65.7000000000000028
 21
-0.0000000000002656
 31
0.0
210
-0.0000000000000002
220
1.0
230
-0.0000000000000002
  0
LINE
  5
1B794
  8
0
  6
CONTINUOUS
 62
     3
 10
-68.4246378256498957
 20
48.2017394338644465
 30
-0.0000000000000107
 11
-69.5194308710117923
 21
50.9999999999997584
 31
-0.0000000000000113
210
-0.0000000000000002
220
1.0
230
-0.0000000000000002
  0
LINE
  5
1B795
  8
0
  6
CONTINUOUS
 62
     3
 10
68.4246378256498673
 20
48.2017394338644891
 30
-0.0000000000000107
 11
69.5194308710117639
 21
50.999999999999801
 31
-0.0000000000000113
210
-0.0000000000000002
220
1.0
230
-0.0000000000000002
  0
ARC
  5
1B796
  8
0
  6
CONTINUOUS
 62
     3
 10
94.50000000000054
 20
37.9999999999995879
 30
0.0
 40
28.0000000000005187
210
0.0
220
-0.0000000000000002
230
-1.0
 50
158.6325470100904909
 51
179.9999999999996874
  0
ARC
  5
1B797
  8
0
  6
CONTINUOUS
 62
     3
 10
-94.5000000000001137
 20
37.9999999999997513
 30
0.0
 40
28.0000000000001101
210
0.0
220
-0.0000000000000002
230
-1.0
 50
0.0
 51
21.3674529899094594
  0
LINE
  5
1B798
  8
0
  6
CONTINUOUS
 62
     3
 10
72.0000000000485016
 20
72.9999999999997442
 30
-0.0000000000000162
 11
72.0000000000485016
 21
70.999999999999801
 31
-0.0000000000000158
210
-0.0000000000000002
220
1.0
230
-0.0000000000000002
  0
LINE
  5
1B799
  8
0
  6
CONTINUOUS
 62
     3
 10
-72.0000000000485301
 20
72.99999999999973
 30
-0.0000000000000162
 11
-72.0000000000485301
 21
70.9999999999997726
 31
-0.0000000000000158
210
-0.0000000000000002
220
1.0
230
-0.0000000000000002
  0
ARC
  5
1B79A
  8
0
  6
CONTINUOUS
 62
     3
 10
65.5000000000049312
 20
8.0498756211203002
 30
0.0
 40
0.9999999999950832
210
0.0
220
-0.0000000000000002
230
-1.0
 50
354.2894068624837018
 51
0.0000000000114882
  0
ARC
  5
1B79B
  8
0
  6
CONTINUOUS
 62
     3
 10
-65.5000000000049596
 20
8.0498756211203357
 30
0.0
 40
0.9999999999950548
210
0.0
220
-0.0000000000000002
230
-1.0
 50
179.9999999999884039
 51
185.7105931375162129
  0
LINE
  5
1B79C
  8
0
  6
CONTINUOUS
 62
     3
 10
66.5
 20
37.9999999999997371
 30
-0.0000000000000084
 11
66.5000000000000142
 21
8.0498756211205382
 31
-0.0000000000000018
210
-0.0000000000000002
220
1.0
230
-0.0000000000000002
  0
LINE
  5
1B79D
  8
0
  6
CONTINUOUS
 62
     3
 10
-66.5000000000000284
 20
37.9999999999997016
 30
-0.0000000000000084
 11
-66.5000000000000142
 21
8.0498756211205027
 31
-0.0000000000000018
210
-0.0000000000000002
220
1.0
230
-0.0000000000000002
  0
LINE
  5
1B79E
  8
0
  6
CONTINUOUS
 62
     3
 10
-65.7000000000000171
 20
-0.0000000000003037
 30
0.0
 11
-66.4950371902099988
 21
7.9503719020995023
 31
-0.0000000000000018
210
-0.0000000000000002
220
1.0
230
-0.0000000000000002
  0
LINE
  5
1B79F
  8
0
  6
CONTINUOUS
 62
     3
 10
65.7000000000000171
 20
-0.0000000000002665
 30
0.0
 11
66.4950371902099988
 21
7.9503719020995414
 31
-0.0000000000000018
210
-0.0000000000000002
220
1.0
230
-0.0000000000000002
  0
LINE
  5
1B7A0
  8
0
  6
CONTINUOUS
 62
     3
 10
-72.1603532929806022
 20
50.9999999999997584
 30
-0.0000000000000113
 11
72.1603532929805169
 21
50.999999999999801
 31
-0.0000000000000113
210
-0.0000000000000002
220
1.0
230
-0.0000000000000002
  0
CIRCLE
  5
1B7A1
  8
0
  6
CONTINUOUS
 62
     3
 10
-130.0
 20
148.999999999999801
 30
0.0
 40
3.999999999999988
210
0.0
220
-0.0000000000000002
230
-1.0
  0
ARC
  5
1B7A2
  8
0
  6
CONTINUOUS
 62
     3
 10
-130.0
 20
148.999999999999801
 30
0.0
 40
20.0
210
0.0
220
-0.0000000000000002
230
-1.0
 50
89.9999999999999858
 51
180.0
  0
LINE
  5
1B7A3
  8
0
  6
CONTINUOUS
 62
     3
 10
150.0
 20
72.999999999999801
 30
-0.0000000000000162
 11
150.0
 21
148.999999999999801
 31
-0.0000000000000331
210
-0.0000000000000002
220
1.0
230
-0.0000000000000002
  0
LINE
  5
1B7A4
  8
0
  6
CONTINUOUS
 62
     3
 10
130.0
 20
168.999999999999801
 30
-0.0000000000000375
 11
-92.929289321881356
 21
168.999999999999801
 31
-0.0000000000000375
210
-0.0000000000000002
220
1.0
230
-0.0000000000000002
  0
LINE
  5
1B7A5
  8
0
  6
CONTINUOUS
 62
     3
 10
-92.929289321881356
 20
72.9999999999997442
 30
-0.0000000000000162
 11
-92.9292893218813845
 21
168.999999999999801
 31
-0.0000000000000375
210
-0.0000000000000002
220
1.0
230
-0.0000000000000002
  0
LINE
  5
1B7A6
  8
0
  6
CONTINUOUS
 62
     3
 10
-91.0000000000000142
 20
72.9999999999997442
 30
-0.0000000000000162
 11
-92.9292893218814555
 21
72.9999999999997442
 31
-0.0000000000000162
210
-0.0000000000000002
220
1.0
230
-0.0000000000000002
  0
LINE
  5
1B7A7
  8
0
  6
CONTINUOUS
 62
     3
 10
-95.0000000000001847
 20
148.9999999999990905
 30
-0.0000000000000331
 11
-95.0000000000002416
 21
168.9999999999996874
 31
-0.0000000000000375
210
-0.0000000000000002
220
1.0
230
-0.0000000000000002
  0
LINE
  5
1B7A8
  8
0
  6
CONTINUOUS
 62
     3
 10
-93.0000000000002274
 20
168.9999999999996874
 30
-0.0000000000000375
 11
-93.0000000000001847
 21
148.9999999999990905
 31
-0.0000000000000331
210
-0.0000000000000002
220
1.0
230
-0.0000000000000002
  0
LINE
  5
1B7A9
  8
0
  6
CONTINUOUS
 62
     3
 10
-93.0000000000002274
 20
168.9999999999996874
 30
-0.0000000000000375
 11
-95.0000000000002274
 21
168.9999999999996874
 31
-0.0000000000000375
210
-0.0000000000000002
220
1.0
230
-0.0000000000000002
  0
LINE
  5
1B7AA
  8
0
  6
CONTINUOUS
 62
     3
 10
-93.0000000000000426
 20
72.9999999999997442
 30
-0.0000000000000162
 11
-93.0000000000001847
 21
148.9999999999990905
 31
-0.0000000000000331
210
-0.0000000000000002
220
1.0
230
-0.0000000000000002
  0
LINE
  5
1B7AB
  8
0
  6
CONTINUOUS
 62
     3
 10
-95.0000000000001847
 20
148.9999999999990905
 30
-0.0000000000000331
 11
-95.0000000000000568
 21
72.9999999999997442
 31
-0.0000000000000162
210
-0.0000000000000002
220
1.0
230
-0.0000000000000002
  0
ARC
  5
1B7AC
  8
0
  6
CONTINUOUS
 62
     3
 10
-91.0000000000000426
 20
72.9999999999997868
 30
-0.0000000000000162
 40
4.0
 50
180.0000000000003979
 51
269.9999999999997726
  0
ARC
  5
1B7AD
  8
0
  6
CONTINUOUS
 62
     3
 10
91.0000000000000426
 20
72.9999999999997868
 30
0.0
 40
2.0000000000000169
210
0.0
220
-0.0000000000000002
230
-1.0
 50
270.0
 51
359.9999999999984084
  0
LINE
  5
1B7AE
  8
0
  6
CONTINUOUS
 62
     3
 10
150.0
 20
70.999999999999801
 30
-0.0000000000000158
 11
150.0
 21
72.9999999999997868
 31
-0.0000000000000162
210
-0.0000000000000002
220
1.0
230
-0.0000000000000002
  0
LINE
  5
1B7AF
  8
0
  6
CONTINUOUS
 62
     3
 10
-91.0000000000000142
 20
70.9999999999997584
 30
-0.0000000000000158
 11
-91.0000000000000142
 21
72.9999999999997442
 31
-0.0000000000000162
210
-0.0000000000000002
220
1.0
230
-0.0000000000000002
  0
LINE
  5
1B7B0
  8
0
  6
CONTINUOUS
 62
     3
 10
-91.0000000000000568
 20
68.9999999999997726
 30
-0.0000000000000153
 11
-0.0000000000000295
 21
68.9999999999997868
 31
-0.0000000000000153
210
-0.0000000000000002
220
1.0
230
-0.0000000000000002
  0
LINE
  5
1B7B1
  8
0
  6
CONTINUOUS
 62
     3
 10
-0.0000000000000291
 20
70.9999999999997868
 30
-0.0000000000000158
 11
-91.0000000000000568
 21
70.9999999999997726
 31
-0.0000000000000158
210
-0.0000000000000002
220
1.0
230
-0.0000000000000002
  0
LINE
  5
1B7B2
  8
0
  6
CONTINUOUS
 62
     3
 10
150.0
 20
68.999999999999801
 30
-0.0000000000000153
 11
-0.0000000000000153
 21
68.9999999999997868
 31
-0.0000000000000153
210
-0.0000000000000002
220
1.0
230
-0.0000000000000002
  0
LINE
  5
1B7B3
  8
0
  6
CONTINUOUS
 62
     3
 10
-0.0000000000000273
 20
70.9999999999997868
 30
-0.0000000000000158
 11
150.0
 21
70.999999999999801
 31
-0.0000000000000158
210
-0.0000000000000002
220
1.0
230
-0.0000000000000002
  0
LINE
  5
1B7B4
  8
0
  6
CONTINUOUS
 62
     3
 10
150.0
 20
68.999999999999801
 30
-0.0000000000000153
 11
150.0
 21
70.999999999999801
 31
-0.0000000000000158
210
-0.0000000000000002
220
1.0
230
-0.0000000000000002
  0
ARC
  5
1B7B5
  8
0
  6
CONTINUOUS
 62
     3
 10
77.5000000000000711
 20
65.4999999999997442
 30
0.0
 40
3.5000000000000142
210
0.0
220
-0.0000000000000002
230
-1.0
 50
90.0000000000002132
 51
192.8280495223827131
  0
ARC
  5
1B7B6
  8
0
  6
CONTINUOUS
 62
     3
 10
-77.4999999999999858
 20
65.4999999999997868
 30
0.0
 40
3.5000000000000142
210
0.0
220
-0.0000000000000002
230
-1.0
 50
347.1719504776172016
 51
89.9999999999997584
  0
ARC
  5
1B7B7
  8
0
  6
CONTINUOUS
 62
     3
 10
57.9673251498186204
 20
61.052228102725671
 30
0.0
 40
16.53267485018144
210
0.0
220
-0.0000000000000002
230
-1.0
 50
342.780302727054675
 51
12.8280495223827504
  0
ARC
  5
1B7B8
  8
0
  6
CONTINUOUS
 62
     3
 10
-57.9673251498189899
 20
61.0522281027256923
 30
0.0
 40
16.5326748501809888
210
0.0
220
-0.0000000000000002
230
-1.0
 50
167.1719504776168037
 51
197.2196972729456945
  0
LINE
  5
1B7B9
  8
0
  6
CONTINUOUS
 62
     3
 10
-72.1603532929806164
 20
50.9999999999997584
 30
-0.0000000000000113
 11
-73.7589500707291137
 21
56.1579538910472778
 31
-0.0000000000000125
210
-0.0000000000000002
220
1.0
230
-0.0000000000000002
  0
LINE
  5
1B7BA
  8
0
  6
CONTINUOUS
 62
     3
 10
72.1603532929805311
 20
50.999999999999801
 30
-0.0000000000000113
 11
73.7589500707290284
 21
56.1579538910473204
 31
-0.0000000000000125
210
-0.0000000000000002
220
1.0
230
-0.0000000000000002
  0
LINE
  5
1B7BB
  8
0
  6
VERDECKT
 62
     1
 10
-70.7000000000000455
 20
-76.9998957656649026
 30
0.0000000000000171
 11
0.0000000000000029
 21
-76.9998957656648884
 31
0.0000000000000171
210
-0.0000000000000002
220
1.0
230
-0.0000000000000002
  0
LINE
  5
1B7BC
  8
0
  6
VERDECKT
 62
     1
 10
0.0000000000000246
 20
-76.9998957656648884
 30
0.0000000000000171
 11
70.7000000000000739
 21
-76.9998957656648741
 31
0.0000000000000171
210
-0.0000000000000002
220
1.0
230
-0.0000000000000002
  0
LINE
  5
1B7BD
  8
0
  6
VERDECKT
 62
     1
 10
-61.4999999999999929
 20
-78.9998957656649026
 30
0.0000000000000175
 11
0.0000000000000104
 21
-78.9998957656648884
 31
0.0000000000000175
210
-0.0000000000000002
220
1.0
230
-0.0000000000000002
  0
LINE
  5
1B7BE
  8
0
  6
VERDECKT
 62
     1
 10
0.0000000000000267
 20
-78.9998957656648884
 30
0.0000000000000175
 11
61.5000000000000284
 21
-78.9998957656648741
 31
0.0000000000000175
210
-0.0000000000000002
220
1.0
230
-0.0000000000000002
  0
LINE
  5
1B7BF
  8
0
  6
VERDECKT
 62
     1
 10
70.7000000000000739
 20
-76.9998957656648741
 30
0.0000000000000171
 11
73.7000000000000739
 21
-79.9998957656648741
 31
0.0000000000000178
210
-0.0000000000000002
220
1.0
230
-0.0000000000000002
  0
LINE
  5
1B7C0
  8
0
  6
VERDECKT
 62
     1
 10
-70.7000000000000455
 20
-76.9998957656649026
 30
0.0000000000000171
 11
-73.7000000000000455
 21
-79.9998957656649026
 31
0.0000000000000178
210
-0.0000000000000002
220
1.0
230
-0.0000000000000002
  0
ARC
  5
1B7C1
  8
0
  6
VERDECKT
 62
     1
 10
64.4999999999997442
 20
-74.9998957656648884
 30
0.0
 40
6.000000000000079
210
0.0
220
-0.0000000000000002
230
-1.0
 50
303.5573097619216014
 51
340.5287793655097062
  0
ARC
  5
1B7C2
  8
0
  6
VERDECKT
 62
     1
 10
-64.4999999999997726
 20
-74.9998957656648599
 30
0.0
 40
6.000000000000079
210
0.0
220
-0.0000000000000002
230
-1.0
 50
199.4712206344902086
 51
236.4426902380783986
  0
LINE
  5
1B7C3
  8
0
  6
VERDECKT
 62
     1
 10
61.5000000000000284
 20
-78.9998957656648741
 30
0.0000000000000175
 11
61.5000000000000284
 21
-80.9998957656648884
 31
0.000000000000018
210
-0.0000000000000002
220
1.0
230
-0.0000000000000002
  0
LINE
  5
1B7C4
  8
0
  6
VERDECKT
 62
     1
 10
-61.5
 20
-78.9998957656649026
 30
0.0000000000000175
 11
-61.4999999999999929
 21
-80.9998957656649168
 31
0.000000000000018
210
-0.0000000000000002
220
1.0
230
-0.0000000000000002
  0
ARC
  5
1B7C5
  8
0
  6
VERDECKT
 62
     1
 10
61.5000000000000213
 20
-72.9998957656649168
 30
0.0
 40
5.9999999999999858
210
0.0
220
-0.0000000000000002
230
-1.0
 50
270.0
 51
0.0000000000003308
  0
ARC
  5
1B7C6
  8
0
  6
VERDECKT
 62
     1
 10
-61.5000000000000497
 20
-72.9998957656648741
 30
0.0
 40
5.9999999999999787
210
0.0
220
-0.0000000000000002
230
-1.0
 50
179.999999999999801
 51
270.0000000000002274
  0
LINE
  5
1B7C7
  8
0
  6
VERDECKT
 62
     1
 10
67.5000000000000284
 20
-56.999895765664867
 30
0.0000000000000127
 11
67.5000000000000284
 21
-72.9998957656648741
 31
0.0000000000000162
210
-0.0000000000000002
220
1.0
230
-0.0000000000000002
  0
LINE
  5
1B7C8
  8
0
  6
VERDECKT
 62
     1
 10
-67.5
 20
-56.9998957656649026
 30
0.0000000000000127
 11
-67.5
 21
-72.9998957656649026
 31
0.0000000000000162
210
-0.0000000000000002
220
1.0
230
-0.0000000000000002
  0
LINE
  5
1B7C9
  8
0
  6
VERDECKT
 62
     1
 10
-67.5
 20
-56.9998957656649026
 30
0.0000000000000127
 11
-68.8195675997495044
 21
-52.0752024393778683
 31
0.0000000000000116
210
-0.0000000000000002
220
1.0
230
-0.0000000000000002
  0
LINE
  5
1B7CA
  8
0
  6
VERDECKT
 62
     1
 10
67.5000000000000284
 20
-56.999895765664867
 30
0.0000000000000127
 11
68.8195675997495329
 21
-52.0752024393778328
 31
0.0000000000000116
210
-0.0000000000000002
220
1.0
230
-0.0000000000000002
  0
ARC
  5
1B7CB
  8
0
  6
VERDECKT
 62
     1
 10
71.5241599133589148
 20
-52.7998957656649424
 30
0.0
 40
2.8000000000000269
210
0.0
220
-0.0000000000000002
230
-1.0
 50
90.494385087931164
 51
165.0
  0
ARC
  5
1B7CC
  8
0
  6
VERDECKT
 62
     1
 10
-71.5241599133589574
 20
-52.7998957656648997
 30
0.0
 40
2.800000000000034
210
0.0
220
-0.0000000000000002
230
-1.0
 50
14.9999999999999893
 51
89.5056149120688076
  0
LINE
  5
1B7CD
  8
0
  6
VERDECKT
 62
     1
 10
-63.7099256195317807
 20
0.1990074380465232
 30
0.0
 11
63.7099256195317594
 21
0.1990074380465594
 31
0.0
210
-0.0000000000000002
220
1.0
230
-0.0000000000000002
  0
ARC
  5
1B7CE
  8
0
  6
VERDECKT
 62
     1
 10
41.9999999999996092
 20
62.9999999999998224
 30
0.0
 40
30.0000000000004192
210
0.0
220
-0.0000000000000002
230
-1.0
 50
338.6325470100906045
 51
359.9999999999997726
  0
ARC
  5
1B7CF
  8
0
  6
VERDECKT
 62
     1
 10
-42.0000000000000497
 20
62.9999999999997229
 30
0.0
 40
29.9999999999999289
210
0.0
220
-0.0000000000000002
230
-1.0
 50
179.9999999999998863
 51
201.3674529899093955
  0
LINE
  5
1B7D0
  8
0
  6
VERDECKT
 62
     1
 10
-69.5194308710117923
 20
50.9999999999997584
 30
-0.0000000000000113
 11
-69.937888043946586
 21
52.0695648922875094
 31
-0.0000000000000116
210
-0.0000000000000002
220
1.0
230
-0.0000000000000002
  0
LINE
  5
1B7D1
  8
0
  6
VERDECKT
 62
     1
 10
69.5194308710117639
 20
50.999999999999801
 30
-0.0000000000000113
 11
69.9378880439465576
 21
52.0695648922875591
 31
-0.0000000000000116
210
-0.0000000000000002
220
1.0
230
-0.0000000000000002
  0
ARC
  5
1B7D2
  8
0
  6
VERDECKT
 62
     1
 10
94.5000000000002842
 20
37.99999999999973
 30
0.0
 40
30.00000000000027
210
0.0
220
-0.0000000000000002
230
-1.0
 50
158.6325470100904909
 51
180.0
  0
ARC
  5
1B7D3
  8
0
  6
VERDECKT
 62
     1
 10
-94.4999999999993037
 20
37.9999999999999503
 30
0.0
 40
29.9999999999993108
210
0.0
220
-0.0000000000000002
230
-1.0
 50
0.0
 51
21.3674529899101202
  0
LINE
  5
1B7D4
  8
0
  6
VERDECKT
 62
     1
 10
-66.5621119560534709
 20
48.9304351077119577
 30
-0.0000000000000109
 11
-68.0753621743501611
 21
52.7982605661350135
 31
-0.0000000000000117
210
-0.0000000000000002
220
1.0
230
-0.0000000000000002
  0
LINE
  5
1B7D5
  8
0
  6
VERDECKT
 62
     1
 10
66.5621119560534424
 20
48.9304351077120003
 30
-0.0000000000000109
 11
68.0753621743501327
 21
52.798260566135049
 31
-0.0000000000000117
210
-0.0000000000000002
220
1.0
230
-0.0000000000000002
  0
ARC
  5
1B7D6
  8
0
  6
VERDECKT
 62
     1
 10
42.0000000000003197
 20
62.9999999999997087
 30
0.0
 40
27.9999999999997087
210
0.0
220
-0.0000000000000002
230
-1.0
 50
338.6325470100903203
 51
0.0000000000000636
  0
ARC
  5
1B7D7
  8
0
  6
VERDECKT
 62
     1
 10
-41.9999999999999432
 20
62.9999999999997584
 30
0.0
 40
28.0000000000000391
210
0.0
220
-0.0000000000000002
230
-1.0
 50
180.0
 51
201.3674529899095091
  0
LINE
  5
1B7D8
  8
0
  6
VERDECKT
 62
     1
 10
70.0
 20
72.9999999999997442
 30
-0.0000000000000162
 11
70.0
 21
62.9999999999997797
 31
-0.000000000000014
210
-0.0000000000000002
220
1.0
230
-0.0000000000000002
  0
LINE
  5
1B7D9
  8
0
  6
VERDECKT
 62
     1
 10
-70.0000000000000284
 20
72.99999999999973
 30
-0.0000000000000162
 11
-70.0000000000000284
 21
62.9999999999997371
 31
-0.000000000000014
210
-0.0000000000000002
220
1.0
230
-0.0000000000000002
  0
LINE
  5
1B7DA
  8
0
  6
VERDECKT
 62
     1
 10
72.0000000000485016
 20
70.999999999999801
 30
-0.0000000000000158
 11
72.0000000000485016
 21
62.9999999999997726
 31
-0.000000000000014
210
-0.0000000000000002
220
1.0
230
-0.0000000000000002
  0
LINE
  5
1B7DB
  8
0
  6
VERDECKT
 62
     1
 10
-72.0000000000485301
 20
70.9999999999997726
 30
-0.0000000000000158
 11
-72.0000000000485301
 21
62.99999999999973
 31
-0.000000000000014
210
-0.0000000000000002
220
1.0
230
-0.0000000000000002
  0
ARC
  5
1B7DC
  8
0
  6
VERDECKT
 62
     1
 10
63.4999999999806803
 20
8.1496268636070095
 30
0.0
 40
0.999999999995076
210
0.0
220
-0.0000000000000002
230
-1.0
 50
354.2894068624837018
 51
0.0000000000115009
  0
ARC
  5
1B7DD
  8
0
  6
VERDECKT
 62
     1
 10
-63.499999999980723
 20
8.1496268636070468
 30
0.0
 40
0.9999999999950405
210
0.0
220
-0.0000000000000002
230
-1.0
 50
179.9999999999886029
 51
185.7105931375164118
  0
LINE
  5
1B7DE
  8
0
  6
VERDECKT
 62
     1
 10
-63.7099256195317807
 20
0.1990074380465218
 30
0.0
 11
-64.4950371901857409
 21
8.0501231445862107
 31
-0.0000000000000018
210
-0.0000000000000002
220
1.0
230
-0.0000000000000002
  0
LINE
  5
1B7DF
  8
0
  6
VERDECKT
 62
     1
 10
63.7099256195317807
 20
0.1990074380465581
 30
0.0
 11
64.4950371901857409
 21
8.0501231445862498
 31
-0.0000000000000018
210
-0.0000000000000002
220
1.0
230
-0.0000000000000002
  0
LINE
  5
1B7E0
  8
0
  6
VERDECKT
 62
     1
 10
64.4999999999757421
 20
37.9999999999997726
 30
-0.0000000000000084
 11
64.4999999999757563
 21
8.1496268636072458
 31
-0.0000000000000018
210
-0.0000000000000002
220
1.0
230
-0.0000000000000002
  0
LINE
  5
1B7E1
  8
0
  6
VERDECKT
 62
     1
 10
-64.4999999999757705
 20
37.9999999999997229
 30
-0.0000000000000084
 11
-64.4999999999757563
 21
8.1496268636072102
 31
-0.0000000000000018
210
-0.0000000000000002
220
1.0
230
-0.0000000000000002
  0
LINE
  5
1B7E2
  8
0
  6
VERDECKT
 62
     1
 10
63.7099256195317665
 20
0.1990074380465551
 30
0.0
 11
65.7000000000000171
 21
-0.0000000000002687
 31
0.0
210
-0.0000000000000002
220
1.0
230
-0.0000000000000002
  0
LINE
  5
1B7E3
  8
0
  6
VERDECKT
 62
     1
 10
-63.7099256195317665
 20
0.199007438046519
 30
0.0
 11
-65.7000000000000171
 21
-0.0000000000003059
 31
0.0
210
-0.0000000000000002
220
1.0
230
-0.0000000000000002
  0
LINE
  5
1B7E4
  8
0
  6
VERDECKT
 62
     1
 10
-70.2500000000000568
 20
51.5920728806473505
 30
-0.0000000000000115
 11
70.2499999999999716
 21
51.592072880647379
 31
-0.0000000000000115
210
-0.0000000000000002
220
1.0
230
-0.0000000000000002
  0
LINE
  5
1B7E5
  8
0
  6
VERDECKT
 62
     1
 10
-92.9999999999999858
 20
72.9999999999997442
 30
-0.0000000000000162
 11
-94.9999999999999858
 21
72.9999999999997442
 31
-0.0000000000000162
210
-0.0000000000000002
220
1.0
230
-0.0000000000000002
  0
LINE
  5
1B7E6
  8
0
  6
VERDECKT
 62
     1
 10
-90.9999999999999858
 20
70.9999999999997584
 30
-0.0000000000000158
 11
-90.9999999999999858
 21
68.9999999999997584
 31
-0.0000000000000153
210
-0.0000000000000002
220
1.0
230
-0.0000000000000002
  0
LINE
  5
1B7E7
  8
0
  6
VERDECKT
 62
     1
 10
70.2499999999999716
 20
51.5920728806474003
 30
-0.0000000000000115
 11
72.1603532929805311
 21
50.999999999999801
 31
-0.0000000000000113
210
-0.0000000000000002
220
1.0
230
-0.0000000000000002
  0
LINE
  5
1B7E8
  8
0
  6
VERDECKT
 62
     1
 10
-70.2500000000000568
 20
51.5920728806473505
 30
-0.0000000000000115
 11
-72.1603532929806164
 21
50.9999999999997584
 31
-0.0000000000000113
210
-0.0000000000000002
220
1.0
230
-0.0000000000000002
  0
LINE
  5
1B7E9
  8
0
  6
VERDECKT
 62
     1
 10
-70.2500000000000568
 20
51.5920728806473505
 30
-0.0000000000000115
 11
-71.8485967777485541
 21
56.7500267716948699
 31
-0.0000000000000126
210
-0.0000000000000002
220
1.0
230
-0.0000000000000002
  0
LINE
  5
1B7EA
  8
0
  6
VERDECKT
 62
     1
 10
70.2499999999999716
 20
51.5920728806473932
 30
-0.0000000000000115
 11
71.8485967777484689
 21
56.7500267716949125
 31
-0.0000000000000126
210
-0.0000000000000002
220
1.0
230
-0.0000000000000002
  0
ARC
  5
1B7EB
  8
0
  6
VERDECKT
 62
     1
 10
57.9673251498189899
 20
61.0522281027256568
 30
0.0
 40
14.5326748501810901
210
0.0
220
-0.0000000000000002
230
-1.0
 50
342.7803027270542202
 51
12.8280495223830897
  0
ARC
  5
1B7EC
  8
0
  6
VERDECKT
 62
     1
 10
-57.967325149818933
 20
61.0522281027256994
 30
0.0
 40
14.5326748501810492
210
0.0
220
-0.0000000000000002
230
-1.0
 50
167.1719504776168037
 51
197.2196972729456945
  0
ARC
  5
1B7ED
  8
0
  6
VERDECKT
 62
     1
 10
77.5000000000000711
 20
65.4999999999997442
 30
0.0
 40
5.5000000000000293
210
0.0
220
-0.0000000000000002
230
-1.0
 50
90.0000000000001421
 51
192.8280495223827131
  0
ARC
  5
1B7EE
  8
0
  6
VERDECKT
 62
     1
 10
-77.4999999999999858
 20
65.4999999999997868
 30
0.0
 40
5.5000000000000258
210
0.0
220
-0.0000000000000002
230
-1.0
 50
347.1719504776173153
 51
89.9999999999998437
  0
LINE
  5
1B7EF
  8
0
  6
VERDECKT
 62
     1
 10
-93.0000000000001137
 20
144.9999999999996874
 30
-0.0000000000000322
 11
-95.0000000000001137
 21
144.9999999999996874
 31
-0.0000000000000322
210
-0.0000000000000002
220
1.0
230
-0.0000000000000002
  0
LINE
  5
1B7F0
  8
0
  6
VERDECKT
 62
     1
 10
-93.0000000000001421
 20
152.9999999999996874
 30
-0.000000000000034
 11
-95.0000000000001421
 21
152.9999999999996874
 31
-0.000000000000034
210
-0.0000000000000002
220
1.0
230
-0.0000000000000002
  0
ENDBLK
  5
1B7F2
  8
0
  0
BLOCK
  8
0
  2
A$C017929E9
 70
     0
 10
0.0
 20
0.0
 30
0.0
  3
A$C017929E9
  1

  0
CIRCLE
  5
1B7F6
  8
0
  6
CONTINUOUS
 62
     3
 10
0.0000000000001137
 20
0.0000000000000018
 30
0.0
 40
61.5
  0
CIRCLE
  5
1B7F7
  8
0
  6
CONTINUOUS
 62
     3
 10
0.0000000000001399
 20
0.0000000000000021
 30
0.0
 40
64.5
  0
CIRCLE
  5
1B7F8
  8
0
  6
CONTINUOUS
 62
     3
 10
0.0000000000001377
 20
0.0000000000000043
 30
0.0
 40
69.9999999999999858
  0
CIRCLE
  5
1B7F9
  8
0
  6
CONTINUOUS
 62
     3
 10
0.0000000000001377
 20
0.0000000000000043
 30
0.0
 40
72.0000000000485016
  0
CIRCLE
  5
1B7FA
  8
0
  6
CONTINUOUS
 62
     3
 10
0.0000000000001421
 20
0.0
 30
0.0
 40
63.7099256195317594
  0
LINE
  5
1B7FB
  8
0
  6
CONTINUOUS
 62
     3
 10
95.0000000000487717
 20
-130.0
 30
0.0
 11
95.0000000000487148
 21
-150.0
 31
0.0
  0
LINE
  5
1B7FC
  8
0
  6
CONTINUOUS
 62
     3
 10
93.000000000048729
 20
-150.0
 30
0.0
 11
93.0000000000487859
 21
-130.0
 31
0.0
  0
LINE
  5
1B7FD
  8
0
  6
CONTINUOUS
 62
     3
 10
93.000000000048729
 20
-150.0
 30
0.0
 11
95.0000000000487148
 21
-150.0
 31
0.0
  0
LINE
  5
1B7FE
  8
0
  6
CONTINUOUS
 62
     3
 10
93.0000000000487574
 20
-130.0
 30
0.0
 11
93.0000000000488143
 21
92.9292893218812992
 31
0.0
  0
LINE
  5
1B7FF
  8
0
  6
CONTINUOUS
 62
     3
 10
-149.9999999999537863
 20
95.0000000000001421
 30
0.0
 11
-129.9999999999537863
 21
95.0000000000001847
 31
0.0
  0
LINE
  5
1B800
  8
0
  6
CONTINUOUS
 62
     3
 10
-149.9999999999537863
 20
95.0000000000001421
 30
0.0
 11
-149.9999999999537863
 21
93.0000000000001421
 31
0.0
  0
LINE
  5
1B801
  8
0
  6
CONTINUOUS
 62
     3
 10
-129.9999999999537863
 20
93.0000000000001847
 30
0.0
 11
-149.9999999999537863
 21
93.0000000000001421
 31
0.0
  0
LINE
  5
1B802
  8
0
  6
CONTINUOUS
 62
     3
 10
92.929289321930014
 20
93.0000000000001279
 30
0.0
 11
-129.9999999999537863
 21
93.0000000000001563
 31
0.0
  0
LINE
  5
1B803
  8
0
  6
CONTINUOUS
 62
     3
 10
-149.9999999999513136
 20
91.0000000000000284
 30
0.0
 11
-149.9999999999513136
 21
93.0000000000000142
 31
0.0
  0
LINE
  5
1B804
  8
0
  6
CONTINUOUS
 62
     3
 10
91.0000000000486438
 20
90.9999999999999858
 30
0.0
 11
91.0000000000486438
 21
92.9999999999999858
 31
0.0
  0
LINE
  5
1B805
  8
0
  6
CONTINUOUS
 62
     3
 10
92.929289321930014
 20
93.0000000000001279
 30
0.0
 11
92.929289321930014
 21
95.0000000000001137
 31
0.0
  0
LINE
  5
1B806
  8
0
  6
CONTINUOUS
 62
     3
 10
92.929289321930014
 20
95.0000000000001137
 30
0.0
 11
-129.9999999999537863
 21
95.0000000000001705
 31
0.0
  0
LINE
  5
1B807
  8
0
  6
CONTINUOUS
 62
     3
 10
91.0000000000485869
 20
-150.0
 30
0.0
 11
93.0000000000486011
 21
-150.0
 31
0.0
  0
LINE
  5
1B808
  8
0
  6
CONTINUOUS
 62
     3
 10
93.0000000000488143
 20
92.9292893218813134
 30
0.0
 11
95.0000000000487859
 21
92.9292893218813134
 31
0.0
  0
LINE
  5
1B809
  8
0
  6
CONTINUOUS
 62
     3
 10
91.0000000000486438
 20
90.9999999999999858
 30
0.0
 11
93.0000000000486438
 21
90.9999999999999858
 31
0.0
  0
LINE
  5
1B80A
  8
0
  6
CONTINUOUS
 62
     3
 10
95.0000000000487717
 20
-130.0
 30
0.0
 11
95.0000000000488143
 21
92.9292893218812992
 31
0.0
  0
LINE
  5
1B80B
  8
0
  6
CONTINUOUS
 62
     3
 10
-149.9999999999513136
 20
0.0000000000000133
 30
0.0
 11
-149.9999999999513136
 21
91.0000000000000284
 31
0.0
  0
ARC
  5
1B80C
  8
0
  6
CONTINUOUS
 62
     3
 10
0.0000000000486865
 20
-0.0000000000000142
 30
0.0
 40
150.0
 50
180.0
 51
270.0
  0
LINE
  5
1B80D
  8
0
  6
CONTINUOUS
 62
     3
 10
91.0000000000485869
 20
-150.0
 30
0.0
 11
0.0000000000486295
 21
-150.0
 31
0.0
  0
CIRCLE
  5
1B80E
  8
0
  6
VERDECKT
 62
     1
 10
0.0000000000001137
 20
0.0000000000000031
 30
0.0
 40
75.5
  0
CIRCLE
  5
1B80F
  8
0
  6
VERDECKT
 62
     1
 10
0.0000000000001137
 20
0.0000000000000029
 30
0.0
 40
71.4801488286690301
  0
CIRCLE
  5
1B810
  8
0
  6
VERDECKT
 62
     1
 10
0.0000000000001137
 20
0.0000000000000026
 30
0.0
 40
73.3000000000000114
  0
CIRCLE
  5
1B811
  8
0
  6
VERDECKT
 62
     1
 10
0.0000000000001137
 20
0.0000000000000023
 30
0.0
 40
75.7000000000000455
  0
CIRCLE
  5
1B812
  8
0
  6
VERDECKT
 62
     1
 10
0.0000000000001137
 20
0.0000000000000021
 30
0.0
 40
73.5
  0
CIRCLE
  5
1B813
  8
0
  6
VERDECKT
 62
     1
 10
0.0000000000001137
 20
0.0000000000000017
 30
0.0
 40
73.7000000000000455
  0
CIRCLE
  5
1B814
  8
0
  6
VERDECKT
 62
     1
 10
0.0000000000001137
 20
0.0000000000000019
 30
0.0
 40
70.7000000000000455
  0
CIRCLE
  5
1B815
  8
0
  6
VERDECKT
 62
     1
 10
0.0000000000001137
 20
0.0000000000000019
 30
0.0
 40
70.1568542494921985
  0
CIRCLE
  5
1B816
  8
0
  6
VERDECKT
 62
     1
 10
0.0000000000001137
 20
0.0000000000000031
 30
0.0
 40
67.5
  0
CIRCLE
  5
1B817
  8
0
  6
VERDECKT
 62
     1
 10
0.0000000000001399
 20
0.0000000000000021
 30
0.0
 40
66.5
  0
CIRCLE
  5
1B818
  8
0
  6
VERDECKT
 62
     1
 10
0.0000000000001421
 20
0.0
 30
0.0
 40
65.7000000000000028
  0
CIRCLE
  5
1B819
  8
0
  6
VERDECKT
 62
     1
 10
0.0000000000001137
 20
0.0000000000000314
 30
0.0
 40
72.1603532929805596
  0
CIRCLE
  5
1B81A
  8
0
  6
VERDECKT
 62
     1
 10
0.0000000000001137
 20
0.0000000000000314
 30
0.0
 40
70.25
  0
LINE
  5
1B81B
  8
0
  6
VERDECKT
 62
     1
 10
91.0000000000486438
 20
92.9999999999999432
 30
0.0
 11
91.0000000000486438
 21
94.9999999999999574
 31
0.0
  0
LINE
  5
1B81C
  8
0
  6
VERDECKT
 62
     1
 10
93.0000000000486153
 20
90.9999999999999858
 30
0.0
 11
95.0000000000486153
 21
90.9999999999999858
 31
0.0
  0
CIRCLE
  5
1B81D
  8
0
  6
VERDECKT
 62
     1
 10
0.0000000000001137
 20
0.0000000000000322
 30
0.0
 40
74.0
  0
CIRCLE
  5
1B81E
  8
0
  6
VERDECKT
 62
     1
 10
0.0000000000001137
 20
0.000000000000032
 30
0.0
 40
74.5
  0
CIRCLE
  5
1B81F
  8
0
  6
VERDECKT
 62
     1
 10
0.0000000000001137
 20
0.000000000000032
 30
0.0
 40
72.5
  0
LINE
  5
1B820
  8
0
  6
VERDECKT
 62
     1
 10
-133.9999999999537863
 20
93.0000000000000853
 30
0.0
 11
-133.9999999999537863
 21
95.0000000000000853
 31
0.0
  0
LINE
  5
1B821
  8
0
  6
VERDECKT
 62
     1
 10
-125.9999999999538005
 20
93.0000000000001421
 30
0.0
 11
-125.9999999999538005
 21
95.0000000000001421
 31
0.0
  0
LINE
  5
1B822
  8
0
  6
VERDECKT
 62
     1
 10
93.0000000000486864
 20
-126.0
 30
0.0
 11
95.0000000000486864
 21
-126.0
 31
0.0
  0
LINE
  5
1B823
  8
0
  6
VERDECKT
 62
     1
 10
93.0000000000487432
 20
-134.0
 30
0.0
 11
95.0000000000487148
 21
-134.0
 31
0.0
  0
ENDBLK
  5
1B825
  8
0
  0
ENDSEC
  0
SECTION
  2
ENTITIES
  0
TEXT
  5
416B
  8
VOLL
 10
441.2467849443549994
 20
195.2108867802037935
 30
0.0
 40
1.8
  1

  7
GREEKS
  0
INSERT
  5
46F1
  8
ADSK_ASSOC_ENTITY_BACKUPS
  2
*S0
 10
0.0
 20
0.0
 30
0.0
  0
INSERT
  5
1B75F
  8
STEMPEL
  2
A$C436FC519
 10
0.0
 20
0.0
 30
0.0
  0
INSERT
  5
1B7F3
  8
STEMPEL
  2
A$CFD6D9054
 10
240.000000000048999
 20
-0.0000000000003979
 30
0.0
  0
INSERT
  5
1B826
  8
STEMPEL
  2
A$C017929E9
 10
0.0
 20
-225.999895765665002
 30
0.0
  0
VIEWPORT
  5
46D0
 67
     1
  8
0
 10
297.0095798878588198
 20
210.0048300793376939
 30
0.0
 40
798.1701256077442395
 41
426.3698209718668863
 68
     1
 69
     1
1001
ACAD
1000
MVIEW
1002
{
1070
    16
1010
0.0
1020
0.0
1030
0.0
1010
0.0
1020
0.0
1030
1.0
1040
0.0
1040
426.3698209718668863
1040
297.0095798878588198
1040
210.0048300793376939
1040
50.0
1040
0.0
1040
0.0
1070
     0
1070
  1500
1070
     1
1070
     1
1070
     0
1070
     0
1070
     0
1070
     0
1040
0.0
1040
0.0
1040
0.0
1040
10.0
1040
10.0
1040
10.0
1040
10.0
1070
     0
1002
{
1002
}
1002
}
  0
ENDSEC
  0
EOF
