  0
SECTION
  2
HEADER
  9
$ACADVER
  1
AC1009
  9
$INSBASE
 10
0.0
 20
0.0
 30
0.0
  9
$EXTMIN
 10
-122.5000000000016058
 20
-344.5000000000006821
 30
-0.0000000000000413
  9
$EXTMAX
 10
362.49999999999892
 20
165.9999999999998863
 30
0.0000000000000392
  9
$LIMMIN
 10
0.0
 20
0.0
  9
$LIMMAX
 10
419.9999999999998863
 20
594.0
  9
$ORTHOMODE
 70
     1
  9
$REGENMODE
 70
     1
  9
$FILLMODE
 70
     1
  9
$QTEXTMODE
 70
     0
  9
$MIRRTEXT
 70
     1
  9
$DRAGMODE
 70
     2
  9
$LTSCALE
 40
20.0
  9
$OSMODE
 70
   511
  9
$ATTMODE
 70
     1
  9
$TEXTSIZE
 40
3.5
  9
$TRACEWID
 40
1.0
  9
$TEXTSTYLE
  7
STANDARD
  9
$CLAYER
  8
STEMPEL
  9
$CELTYPE
  6
BYLAYER
  9
$CECOLOR
 62
   256
  9
$DIMSCALE
 40
1.0
  9
$DIMASZ
 40
3.5
  9
$DIMEXO
 40
1.0
  9
$DIMDLI
 40
0.38
  9
$DIMRND
 40
0.0
  9
$DIMDLE
 40
0.0
  9
$DIMEXE
 40
1.0
  9
$DIMTP
 40
0.0
  9
$DIMTM
 40
0.000000001
  9
$DIMTXT
 40
3.5
  9
$DIMCEN
 40
0.09
  9
$DIMTSZ
 40
0.0
  9
$DIMTOL
 70
     0
  9
$DIMLIM
 70
     0
  9
$DIMTIH
 70
     0
  9
$DIMTOH
 70
     0
  9
$DIMSE1
 70
     0
  9
$DIMSE2
 70
     0
  9
$DIMTAD
 70
     1
  9
$DIMZIN
 70
     8
  9
$DIMBLK
  1

  9
$DIMASO
 70
     1
  9
$DIMSHO
 70
     0
  9
$DIMPOST
  1

  9
$DIMAPOST
  1

  9
$DIMALT
 70
     0
  9
$DIMALTD
 70
     2
  9
$DIMALTF
 40
25.3999999999999986
  9
$DIMLFAC
 40
2.0
  9
$DIMTOFL
 70
     1
  9
$DIMTVP
 40
0.0
  9
$DIMTIX
 70
     0
  9
$DIMSOXD
 70
     0
  9
$DIMSAH
 70
     0
  9
$DIMBLK1
  1

  9
$DIMBLK2
  1

  9
$DIMSTYLE
  2
LORO
  9
$DIMCLRD
 70
     0
  9
$DIMCLRE
 70
     0
  9
$DIMCLRT
 70
     1
  9
$DIMTFAC
 40
0.5
  9
$DIMGAP
 40
1.5
  9
$LUNITS
 70
     2
  9
$LUPREC
 70
     2
  9
$SKETCHINC
 40
1.0
  9
$FILLETRAD
 40
2.0
  9
$AUNITS
 70
     0
  9
$AUPREC
 70
     0
  9
$MENU
  1
ACAD
  9
$ELEVATION
 40
0.0
  9
$PELEVATION
 40
0.0
  9
$THICKNESS
 40
0.0
  9
$LIMCHECK
 70
     0
  9
$BLIPMODE
 70
     0
  9
$CHAMFERA
 40
0.0
  9
$CHAMFERB
 40
0.0
  9
$SKPOLY
 70
     0
  9
$TDCREATE
 40
2455397.867048610933125
  9
$TDUPDATE
 40
2459761.4246064820326865
  9
$TDINDWG
 40
0.5727601042
  9
$TDUSRTIMER
 40
0.5727601042
  9
$USRTIMER
 70
     1
  9
$ANGBASE
 50
0.0
  9
$ANGDIR
 70
     0
  9
$PDMODE
 70
     0
  9
$PDSIZE
 40
0.0
  9
$PLINEWID
 40
0.0
  9
$COORDS
 70
     1
  9
$SPLFRAME
 70
     0
  9
$SPLINETYPE
 70
     6
  9
$SPLINESEGS
 70
     8
  9
$ATTDIA
 70
     1
  9
$ATTREQ
 70
     1
  9
$HANDLING
 70
     1
  9
$HANDSEED
  5
490A
  9
$SURFTAB1
 70
     6
  9
$SURFTAB2
 70
     6
  9
$SURFTYPE
 70
     6
  9
$SURFU
 70
     6
  9
$SURFV
 70
     6
  9
$UCSNAME
  2

  9
$UCSORG
 10
0.0
 20
0.0
 30
0.0
  9
$UCSXDIR
 10
1.0
 20
0.0
 30
0.0
  9
$UCSYDIR
 10
0.0
 20
1.0
 30
0.0
  9
$PUCSNAME
  2

  9
$PUCSORG
 10
0.0
 20
0.0
 30
0.0
  9
$PUCSXDIR
 10
1.0
 20
0.0
 30
0.0
  9
$PUCSYDIR
 10
0.0
 20
1.0
 30
0.0
  9
$USERI1
 70
     0
  9
$USERI2
 70
     0
  9
$USERI3
 70
     0
  9
$USERI4
 70
     0
  9
$USERI5
 70
     0
  9
$USERR1
 40
0.0
  9
$USERR2
 40
0.0
  9
$USERR3
 40
0.0
  9
$USERR4
 40
0.0
  9
$USERR5
 40
0.0
  9
$WORLDVIEW
 70
     1
  9
$SHADEDGE
 70
     3
  9
$SHADEDIF
 70
    70
  9
$TILEMODE
 70
     1
  9
$MAXACTVP
 70
    16
  9
$PLIMCHECK
 70
     0
  9
$PEXTMIN
 10
0.0
 20
0.0
 30
-0.0000000000004547
  9
$PEXTMAX
 10
594.0000000000002274
 20
420.0
 30
0.0000000000001137
  9
$PLIMMIN
 10
-2.9483477517529679
 20
-2.0683399531190791
  9
$PLIMMAX
 10
596.9916522482470782
 20
422.1316600468808247
  9
$UNITMODE
 70
     0
  9
$VISRETAIN
 70
     0
  9
$PLINEGEN
 70
     0
  9
$PSLTSCALE
 70
     1
  0
ENDSEC
  0
SECTION
  2
TABLES
  0
TABLE
  2
VPORT
 70
     1
  0
VPORT
  2
*ACTIVE
 70
     0
 10
0.0
 20
0.0
 11
1.0
 21
1.0
 12
60.2345096435142295
 22
-177.4506342029077928
 13
0.0
 23
0.0
 14
1.0
 24
1.0
 15
10.0
 25
10.0
 16
-0.0000000000004761
 26
0.0
 36
2113.5424222049041418
 17
59.7654903564843991
 27
88.2006342029074091
 37
0.000000000000009
 40
513.1112531969314432
 41
1.8720136518771331
 42
50.0
 43
0.0
 44
0.0
 50
0.0
 51
0.0
 71
     0
 72
  1500
 73
     1
 74
     0
 75
     0
 76
     0
 77
     0
 78
     0
  0
ENDTAB
  0
TABLE
  2
LTYPE
 70
     6
  0
LTYPE
  2
CONTINUOUS
 70
     0
  3
Solid line
 72
    65
 73
     0
 40
0.0
  0
LTYPE
  2
STRICHPUNKT
 70
     0
  3
__ . __ . __ . __ . __ . __ . __ . __ . __ . __
 72
    65
 73
     4
 40
1.0
 49
0.5
 49
-0.25
 49
0.0
 49
-0.25
  0
LTYPE
  2
VERDECKT
 70
     0
  3
_ _ _ _ _ _ _ _ _ _ _ _ _ _ _ _ _ _ _ _ _ _ _
 72
    65
 73
     2
 40
0.375
 49
0.25
 49
-0.125
  0
ENDTAB
  0
TABLE
  2
LAYER
 70
    18
  0
LAYER
  2
0
 70
     0
 62
     7
  6
CONTINUOUS
  0
LAYER
  2
VOLL
 70
     0
 62
     1
  6
CONTINUOUS
  0
LAYER
  2
STEMPEL
 70
     0
 62
     3
  6
CONTINUOUS
  0
LAYER
  2
DEFPOINTS
 70
     0
 62
     7
  6
CONTINUOUS
  0
LAYER
  2
ADSK_ASSOC_ENTITY_BACKUPS
 70
     1
 62
    -7
  6
CONTINUOUS
  0
ENDTAB
  0
TABLE
  2
STYLE
 70
     3
  0
STYLE
  2
STANDARD
 70
     0
 40
0.0
 41
0.8
 50
0.0
 71
     0
 42
3.5
  3
simplex.shx
  4

  0
STYLE
  2
GREEKS
 70
     0
 40
0.0
 41
0.8
 50
0.0
 71
     0
 42
2.5
  3
SIMPLEX.shx
  4

  0
ENDTAB
  0
TABLE
  2
VIEW
 70
     1
  0
ENDTAB
  0
TABLE
  2
UCS
 70
     0
  0
ENDTAB
  0
TABLE
  2
APPID
 70
    28
  0
APPID
  2
ACAD
 70
     0
  0
APPID
  2
ACAECLAYERSTANDARD
 70
     0
  0
APPID
  2
ACCMTRANSPARENCY
 70
     0
  0
APPID
  2
ACAD_NAV_VCDISPLAY
 70
     0
  0
APPID
  2
ACAD_PSEXT
 70
     0
  0
APPID
  2
ACAD_EXEMPT_FROM_CAD_STANDARDS
 70
     0
  0
APPID
  2
ACSYNERGY
 70
     0
  0
APPID
  2
SYNERGY_BODY_TBR_ID
 70
     0
  0
APPID
  2
ACAD_VIEW_EDGE_ID
 70
     0
  0
APPID
  2
ACSYNERGYSKETCH
 70
     0
  0
APPID
  2
ACAD_MODELDOC_XFORM
 70
     0
  0
APPID
  2
ACAD_MLEADERVER
 70
     0
  0
APPID
  2
ACADANNOMONITORALERTICONDI
 70
     0
  0
APPID
  2
ACAD_DSTYLE_DIMJAG
 70
     0
  0
APPID
  2
ACAD_DSTYLE_DIMTALN
 70
     0
  0
APPID
  2
ACAD_STEPID
 70
     0
  0
APPID
  2
ACDBDYNAMICBLOCKGUID
 70
     0
  0
APPID
  2
ACADANNOAV
 70
     0
  0
APPID
  2
ACADANNOPO
 70
     0
  0
APPID
  2
ACAD_DIMASSOC_CALC_DIMLFAC
 70
     0
  0
APPID
  2
ACAD_DIMASSOC_DIMLFAC
 70
     0
  0
APPID
  2
ACAD_DIMASSOC_OVERRIDDEN_D
 70
     0
  0
APPID
  2
ACAD_DSTYLE_DIMRADIAL_EXTENSION
 70
     0
  0
APPID
  2
GRADIENTCOLOR1ACI
 70
     0
  0
APPID
  2
GRADIENTCOLOR2ACI
 70
     0
  0
APPID
  2
ACAD_DSTYLE_DIMBREAK
 70
     0
  0
APPID
  2
ACAD_TC
 70
     0
  0
APPID
  2
AcDbAttr
 70
     0
  0
ENDTAB
  0
TABLE
  2
DIMSTYLE
 70
     2
  0
DIMSTYLE
  2
STANDARD
 70
     0
  3

  4

  5

  6

  7

 40
1.0
 41
0.18
 42
0.0625
 43
0.38
 44
0.18
 45
0.0
 46
0.0
 47
0.0
 48
0.0
140
0.18
141
0.09
142
0.0
143
25.3999999999999986
144
1.0
145
0.0
146
1.0
147
0.09
 71
     0
 72
     0
 73
     1
 74
     1
 75
     0
 76
     0
 77
     0
 78
     0
170
     0
171
     2
172
     0
173
     0
174
     0
175
     0
176
     0
177
     0
178
     0
  0
DIMSTYLE
  2
LORO
 70
     0
  3

  4

  5

  6

  7

 40
1.0
 41
3.5
 42
1.0
 43
0.38
 44
1.0
 45
0.0
 46
0.0
 47
0.0
 48
0.000000001
140
3.5
141
0.09
142
0.0
143
25.3999999999999986
144
2.0
145
0.0
146
0.5
147
1.5
 71
     0
 72
     0
 73
     0
 74
     0
 75
     0
 76
     0
 77
     1
 78
     8
170
     0
171
     2
172
     1
173
     0
174
     0
175
     0
176
     0
177
     0
178
     1
  0
ENDTAB
  0
ENDSEC
  0
SECTION
  2
BLOCKS
  0
BLOCK
  8
0
  2
$MODEL_SPACE
 70
     0
 10
0.0
 20
0.0
 30
0.0
  3
$MODEL_SPACE
  1

  0
ENDBLK
  5
38
  8
0
  0
BLOCK
 67
     1
  8
0
  2
$PAPER_SPACE
 70
     0
 10
0.0
 20
0.0
 30
0.0
  3
$PAPER_SPACE
  1

  0
ENDBLK
  5
281E
 67
     1
  8
0
  0
BLOCK
  8
0
  2
*S0
 70
     1
 10
0.0
 20
0.0
 30
0.0
  3
*S0
  1

  0
ENDBLK
  5
ACE
  8
0
  0
BLOCK
  8
0
  2
A$C637A6FE1
 70
     0
 10
0.0
 20
0.0
 30
0.0
  3
A$C637A6FE1
  1

  0
LINE
  5
4787
  8
0
  6
CONTINUOUS
 62
     3
 10
60.9999999999985292
 20
54.9999999999997726
 30
-0.0000000000000122
 11
-61.0000000000014921
 21
54.9999999999997726
 31
-0.0000000000000122
210
0.0
220
1.0
230
-0.0000000000000002
  0
LINE
  5
4788
  8
0
  6
CONTINUOUS
 62
     3
 10
-122.5000000000016058
 20
65.9999999999996732
 30
-0.0000000000000147
 11
-0.00000000000162
 21
65.9999999999996874
 31
-0.0000000000000147
210
0.0
220
1.0
230
-0.0000000000000002
  0
LINE
  5
4789
  8
0
  6
CONTINUOUS
 62
     3
 10
91.7499999999987352
 20
65.9999999999997726
 30
-0.0000000000000147
 11
-0.0000000000012648
 21
65.9999999999997726
 31
-0.0000000000000147
210
0.0
220
1.0
230
-0.0000000000000002
  0
LINE
  5
478A
  8
0
  6
CONTINUOUS
 62
     3
 10
-122.5000000000016058
 20
67.9999999999996732
 30
-0.0000000000000151
 11
-0.00000000000162
 21
67.9999999999996732
 31
-0.0000000000000151
210
0.0
220
1.0
230
-0.0000000000000002
  0
LINE
  5
478B
  8
0
  6
CONTINUOUS
 62
     3
 10
-122.5000000000011937
 20
65.9999999999995595
 30
-0.0000000000000147
 11
-122.5000000000011937
 21
67.9999999999996732
 31
-0.0000000000000151
210
0.0
220
1.0
230
-0.0000000000000002
  0
LINE
  5
478C
  8
0
  6
CONTINUOUS
 62
     3
 10
91.7499999999986926
 20
67.9999999999997868
 30
-0.0000000000000151
 11
-0.000000000001549
 21
67.9999999999997868
 31
-0.0000000000000151
210
0.0
220
1.0
230
-0.0000000000000002
  0
CIRCLE
  5
478D
  8
0
  6
CONTINUOUS
 62
     3
 10
102.5000000000012932
 20
145.999999999999801
 30
0.0
 40
4.0000000000000027
210
0.0
220
-0.0000000000000002
230
-1.0
  0
LINE
  5
478E
  8
0
  6
CONTINUOUS
 62
     3
 10
94.9999999999992752
 20
165.999999999999801
 30
-0.0000000000000369
 11
94.9999999999991331
 21
145.999999999999801
 31
-0.0000000000000324
210
0.0
220
1.0
230
-0.0000000000000002
  0
LINE
  5
478F
  8
0
  6
CONTINUOUS
 62
     3
 10
94.9999999999992752
 20
165.999999999999801
 30
-0.0000000000000369
 11
92.999999999999261
 21
165.999999999999801
 31
-0.0000000000000369
210
0.0
220
1.0
230
-0.0000000000000002
  0
LINE
  5
4790
  8
0
  6
CONTINUOUS
 62
     3
 10
92.9999999999992042
 20
145.999999999999801
 30
-0.0000000000000324
 11
92.999999999999261
 21
165.999999999999801
 31
-0.0000000000000369
210
0.0
220
1.0
230
-0.0000000000000002
  0
LINE
  5
4791
  8
0
  6
CONTINUOUS
 62
     3
 10
92.9999999999991473
 20
145.999999999999801
 30
-0.0000000000000324
 11
92.9999999999987352
 21
69.2499999999997868
 31
-0.0000000000000154
210
0.0
220
1.0
230
-0.0000000000000002
  0
LINE
  5
4792
  8
0
  6
CONTINUOUS
 62
     3
 10
94.9999999999987494
 20
69.2499999999997726
 30
-0.0000000000000154
 11
94.9999999999991331
 21
145.999999999999801
 31
-0.0000000000000324
210
0.0
220
1.0
230
-0.0000000000000002
  0
ARC
  5
4793
  8
0
  6
CONTINUOUS
 62
     3
 10
102.5000000000011937
 20
145.999999999999801
 30
0.0
 40
20.0000000000001208
210
0.0
220
-0.0000000000000002
230
-1.0
 50
0.0
 51
89.9999999999996874
  0
LINE
  5
4794
  8
0
  6
CONTINUOUS
 62
     3
 10
-122.5000000000012932
 20
145.999999999999801
 30
-0.0000000000000324
 11
-122.5000000000012932
 21
69.2499999999997868
 31
-0.0000000000000154
210
0.0
220
1.0
230
-0.0000000000000002
  0
LINE
  5
4795
  8
0
  6
CONTINUOUS
 62
     3
 10
91.7499999999987352
 20
69.2499999999997868
 30
-0.0000000000000154
 11
92.9292893218801055
 21
69.2499999999997868
 31
-0.0000000000000154
210
0.0
220
1.0
230
-0.0000000000000002
  0
LINE
  5
4796
  8
0
  6
CONTINUOUS
 62
     3
 10
92.9292893218801055
 20
69.2499999999997868
 30
-0.0000000000000154
 11
92.9292893218801055
 21
165.999999999999801
 31
-0.0000000000000369
210
0.0
220
1.0
230
-0.0000000000000002
  0
LINE
  5
4797
  8
0
  6
CONTINUOUS
 62
     3
 10
92.9292893218801055
 20
165.999999999999801
 30
-0.0000000000000369
 11
-102.5000000000012932
 21
165.999999999999801
 31
-0.0000000000000369
210
0.0
220
1.0
230
-0.0000000000000002
  0
ARC
  5
4798
  8
0
  6
CONTINUOUS
 62
     3
 10
91.7499999999986926
 20
69.249999999999801
 30
-0.0000000000000154
 40
3.2500000000000431
 50
270.0000000000010232
 51
359.9999999999994884
  0
ARC
  5
4799
  8
0
  6
CONTINUOUS
 62
     3
 10
-91.7499999999986926
 20
69.2499999999998153
 30
0.0
 40
1.2500000000000571
210
0.0
220
-0.0000000000000002
230
-1.0
 50
180.0000000000013074
 51
269.9999999999973284
  0
LINE
  5
479A
  8
0
  6
CONTINUOUS
 62
     3
 10
-122.5000000000012932
 20
69.2499999999997868
 30
-0.0000000000000154
 11
-122.5000000000012932
 21
67.9999999999997726
 31
-0.0000000000000151
210
0.0
220
1.0
230
-0.0000000000000002
  0
LINE
  5
479B
  8
0
  6
CONTINUOUS
 62
     3
 10
91.7499999999987352
 20
67.9999999999997726
 30
-0.0000000000000151
 11
91.7499999999987352
 21
69.2499999999997868
 31
-0.0000000000000154
210
0.0
220
1.0
230
-0.0000000000000002
  0
LINE
  5
479C
  8
0
  6
CONTINUOUS
 62
     3
 10
-61.0000000000014708
 20
54.9999999999997726
 30
-0.0000000000000122
 11
-68.6889867471437157
 21
65.2036300463037719
 31
-0.0000000000000145
210
0.0
220
1.0
230
-0.0000000000000002
  0
LINE
  5
479D
  8
0
  6
CONTINUOUS
 62
     3
 10
60.9999999999985221
 20
54.9999999999997584
 30
-0.0000000000000122
 11
68.688986747140774
 21
65.2036300463037435
 31
-0.0000000000000145
210
0.0
220
1.0
230
-0.0000000000000002
  0
ARC
  5
479E
  8
0
  6
CONTINUOUS
 62
     3
 10
-70.2862577672353126
 20
63.9999999999998721
 30
0.0
 40
1.9999999999998459
210
0.0
220
-0.0000000000000002
230
-1.0
 50
36.999999999995751
 51
89.9999999999987637
  0
ARC
  5
479F
  8
0
  6
CONTINUOUS
 62
     3
 10
70.2862577672382969
 20
63.9999999999997726
 30
0.0
 40
1.9999999999999429
210
0.0
220
-0.0000000000000002
230
-1.0
 50
90.0000000000016058
 51
143.0000000000021032
  0
LINE
  5
47A0
  8
0
  6
CONTINUOUS
 62
     3
 10
-50.7000000000006565
 20
-0.0000000000000103
 30
0.0
 11
50.6999999999993065
 21
-0.0000000000000039
 31
0.0
210
0.0
220
1.0
230
-0.0000000000000002
  0
LINE
  5
47A1
  8
0
  6
CONTINUOUS
 62
     3
 10
-60.5000000000007105
 20
70.0000000000000142
 30
-0.0000000000000155
 11
60.4999999999993179
 21
70.0000000000000142
 31
-0.0000000000000155
210
0.0
220
1.0
230
-0.0000000000000002
  0
ARC
  5
47A2
  8
0
  6
CONTINUOUS
 62
     3
 10
50.4999999999970726
 20
8.0498756211210178
 30
0.0
 40
1.0000000000036089
210
0.0
220
-0.0000000000000002
230
-1.0
 50
354.2894068625121804
 51
359.9999999999910756
  0
ARC
  5
47A3
  8
0
  6
CONTINUOUS
 62
     3
 10
-50.499999999995751
 20
8.0498756211210232
 30
0.0
 40
1.000000000003566
210
0.0
220
-0.0000000000000002
230
-1.0
 50
180.000000000008697
 51
185.7105931374879049
  0
LINE
  5
47A4
  8
0
  6
CONTINUOUS
 62
     3
 10
51.4999999999993108
 20
40.0
 30
-0.0000000000000089
 11
51.4999999999993108
 21
8.0498756211208704
 31
-0.0000000000000018
210
0.0
220
1.0
230
-0.0000000000000002
  0
LINE
  5
47A5
  8
0
  6
CONTINUOUS
 62
     3
 10
-51.5000000000006821
 20
40.0
 30
-0.0000000000000089
 11
-51.5000000000006821
 21
8.0498756211208633
 31
-0.0000000000000018
210
0.0
220
1.0
230
-0.0000000000000002
  0
LINE
  5
47A6
  8
0
  6
CONTINUOUS
 62
     3
 10
-50.7000000000006779
 20
-0.0000000000000102
 30
0.0
 11
-51.4950371902106667
 21
7.9503719020998647
 31
-0.0000000000000018
210
0.0
220
1.0
230
-0.0000000000000002
  0
LINE
  5
47A7
  8
0
  6
CONTINUOUS
 62
     3
 10
50.6999999999993207
 20
-0.0000000000000075
 30
0.0
 11
51.4950371902093025
 21
7.9503719020998718
 31
-0.0000000000000018
210
0.0
220
1.0
230
-0.0000000000000002
  0
LINE
  5
47A8
  8
0
  6
CONTINUOUS
 62
     3
 10
-52.8415189189045691
 20
45.0030695945889505
 30
-0.00000000000001
 11
-58.6179753299175914
 21
54.9999999999997726
 31
-0.0000000000000122
210
0.0
220
1.0
230
-0.0000000000000002
  0
LINE
  5
47A9
  8
0
  6
CONTINUOUS
 62
     3
 10
52.8415189189031977
 20
45.0030695945889505
 30
-0.00000000000001
 11
58.6179753299162201
 21
54.9999999999997726
 31
-0.0000000000000122
210
0.0
220
1.0
230
-0.0000000000000002
  0
ARC
  5
47AA
  8
0
  6
CONTINUOUS
 62
     3
 10
61.5000000000006466
 20
40.0
 30
0.0
 40
9.9999999999999645
210
0.0
220
-0.0000000000000002
230
-1.0
 50
149.9796896468805869
 51
179.9999999999998863
  0
ARC
  5
47AB
  8
0
  6
CONTINUOUS
 62
     3
 10
-61.4999999999994813
 20
39.9999999999999574
 30
0.0
 40
10.0000000000001705
210
0.0
220
-0.0000000000000002
230
-1.0
 50
0.0000000000002036
 51
30.0203103531188908
  0
LINE
  5
47AC
  8
0
  6
CONTINUOUS
 62
     3
 10
60.4999999999993179
 20
70.0000000000000142
 30
-0.0000000000000155
 11
60.4999999999993179
 21
67.9999999999997442
 31
-0.0000000000000151
210
0.0
220
1.0
230
-0.0000000000000002
  0
LINE
  5
47AD
  8
0
  6
CONTINUOUS
 62
     3
 10
-60.5000000000006892
 20
70.0000000000000142
 30
-0.0000000000000155
 11
-60.5000000000006892
 21
67.9999999999996732
 31
-0.0000000000000151
210
0.0
220
1.0
230
-0.0000000000000002
  0
LINE
  5
47AE
  8
0
  6
CONTINUOUS
 62
     3
 10
-55.6090464708852323
 20
-49.9999999999999005
 30
0.0000000000000111
 11
55.6090464708852323
 21
-49.9999999999999005
 31
0.0000000000000111
210
0.0
220
1.0
230
-0.0000000000000002
  0
LINE
  5
47AF
  8
0
  6
CONTINUOUS
 62
     3
 10
-57.75
 20
-65.9999999999999858
 30
0.0000000000000147
 11
57.75
 21
-65.9999999999999858
 31
0.0000000000000147
210
0.0
220
1.0
230
-0.0000000000000002
  0
LINE
  5
47B0
  8
0
  6
CONTINUOUS
 62
     3
 10
-59.5
 20
-67.5000000000000426
 30
0.000000000000015
 11
59.5
 21
-67.5000000000000426
 31
0.000000000000015
210
0.0
220
1.0
230
-0.0000000000000002
  0
LINE
  5
47B1
  8
0
  6
CONTINUOUS
 62
     3
 10
-59.5
 20
-68.5000000000000142
 30
0.0000000000000152
 11
59.5
 21
-68.5000000000000142
 31
0.0000000000000152
210
0.0
220
1.0
230
-0.0000000000000002
  0
LINE
  5
47B2
  8
0
  6
CONTINUOUS
 62
     3
 10
-57.1171444324796624
 20
-70.882855567520366
 30
0.0000000000000157
 11
57.1171444324796624
 21
-70.882855567520366
 31
0.0000000000000157
210
0.0
220
1.0
230
-0.0000000000000002
  0
LINE
  5
47B3
  8
0
  6
CONTINUOUS
 62
     3
 10
-60.0
 20
-74.9999999999999574
 30
0.0000000000000167
 11
60.0
 21
-74.9999999999999574
 31
0.0000000000000167
210
0.0
220
1.0
230
-0.0000000000000002
  0
LINE
  5
47B4
  8
0
  6
CONTINUOUS
 62
     3
 10
-49.5
 20
-76.9999999999999858
 30
0.0000000000000171
 11
49.5
 21
-76.9999999999999858
 31
0.0000000000000171
210
0.0
220
1.0
230
-0.0000000000000002
  0
LINE
  5
47B5
  8
0
  6
CONTINUOUS
 62
     3
 10
-59.5
 20
-57.0000000000000071
 30
0.0000000000000127
 11
59.5
 21
-57.0000000000000071
 31
0.0000000000000127
210
0.0
220
1.0
230
-0.0000000000000002
  0
ARC
  5
47B6
  8
0
  6
CONTINUOUS
 62
     3
 10
55.6394515204002005
 20
-57.8000000000000398
 30
0.0
 40
0.8000000000000042
210
0.0
220
-0.0000000000000002
230
-1.0
 50
89.9999999999959357
 51
199.8552143693231073
  0
ARC
  5
47B7
  8
0
  6
CONTINUOUS
 62
     3
 10
-55.6394515204002005
 20
-57.8000000000000398
 30
0.0
 40
0.8000000000000133
210
0.0
220
-0.0000000000000002
230
-1.0
 50
340.144785630676779
 51
90.0000000000040643
  0
LINE
  5
47B8
  8
0
  6
CONTINUOUS
 62
     3
 10
54.887008400646863
 20
-58.0717155710221107
 30
0.0000000000000129
 11
57.7500000000000284
 21
-65.9999999999999716
 31
0.0000000000000147
210
0.0
220
1.0
230
-0.0000000000000002
  0
LINE
  5
47B9
  8
0
  6
CONTINUOUS
 62
     3
 10
-54.887008400646863
 20
-58.0717155710221107
 30
0.0000000000000129
 11
-57.7500000000000284
 21
-65.9999999999999716
 31
0.0000000000000147
210
0.0
220
1.0
230
-0.0000000000000002
  0
LINE
  5
47BA
  8
0
  6
CONTINUOUS
 62
     3
 10
57.75
 20
-65.9999999999999858
 30
0.0000000000000147
 11
59.5
 21
-67.5000000000000426
 31
0.000000000000015
210
0.0
220
1.0
230
-0.0000000000000002
  0
LINE
  5
47BB
  8
0
  6
CONTINUOUS
 62
     3
 10
-57.75
 20
-65.9999999999999858
 30
0.0000000000000147
 11
-59.5
 21
-67.5000000000000426
 31
0.000000000000015
210
0.0
220
1.0
230
-0.0000000000000002
  0
LINE
  5
47BC
  8
0
  6
CONTINUOUS
 62
     3
 10
59.5
 20
-67.5000000000000426
 30
0.000000000000015
 11
59.5
 21
-68.5000000000000142
 31
0.0000000000000152
210
0.0
220
1.0
230
-0.0000000000000002
  0
LINE
  5
47BD
  8
0
  6
CONTINUOUS
 62
     3
 10
-59.5
 20
-67.5000000000000426
 30
0.000000000000015
 11
-59.5
 21
-68.5000000000000142
 31
0.0000000000000152
210
0.0
220
1.0
230
-0.0000000000000002
  0
LINE
  5
47BE
  8
0
  6
CONTINUOUS
 62
     3
 10
-57.1171444324796624
 20
-70.882855567520366
 30
0.0000000000000157
 11
-59.4999999999999929
 21
-68.5000000000000142
 31
0.0000000000000152
210
0.0
220
1.0
230
-0.0000000000000002
  0
LINE
  5
47BF
  8
0
  6
CONTINUOUS
 62
     3
 10
57.1171444324796624
 20
-70.882855567520366
 30
0.0000000000000157
 11
59.4999999999999929
 21
-68.5000000000000142
 31
0.0000000000000152
210
0.0
220
1.0
230
-0.0000000000000002
  0
LINE
  5
47C0
  8
0
  6
CONTINUOUS
 62
     3
 10
57.1171444324796624
 20
-70.882855567520366
 30
0.0000000000000157
 11
60.0
 21
-74.9999999999999574
 31
0.0000000000000167
210
0.0
220
1.0
230
-0.0000000000000002
  0
LINE
  5
47C1
  8
0
  6
CONTINUOUS
 62
     3
 10
-57.1171444324796624
 20
-70.882855567520366
 30
0.0000000000000157
 11
-60.0
 21
-74.9999999999999574
 31
0.0000000000000167
210
0.0
220
1.0
230
-0.0000000000000002
  0
ARC
  5
47C2
  8
0
  6
CONTINUOUS
 62
     3
 10
49.4999999999999503
 20
-71.9999999999999147
 30
0.0
 40
5.0000000000000853
210
0.0
220
-0.0000000000000002
230
-1.0
 50
270.0
 51
323.1301023541556106
  0
ARC
  5
47C3
  8
0
  6
CONTINUOUS
 62
     3
 10
-49.4999999999999503
 20
-71.9999999999999147
 30
0.0
 40
5.000000000000087
210
0.0
220
-0.0000000000000002
230
-1.0
 50
216.8698976458439063
 51
269.9999999999994884
  0
ARC
  5
47C4
  8
0
  6
CONTINUOUS
 62
     3
 10
55.6090464708852323
 20
-51.4999999999998508
 30
0.0
 40
1.4999999999999469
210
0.0
220
-0.0000000000000002
230
-1.0
 50
25.8941133784704611
 51
90.0
  0
ARC
  5
47C5
  8
0
  6
CONTINUOUS
 62
     3
 10
-55.6090464708852323
 20
-51.4999999999998508
 30
0.0
 40
1.49999999999995
210
0.0
220
-0.0000000000000002
230
-1.0
 50
90.0
 51
154.1058866215294927
  0
LINE
  5
47C6
  8
0
  6
CONTINUOUS
 62
     3
 10
56.9584504483275325
 20
-50.8449359530069813
 30
0.0000000000000113
 11
59.0984106065128501
 21
-55.2531625413520899
 31
0.0000000000000123
210
0.0
220
1.0
230
-0.0000000000000002
  0
LINE
  5
47C7
  8
0
  6
CONTINUOUS
 62
     3
 10
-56.9584504483275325
 20
-50.8449359530069813
 30
0.0000000000000113
 11
-59.0984106065128501
 21
-55.2531625413520899
 31
0.0000000000000123
210
0.0
220
1.0
230
-0.0000000000000002
  0
ARC
  5
47C8
  8
0
  6
CONTINUOUS
 62
     3
 10
55.4999999999989626
 20
-57.0000000000003268
 30
0.0
 40
4.0000000000010374
210
0.0
220
-0.0000000000000002
230
-1.0
 50
0.0000000000044782
 51
25.8941133784711894
  0
ARC
  5
47C9
  8
0
  6
CONTINUOUS
 62
     3
 10
-55.4999999999989626
 20
-57.0000000000003268
 30
0.0
 40
4.0000000000010374
210
0.0
220
-0.0000000000000002
230
-1.0
 50
154.1058866215288106
 51
179.9999999999955094
  0
LINE
  5
47CA
  8
0
  6
VERDECKT
 62
     1
 10
59.4027289799036069
 20
56.2036300463038287
 30
-0.0000000000000125
 11
-59.4027289799065699
 21
56.2036300463038287
 31
-0.0000000000000125
210
0.0
220
1.0
230
-0.0000000000000002
  0
LINE
  5
47CB
  8
0
  6
VERDECKT
 62
     1
 10
92.9999999999987352
 20
69.2499999999997868
 30
-0.0000000000000154
 11
94.9999999999987494
 21
69.2499999999997726
 31
-0.0000000000000154
210
0.0
220
1.0
230
-0.0000000000000002
  0
LINE
  5
47CC
  8
0
  6
VERDECKT
 62
     1
 10
91.7499999999987352
 20
67.9999999999997726
 30
-0.0000000000000151
 11
91.7499999999987352
 21
65.9999999999997726
 31
-0.0000000000000147
210
0.0
220
1.0
230
-0.0000000000000002
  0
LINE
  5
47CD
  8
0
  6
VERDECKT
 62
     1
 10
59.4027289799036069
 20
56.203630046303843
 30
-0.0000000000000125
 11
60.9999999999985292
 21
54.9999999999997797
 31
-0.0000000000000122
210
0.0
220
1.0
230
-0.0000000000000002
  0
LINE
  5
47CE
  8
0
  6
VERDECKT
 62
     1
 10
-59.4027289799065699
 20
56.2036300463038287
 30
-0.0000000000000125
 11
-61.0000000000014921
 21
54.9999999999997726
 31
-0.0000000000000122
210
0.0
220
1.0
230
-0.0000000000000002
  0
ARC
  5
47CF
  8
0
  6
VERDECKT
 62
     1
 10
-70.2862577672352842
 20
63.9999999999998792
 30
0.0
 40
3.999999999999841
210
0.0
220
-0.0000000000000002
230
-1.0
 50
36.9999999999951825
 51
89.9999999999996163
  0
ARC
  5
47D0
  8
0
  6
VERDECKT
 62
     1
 10
70.2862577672382685
 20
63.9999999999998721
 30
0.0
 40
3.9999999999998499
210
0.0
220
-0.0000000000000002
230
-1.0
 50
90.0000000000003979
 51
143.0000000000050022
  0
LINE
  5
47D1
  8
0
  6
VERDECKT
 62
     1
 10
-59.4027289799065699
 20
56.2036300463038074
 30
-0.0000000000000125
 11
-67.0917157270490065
 21
66.4072600926077143
 31
-0.0000000000000147
210
0.0
220
1.0
230
-0.0000000000000002
  0
LINE
  5
47D2
  8
0
  6
VERDECKT
 62
     1
 10
59.4027289799036069
 20
56.2036300463038003
 30
-0.0000000000000125
 11
67.0917157270460507
 21
66.4072600926077143
 31
-0.0000000000000147
210
0.0
220
1.0
230
-0.0000000000000002
  0
LINE
  5
47D3
  8
0
  6
VERDECKT
 62
     1
 10
94.9999999999990337
 20
141.999999999999801
 30
-0.0000000000000315
 11
92.9999999999990337
 21
141.999999999999801
 31
-0.0000000000000315
210
0.0
220
1.0
230
-0.0000000000000002
  0
LINE
  5
47D4
  8
0
  6
VERDECKT
 62
     1
 10
94.9999999999990905
 20
149.999999999999801
 30
-0.0000000000000333
 11
92.9999999999991047
 21
149.999999999999801
 31
-0.0000000000000333
210
0.0
220
1.0
230
-0.0000000000000002
  0
LINE
  5
47D5
  8
0
  6
VERDECKT
 62
     1
 10
-49.2074442146857223
 20
0.1492555785314918
 30
0.0
 11
49.2074442146843367
 21
0.149255578531498
 31
0.0
210
0.0
220
1.0
230
-0.0000000000000002
  0
ARC
  5
47D6
  8
0
  6
VERDECKT
 62
     1
 10
48.9999999999970086
 20
8.1246890528024078
 30
0.0
 40
1.0000000000036731
210
0.0
220
-0.0000000000000002
230
-1.0
 50
354.2894068625122941
 51
359.9999999999909051
  0
ARC
  5
47D7
  8
0
  6
VERDECKT
 62
     1
 10
-48.9999999999956515
 20
8.1246890528024132
 30
0.0
 40
1.0000000000036731
210
0.0
220
-0.0000000000000002
230
-1.0
 50
180.0000000000090097
 51
185.7105931374877059
  0
LINE
  5
47D8
  8
0
  6
VERDECKT
 62
     1
 10
-49.207444214685701
 20
0.1492555785314922
 30
0.0
 11
-49.9950371902106667
 21
8.0251853337812502
 31
-0.0000000000000018
210
0.0
220
1.0
230
-0.0000000000000002
  0
LINE
  5
47D9
  8
0
  6
VERDECKT
 62
     1
 10
49.2074442146843296
 20
0.1492555785314918
 30
0.0
 11
49.9950371902093096
 21
8.0251853337812573
 31
-0.0000000000000018
210
0.0
220
1.0
230
-0.0000000000000002
  0
LINE
  5
47DA
  8
0
  6
VERDECKT
 62
     1
 10
49.9999999999993179
 20
40.0000000000000071
 30
-0.0000000000000089
 11
49.9999999999993179
 21
8.1246890528022551
 31
-0.0000000000000018
210
0.0
220
1.0
230
-0.0000000000000002
  0
LINE
  5
47DB
  8
0
  6
VERDECKT
 62
     1
 10
-50.0000000000006821
 20
40.0000000000000071
 30
-0.0000000000000089
 11
-50.0000000000006821
 21
8.1246890528022515
 31
-0.0000000000000018
210
0.0
220
1.0
230
-0.0000000000000002
  0
ARC
  5
47DC
  8
0
  6
VERDECKT
 62
     1
 10
54.0000000000006892
 20
60.0
 30
0.0
 40
6.499999999999992
210
0.0
220
-0.0000000000000002
230
-1.0
 50
329.9796896468806722
 51
359.9999999999998863
  0
ARC
  5
47DD
  8
0
  6
VERDECKT
 62
     1
 10
-53.9999999999991971
 20
60.0000000000000284
 30
0.0
 40
6.5000000000001128
210
0.0
220
-0.0000000000000002
230
-1.0
 50
180.000000000000199
 51
210.0203103531187878
  0
LINE
  5
47DE
  8
0
  6
VERDECKT
 62
     1
 10
-58.6179753299175914
 20
54.9999999999997726
 30
-0.0000000000000122
 11
-59.6280127027131783
 21
56.74800476351718
 31
-0.0000000000000126
210
0.0
220
1.0
230
-0.0000000000000002
  0
LINE
  5
47DF
  8
0
  6
VERDECKT
 62
     1
 10
58.6179753299162201
 20
54.9999999999997726
 30
-0.0000000000000122
 11
59.628012702711807
 21
56.7480047635171871
 31
-0.0000000000000126
210
0.0
220
1.0
230
-0.0000000000000002
  0
LINE
  5
47E0
  8
0
  6
VERDECKT
 62
     1
 10
49.2074442146843367
 20
0.1492555785314966
 30
0.0
 11
50.6999999999993207
 21
-0.0000000000000019
 31
0.0
210
0.0
220
1.0
230
-0.0000000000000002
  0
LINE
  5
47E1
  8
0
  6
VERDECKT
 62
     1
 10
-49.207444214685701
 20
0.1492555785314905
 30
0.0
 11
-50.7000000000006779
 21
-0.0000000000000084
 31
0.0
210
0.0
220
1.0
230
-0.0000000000000002
  0
ARC
  5
47E2
  8
0
  6
VERDECKT
 62
     1
 10
61.5000000000007603
 20
40.0
 30
0.0
 40
11.5000000000000799
210
0.0
220
-0.0000000000000002
230
-1.0
 50
149.9796896468808995
 51
179.999999999999801
  0
ARC
  5
47E3
  8
0
  6
VERDECKT
 62
     1
 10
-61.4999999999993534
 20
40.0000000000000071
 30
0.0
 40
11.5000000000000302
210
0.0
220
-0.0000000000000002
230
-1.0
 50
360.0
 51
30.0203103531190401
  0
LINE
  5
47E4
  8
0
  6
VERDECKT
 62
     1
 10
-51.5427467567401294
 20
45.7535300337772881
 30
-0.0000000000000102
 11
-58.3292405405487528
 21
57.4984652027055319
 31
-0.0000000000000128
210
0.0
220
1.0
230
-0.0000000000000002
  0
LINE
  5
47E5
  8
0
  6
VERDECKT
 62
     1
 10
51.5427467567387723
 20
45.7535300337772881
 30
-0.0000000000000102
 11
58.3292405405473886
 21
57.4984652027055319
 31
-0.0000000000000128
210
0.0
220
1.0
230
-0.0000000000000002
  0
ARC
  5
47E6
  8
0
  6
VERDECKT
 62
     1
 10
54.0000000000007319
 20
60.0
 30
0.0
 40
4.9999999999999662
210
0.0
220
-0.0000000000000002
230
-1.0
 50
329.9796896468806722
 51
0.0000000000004071
  0
ARC
  5
47E7
  8
0
  6
VERDECKT
 62
     1
 10
-53.9999999999994174
 20
60.0
 30
0.0
 40
4.9999999999998854
210
0.0
220
-0.0000000000000002
230
-1.0
 50
179.9999999999994884
 51
210.0203103531194984
  0
LINE
  5
47E8
  8
0
  6
VERDECKT
 62
     1
 10
58.9999999999993108
 20
70.0000000000000142
 30
-0.0000000000000155
 11
58.9999999999993108
 21
60.0000000000000284
 31
-0.0000000000000133
210
0.0
220
1.0
230
-0.0000000000000002
  0
LINE
  5
47E9
  8
0
  6
VERDECKT
 62
     1
 10
-59.0000000000006892
 20
70.0000000000000142
 30
-0.0000000000000155
 11
-59.0000000000006892
 21
60.0000000000000284
 31
-0.0000000000000133
210
0.0
220
1.0
230
-0.0000000000000002
  0
LINE
  5
47EA
  8
0
  6
VERDECKT
 62
     1
 10
60.4999999999993179
 20
67.9999999999997442
 30
-0.0000000000000151
 11
60.4999999999993179
 21
60.0
 31
-0.0000000000000133
210
0.0
220
1.0
230
-0.0000000000000002
  0
LINE
  5
47EB
  8
0
  6
VERDECKT
 62
     1
 10
-60.5000000000006892
 20
67.9999999999996732
 30
-0.0000000000000151
 11
-60.5000000000006892
 21
60.0
 31
-0.0000000000000133
210
0.0
220
1.0
230
-0.0000000000000002
  0
LINE
  5
47EC
  8
0
  6
VERDECKT
 62
     1
 10
-51.7999999999999616
 20
-59.9132265073572086
 30
0.0000000000000133
 11
51.8000000000000611
 21
-59.9132265073572086
 31
0.0000000000000133
210
0.0
220
1.0
230
-0.0000000000000002
  0
LINE
  5
47ED
  8
0
  6
VERDECKT
 62
     1
 10
47.5000000000000568
 20
-75.4439840251518063
 30
0.0000000000000168
 11
-47.4999999999999432
 21
-75.4439840251518063
 31
0.0000000000000168
210
0.0
220
1.0
230
-0.0000000000000002
  0
LINE
  5
47EE
  8
0
  6
VERDECKT
 62
     1
 10
-56.5995849235806077
 20
-72.9999999999999289
 30
0.0000000000000162
 11
56.5995849235806077
 21
-72.9999999999999289
 31
0.0000000000000162
210
0.0
220
1.0
230
-0.0000000000000002
  0
ARC
  5
47EF
  8
0
  6
VERDECKT
 62
     1
 10
55.6090464708851684
 20
-51.4932265073571287
 30
0.0
 40
1.499999999999968
210
0.0
220
-0.0000000000000002
230
-1.0
 50
95.4470566892314451
 51
165.0000000000017906
  0
ARC
  5
47F0
  8
0
  6
VERDECKT
 62
     1
 10
-55.6090464708852892
 20
-51.4932265073571287
 30
0.0
 40
1.499999999999968
210
0.0
220
-0.0000000000000002
230
-1.0
 50
14.9999999999981704
 51
84.5529433107685549
  0
LINE
  5
47F1
  8
0
  6
VERDECKT
 62
     1
 10
-51.7999999999999474
 20
-59.9132265073572086
 30
0.0000000000000133
 11
-54.1601577314515907
 21
-51.1049979397034022
 31
0.0000000000000113
210
0.0
220
1.0
230
-0.0000000000000002
  0
LINE
  5
47F2
  8
0
  6
VERDECKT
 62
     1
 10
51.8000000000000611
 20
-59.9132265073572086
 30
0.0000000000000133
 11
54.1601577314516973
 21
-51.1049979397034022
 31
0.0000000000000113
210
0.0
220
1.0
230
-0.0000000000000002
  0
LINE
  5
47F3
  8
0
  6
VERDECKT
 62
     1
 10
51.8000000000000611
 20
-59.9132265073572086
 30
0.0000000000000133
 11
51.8000000000000611
 21
-70.4932265073571926
 31
0.0000000000000157
210
0.0
220
1.0
230
-0.0000000000000002
  0
LINE
  5
47F4
  8
0
  6
VERDECKT
 62
     1
 10
-51.7999999999999616
 20
-59.9132265073572086
 30
0.0000000000000133
 11
-51.7999999999999616
 21
-70.4932265073571926
 31
0.0000000000000157
210
0.0
220
1.0
230
-0.0000000000000002
  0
ARC
  5
47F5
  8
0
  6
VERDECKT
 62
     1
 10
46.7999999999999119
 20
-70.4932265073571358
 30
0.0
 40
5.0000000000000488
210
0.0
220
-0.0000000000000002
230
-1.0
 50
278.0478462473117816
 51
359.9999999999993179
  0
ARC
  5
47F6
  8
0
  6
VERDECKT
 62
     1
 10
-46.8000000000000185
 20
-70.4932265073571358
 30
0.0
 40
5.0000000000000417
210
0.0
220
-0.0000000000000002
230
-1.0
 50
180.0000000000005969
 51
261.9521537526882184
  0
LINE
  5
47F7
  8
0
  6
VERDECKT
 62
     1
 10
-47.4999999999999432
 20
-76.9999999999999858
 30
0.0000000000000171
 11
-47.4999999999999432
 21
-75.4439840251518063
 31
0.0000000000000168
210
0.0
220
1.0
230
-0.0000000000000002
  0
LINE
  5
47F8
  8
0
  6
VERDECKT
 62
     1
 10
47.5000000000000568
 20
-76.9999999999999858
 30
0.0000000000000171
 11
47.5000000000000568
 21
-75.4439840251518063
 31
0.0000000000000168
210
0.0
220
1.0
230
-0.0000000000000002
  0
LINE
  5
47F9
  8
0
  6
VERDECKT
 62
     1
 10
56.5995849235805721
 20
-72.9999999999999432
 30
0.0000000000000162
 11
57.9999999999999716
 21
-74.9999999999999716
 31
0.0000000000000167
210
0.0
220
1.0
230
-0.0000000000000002
  0
LINE
  5
47FA
  8
0
  6
VERDECKT
 62
     1
 10
-56.5995849235805721
 20
-72.9999999999999432
 30
0.0000000000000162
 11
-57.9999999999999716
 21
-74.9999999999999716
 31
0.0000000000000167
210
0.0
220
1.0
230
-0.0000000000000002
  0
ARC
  5
47FB
  8
0
  6
VERDECKT
 62
     1
 10
49.5000000000000924
 20
-72.0000000000000142
 30
0.0
 40
4.9999999999999121
210
0.0
220
-0.0000000000000002
230
-1.0
 50
323.130102354156179
 51
348.4630409671851226
  0
ARC
  5
47FC
  8
0
  6
VERDECKT
 62
     1
 10
-49.5000000000000924
 20
-72.0000000000000142
 30
0.0
 40
4.9999999999999103
210
0.0
220
-0.0000000000000002
230
-1.0
 50
191.5369590328147922
 51
216.8698976458437926
  0
ENDBLK
  5
47FE
  8
0
  0
BLOCK
  8
0
  2
A$C6E2A1973
 70
     0
 10
0.0
 20
0.0
 30
0.0
  3
A$C6E2A1973
  1

  0
LINE
  5
4802
  8
0
  6
CONTINUOUS
 62
     3
 10
60.9292893218817397
 20
54.9999999999997868
 30
-0.0000000000000122
 11
-61.0707106781183171
 21
54.9999999999997584
 31
-0.0000000000000122
210
-0.0000000000000002
220
1.0
230
-0.0000000000000002
  0
LINE
  5
4803
  8
0
  6
CONTINUOUS
 62
     3
 10
-0.0707106781182061
 20
65.9999999999996874
 30
-0.0000000000000147
 11
122.4292893218815976
 21
65.9999999999997158
 31
-0.0000000000000147
210
-0.0000000000000002
220
1.0
230
-0.0000000000000002
  0
LINE
  5
4804
  8
0
  6
CONTINUOUS
 62
     3
 10
-0.0707106781184028
 20
65.9999999999997868
 30
-0.0000000000000147
 11
-91.8207106781184308
 21
65.9999999999997726
 31
-0.0000000000000147
210
-0.0000000000000002
220
1.0
230
-0.0000000000000002
  0
LINE
  5
4805
  8
0
  6
CONTINUOUS
 62
     3
 10
-0.0707106781182066
 20
67.9999999999996732
 30
-0.0000000000000151
 11
122.4292893218815976
 21
67.99999999999973
 31
-0.0000000000000151
210
-0.0000000000000002
220
1.0
230
-0.0000000000000002
  0
LINE
  5
4806
  8
0
  6
CONTINUOUS
 62
     3
 10
122.4292893218815976
 20
65.9999999999996021
 30
-0.0000000000000147
 11
122.4292893218815976
 21
67.9999999999997158
 31
-0.0000000000000151
210
-0.0000000000000002
220
1.0
230
-0.0000000000000002
  0
LINE
  5
4807
  8
0
  6
CONTINUOUS
 62
     3
 10
-0.0707106781184033
 20
67.9999999999997868
 30
-0.0000000000000151
 11
-91.8207106781184308
 21
67.9999999999997726
 31
-0.0000000000000151
210
-0.0000000000000002
220
1.0
230
-0.0000000000000002
  0
CIRCLE
  5
4808
  8
0
  6
CONTINUOUS
 62
     3
 10
-102.4292893218816971
 20
145.9999999999998863
 30
0.0
 40
4.0000000000000027
210
0.0
220
-0.0000000000000002
230
-1.0
  0
ARC
  5
4809
  8
0
  6
CONTINUOUS
 62
     3
 10
-102.4292893218816971
 20
145.9999999999998863
 30
0.0
 40
20.0000000000000107
210
0.0
220
-0.0000000000000002
230
-1.0
 50
89.9999999999999858
 51
180.0
  0
LINE
  5
480A
  8
0
  6
CONTINUOUS
 62
     3
 10
122.4292893218816971
 20
145.9999999999998863
 30
-0.0000000000000324
 11
122.4292893218816971
 21
69.2499999999998153
 31
-0.0000000000000154
210
-0.0000000000000002
220
1.0
230
-0.0000000000000002
  0
LINE
  5
480B
  8
0
  6
CONTINUOUS
 62
     3
 10
102.4292893218816971
 20
165.9999999999998863
 30
-0.0000000000000369
 11
-92.9999999999998153
 21
165.9999999999998863
 31
-0.0000000000000369
210
-0.0000000000000002
220
1.0
230
-0.0000000000000002
  0
LINE
  5
480C
  8
0
  6
CONTINUOUS
 62
     3
 10
-92.9999999999997442
 20
69.2499999999997868
 30
-0.0000000000000154
 11
-92.9999999999997726
 21
165.9999999999998863
 31
-0.0000000000000369
210
-0.0000000000000002
220
1.0
230
-0.0000000000000002
  0
LINE
  5
480D
  8
0
  6
CONTINUOUS
 62
     3
 10
-91.8207106781183739
 20
69.2499999999997868
 30
-0.0000000000000154
 11
-92.9999999999997442
 21
69.2499999999997868
 31
-0.0000000000000154
210
-0.0000000000000002
220
1.0
230
-0.0000000000000002
  0
LINE
  5
480E
  8
0
  6
CONTINUOUS
 62
     3
 10
-95.0707106781188429
 20
145.999999999999801
 30
-0.0000000000000324
 11
-95.070710678118985
 21
165.9999999999998863
 31
-0.0000000000000369
210
-0.0000000000000002
220
1.0
230
-0.0000000000000002
  0
LINE
  5
480F
  8
0
  6
CONTINUOUS
 62
     3
 10
-93.070710678118985
 20
166.0
 30
-0.0000000000000369
 11
-93.0707106781188571
 21
145.999999999999801
 31
-0.0000000000000324
210
-0.0000000000000002
220
1.0
230
-0.0000000000000002
  0
LINE
  5
4810
  8
0
  6
CONTINUOUS
 62
     3
 10
-93.070710678118985
 20
165.9999999999998863
 30
-0.0000000000000369
 11
-95.070710678118985
 21
165.9999999999998863
 31
-0.0000000000000369
210
-0.0000000000000002
220
1.0
230
-0.0000000000000002
  0
LINE
  5
4811
  8
0
  6
CONTINUOUS
 62
     3
 10
-93.0707106781188571
 20
145.999999999999801
 30
-0.0000000000000324
 11
-93.0707106781184308
 21
69.2499999999997868
 31
-0.0000000000000154
210
-0.0000000000000002
220
1.0
230
-0.0000000000000002
  0
LINE
  5
4812
  8
0
  6
CONTINUOUS
 62
     3
 10
-95.0707106781188429
 20
145.999999999999801
 30
-0.0000000000000324
 11
-95.0707106781184308
 21
69.2499999999997868
 31
-0.0000000000000154
210
-0.0000000000000002
220
1.0
230
-0.0000000000000002
  0
LINE
  5
4813
  8
0
  6
CONTINUOUS
 62
     3
 10
122.4292893218816971
 20
69.2499999999998153
 30
-0.0000000000000154
 11
122.4292893218816971
 21
67.999999999999801
 31
-0.0000000000000151
210
-0.0000000000000002
220
1.0
230
-0.0000000000000002
  0
LINE
  5
4814
  8
0
  6
CONTINUOUS
 62
     3
 10
-91.8207106781183739
 20
67.9999999999997726
 30
-0.0000000000000151
 11
-91.8207106781183739
 21
69.2499999999997868
 31
-0.0000000000000154
210
-0.0000000000000002
220
1.0
230
-0.0000000000000002
  0
ARC
  5
4815
  8
0
  6
CONTINUOUS
 62
     3
 10
-91.8207106781184308
 20
69.2499999999997442
 30
-0.0000000000000154
 40
3.2499999999999898
 50
180.0
 51
270.0000000000001137
  0
ARC
  5
4816
  8
0
  6
CONTINUOUS
 62
     3
 10
-91.8207106781184308
 20
69.2499999999997726
 30
-0.0000000000000154
 40
1.250000000000002
 50
179.9999999999992895
 51
269.9999999999998863
  0
LINE
  5
4817
  8
0
  6
CONTINUOUS
 62
     3
 10
-61.0707106781182887
 20
54.9999999999997584
 30
-0.0000000000000122
 11
-68.7596974252605548
 21
65.2036300463037861
 31
-0.0000000000000145
210
-0.0000000000000002
220
1.0
230
-0.0000000000000002
  0
LINE
  5
4818
  8
0
  6
CONTINUOUS
 62
     3
 10
60.9292893218817397
 20
54.9999999999997868
 30
-0.0000000000000122
 11
68.6182760690239775
 21
65.2036300463037861
 31
-0.0000000000000145
210
-0.0000000000000002
220
1.0
230
-0.0000000000000002
  0
ARC
  5
4819
  8
0
  6
CONTINUOUS
 62
     3
 10
-70.2155470891185303
 20
63.9999999999998366
 30
0.0
 40
1.999999999999901
210
0.0
220
-0.0000000000000002
230
-1.0
 50
36.999999999997101
 51
89.9999999999991758
  0
ARC
  5
481A
  8
0
  6
CONTINUOUS
 62
     3
 10
70.3569684453551361
 20
63.9999999999997726
 30
0.0
 40
1.99999999999995
210
0.0
220
-0.0000000000000002
230
-1.0
 50
90.0000000000024443
 51
143.0000000000021885
  0
LINE
  5
481B
  8
0
  6
CONTINUOUS
 62
     3
 10
-50.7000000000000171
 20
-0.0000000000000215
 30
0.0
 11
50.7000000000000171
 21
0.0000000000000073
 31
0.0
210
-0.0000000000000002
220
1.0
230
-0.0000000000000002
  0
LINE
  5
481C
  8
0
  6
CONTINUOUS
 62
     3
 10
-60.5000000000000426
 20
70.0000000000000142
 30
-0.0000000000000155
 11
60.4999999999999929
 21
70.0000000000000426
 31
-0.0000000000000155
210
-0.0000000000000002
220
1.0
230
-0.0000000000000002
  0
ARC
  5
481D
  8
0
  6
CONTINUOUS
 62
     3
 10
50.4999999999964331
 20
8.0498756211210107
 30
0.0
 40
1.0000000000035809
210
0.0
220
-0.0000000000000002
230
-1.0
 50
354.2894068625120099
 51
359.9999999999910187
  0
ARC
  5
481E
  8
0
  6
CONTINUOUS
 62
     3
 10
-50.4999999999963833
 20
8.0498756211210374
 30
0.0
 40
1.000000000003638
210
0.0
220
-0.0000000000000002
230
-1.0
 50
180.0000000000088107
 51
185.7105931374875922
  0
LINE
  5
481F
  8
0
  6
CONTINUOUS
 62
     3
 10
51.5000000000000071
 20
40.0000000000000071
 30
-0.0000000000000089
 11
51.5000000000000213
 21
8.0498756211208828
 31
-0.0000000000000018
210
-0.0000000000000002
220
1.0
230
-0.0000000000000002
  0
LINE
  5
4820
  8
0
  6
CONTINUOUS
 62
     3
 10
-51.5000000000000213
 20
39.9999999999999929
 30
-0.0000000000000089
 11
-51.5000000000000213
 21
8.0498756211208544
 31
-0.0000000000000018
210
-0.0000000000000002
220
1.0
230
-0.0000000000000002
  0
LINE
  5
4821
  8
0
  6
CONTINUOUS
 62
     3
 10
-50.7000000000000171
 20
-0.0000000000000215
 30
0.0
 11
-51.495037190210013
 21
7.9503719020998567
 31
-0.0000000000000018
210
-0.0000000000000002
220
1.0
230
-0.0000000000000002
  0
LINE
  5
4822
  8
0
  6
CONTINUOUS
 62
     3
 10
50.7000000000000171
 20
0.0000000000000073
 30
0.0
 11
51.495037190210013
 21
7.9503719020998851
 31
-0.0000000000000018
210
-0.0000000000000002
220
1.0
230
-0.0000000000000002
  0
LINE
  5
4823
  8
0
  6
CONTINUOUS
 62
     3
 10
-52.8415189189039083
 20
45.0030695945889505
 30
-0.00000000000001
 11
-58.6179753299169377
 21
54.9999999999997584
 31
-0.0000000000000122
210
-0.0000000000000002
220
1.0
230
-0.0000000000000002
  0
LINE
  5
4824
  8
0
  6
CONTINUOUS
 62
     3
 10
52.841518918903887
 20
45.0030695945889789
 30
-0.00000000000001
 11
58.6179753299169093
 21
54.999999999999801
 31
-0.0000000000000122
210
-0.0000000000000002
220
1.0
230
-0.0000000000000002
  0
ARC
  5
4825
  8
0
  6
CONTINUOUS
 62
     3
 10
61.4999999999999787
 20
39.9999999999999929
 30
0.0
 40
9.9999999999999662
210
0.0
220
-0.0000000000000002
230
-1.0
 50
149.9796896468805869
 51
179.9999999999998863
  0
ARC
  5
4826
  8
0
  6
CONTINUOUS
 62
     3
 10
-61.4999999999999787
 20
40.0000000000000213
 30
0.0
 40
9.9999999999999805
210
0.0
220
-0.0000000000000002
230
-1.0
 50
0.0
 51
30.0203103531193882
  0
LINE
  5
4827
  8
0
  6
CONTINUOUS
 62
     3
 10
60.5
 20
70.0000000000000426
 30
-0.0000000000000155
 11
60.5
 21
67.9999999999997016
 31
-0.0000000000000151
210
-0.0000000000000002
220
1.0
230
-0.0000000000000002
  0
LINE
  5
4828
  8
0
  6
CONTINUOUS
 62
     3
 10
-60.5000000000000426
 20
70.0000000000000142
 30
-0.0000000000000155
 11
-60.5000000000000426
 21
67.9999999999997442
 31
-0.0000000000000151
210
-0.0000000000000002
220
1.0
230
-0.0000000000000002
  0
LINE
  5
4829
  8
0
  6
CONTINUOUS
 62
     3
 10
-55.6090464708852679
 20
-49.9999999999999218
 30
0.0000000000000111
 11
0.000000000000004
 21
-49.9999999999999076
 31
0.0000000000000111
210
-0.0000000000000002
220
1.0
230
-0.0000000000000002
  0
LINE
  5
482A
  8
0
  6
CONTINUOUS
 62
     3
 10
0.0000000000000196
 20
-49.9999999999999076
 30
0.0000000000000111
 11
55.6090464708852608
 21
-49.9999999999998934
 31
0.0000000000000111
210
-0.0000000000000002
220
1.0
230
-0.0000000000000002
  0
LINE
  5
482B
  8
0
  6
CONTINUOUS
 62
     3
 10
-57.7499999999999787
 20
-66.0000000000000142
 30
0.0000000000000147
 11
0.0000000000000075
 21
-66.0
 31
0.0000000000000147
210
-0.0000000000000002
220
1.0
230
-0.0000000000000002
  0
LINE
  5
482C
  8
0
  6
CONTINUOUS
 62
     3
 10
0.0000000000000247
 20
-66.0
 30
0.0000000000000147
 11
57.7500000000000213
 21
-65.9999999999999858
 31
0.0000000000000147
210
-0.0000000000000002
220
1.0
230
-0.0000000000000002
  0
LINE
  5
482D
  8
0
  6
CONTINUOUS
 62
     3
 10
-59.4999999999999503
 20
-67.5000000000000711
 30
0.000000000000015
 11
0.0000000000000079
 21
-67.5000000000000568
 31
0.000000000000015
210
-0.0000000000000002
220
1.0
230
-0.0000000000000002
  0
LINE
  5
482E
  8
0
  6
CONTINUOUS
 62
     3
 10
0.000000000000018
 20
-67.5000000000000568
 30
0.000000000000015
 11
59.5000000000000071
 21
-67.5000000000000426
 31
0.000000000000015
210
-0.0000000000000002
220
1.0
230
-0.0000000000000002
  0
LINE
  5
482F
  8
0
  6
CONTINUOUS
 62
     3
 10
-59.4999999999999503
 20
-68.5000000000000426
 30
0.0000000000000152
 11
0.0000000000000081
 21
-68.5000000000000284
 31
0.0000000000000152
210
-0.0000000000000002
220
1.0
230
-0.0000000000000002
  0
LINE
  5
4830
  8
0
  6
CONTINUOUS
 62
     3
 10
0.0000000000000183
 20
-68.5000000000000284
 30
0.0000000000000152
 11
59.5000000000000071
 21
-68.5000000000000142
 31
0.0000000000000152
210
-0.0000000000000002
220
1.0
230
-0.0000000000000002
  0
LINE
  5
4831
  8
0
  6
CONTINUOUS
 62
     3
 10
-57.1171444324796624
 20
-70.8828555675203944
 30
0.0000000000000157
 11
0.0000000000000086
 21
-70.8828555675203802
 31
0.0000000000000157
210
-0.0000000000000002
220
1.0
230
-0.0000000000000002
  0
LINE
  5
4832
  8
0
  6
CONTINUOUS
 62
     3
 10
0.0000000000000174
 20
-70.8828555675203802
 30
0.0000000000000157
 11
57.117144432479698
 21
-70.882855567520366
 31
0.0000000000000157
210
-0.0000000000000002
220
1.0
230
-0.0000000000000002
  0
LINE
  5
4833
  8
0
  6
CONTINUOUS
 62
     3
 10
-60.0
 20
-74.9999999999999858
 30
0.0000000000000167
 11
0.0000000000000095
 21
-74.9999999999999716
 31
0.0000000000000167
210
-0.0000000000000002
220
1.0
230
-0.0000000000000002
  0
LINE
  5
4834
  8
0
  6
CONTINUOUS
 62
     3
 10
0.0000000000000223
 20
-74.9999999999999716
 30
0.0000000000000167
 11
60.0000000000000284
 21
-74.9999999999999574
 31
0.0000000000000167
210
-0.0000000000000002
220
1.0
230
-0.0000000000000002
  0
LINE
  5
4835
  8
0
  6
CONTINUOUS
 62
     3
 10
-49.5000000000000071
 20
-77.0000000000000142
 30
0.0000000000000171
 11
0.00000000000001
 21
-77.0
 31
0.0000000000000171
210
-0.0000000000000002
220
1.0
230
-0.0000000000000002
  0
LINE
  5
4836
  8
0
  6
CONTINUOUS
 62
     3
 10
0.0000000000000257
 20
-77.0
 30
0.0000000000000171
 11
49.5000000000000213
 21
-76.9999999999999858
 31
0.0000000000000171
210
-0.0000000000000002
220
1.0
230
-0.0000000000000002
  0
LINE
  5
4837
  8
0
  6
CONTINUOUS
 62
     3
 10
-59.4999999999999503
 20
-57.0000000000000497
 30
0.0000000000000127
 11
0.0000000000000056
 21
-57.0000000000000213
 31
0.0000000000000127
210
-0.0000000000000002
220
1.0
230
-0.0000000000000002
  0
LINE
  5
4838
  8
0
  6
CONTINUOUS
 62
     3
 10
0.000000000000015
 20
-57.0000000000000213
 30
0.0000000000000127
 11
59.5000000000000071
 21
-57.0000000000000071
 31
0.0000000000000127
210
-0.0000000000000002
220
1.0
230
-0.0000000000000002
  0
ARC
  5
4839
  8
0
  6
CONTINUOUS
 62
     3
 10
55.6394515204002005
 20
-57.8000000000000824
 30
0.0
 40
0.8000000000000044
210
0.0
220
-0.0000000000000002
230
-1.0
 50
89.9999999999959357
 51
199.8552143693231073
  0
ARC
  5
483A
  8
0
  6
CONTINUOUS
 62
     3
 10
-55.6394515204002289
 20
-57.8000000000000398
 30
0.0
 40
0.8000000000000135
210
0.0
220
-0.0000000000000002
230
-1.0
 50
340.144785630676779
 51
90.0000000000040643
  0
LINE
  5
483B
  8
0
  6
CONTINUOUS
 62
     3
 10
54.8870084006468915
 20
-58.0717155710221107
 30
0.0000000000000129
 11
57.7500000000000497
 21
-65.9999999999999716
 31
0.0000000000000147
210
-0.0000000000000002
220
1.0
230
-0.0000000000000002
  0
LINE
  5
483C
  8
0
  6
CONTINUOUS
 62
     3
 10
-54.887008400646863
 20
-58.0717155710221533
 30
0.0000000000000129
 11
-57.7500000000000213
 21
-66.0
 31
0.0000000000000147
210
-0.0000000000000002
220
1.0
230
-0.0000000000000002
  0
LINE
  5
483D
  8
0
  6
CONTINUOUS
 62
     3
 10
57.7500000000000284
 20
-65.9999999999999858
 30
0.0000000000000147
 11
59.5000000000000213
 21
-67.5000000000000426
 31
0.000000000000015
210
-0.0000000000000002
220
1.0
230
-0.0000000000000002
  0
LINE
  5
483E
  8
0
  6
CONTINUOUS
 62
     3
 10
-57.75
 20
-66.0000000000000142
 30
0.0000000000000147
 11
-59.5
 21
-67.5000000000000711
 31
0.000000000000015
210
-0.0000000000000002
220
1.0
230
-0.0000000000000002
  0
LINE
  5
483F
  8
0
  6
CONTINUOUS
 62
     3
 10
59.5000000000000213
 20
-67.5000000000000426
 30
0.000000000000015
 11
59.5000000000000213
 21
-68.5000000000000142
 31
0.0000000000000152
210
-0.0000000000000002
220
1.0
230
-0.0000000000000002
  0
LINE
  5
4840
  8
0
  6
CONTINUOUS
 62
     3
 10
-59.5
 20
-67.5000000000000711
 30
0.000000000000015
 11
-59.5
 21
-68.5000000000000426
 31
0.0000000000000152
210
-0.0000000000000002
220
1.0
230
-0.0000000000000002
  0
LINE
  5
4841
  8
0
  6
CONTINUOUS
 62
     3
 10
-57.1171444324796624
 20
-70.8828555675203944
 30
0.0000000000000157
 11
-59.4999999999999929
 21
-68.5000000000000426
 31
0.0000000000000152
210
-0.0000000000000002
220
1.0
230
-0.0000000000000002
  0
LINE
  5
4842
  8
0
  6
CONTINUOUS
 62
     3
 10
57.117144432479698
 20
-70.882855567520366
 30
0.0000000000000157
 11
59.5000000000000213
 21
-68.5000000000000142
 31
0.0000000000000152
210
-0.0000000000000002
220
1.0
230
-0.0000000000000002
  0
LINE
  5
4843
  8
0
  6
CONTINUOUS
 62
     3
 10
57.117144432479698
 20
-70.882855567520366
 30
0.0000000000000157
 11
60.0000000000000213
 21
-74.9999999999999574
 31
0.0000000000000167
210
-0.0000000000000002
220
1.0
230
-0.0000000000000002
  0
LINE
  5
4844
  8
0
  6
CONTINUOUS
 62
     3
 10
-57.1171444324796624
 20
-70.8828555675203944
 30
0.0000000000000157
 11
-60.0
 21
-74.9999999999999858
 31
0.0000000000000167
210
-0.0000000000000002
220
1.0
230
-0.0000000000000002
  0
ARC
  5
4845
  8
0
  6
CONTINUOUS
 62
     3
 10
49.4999999999999503
 20
-71.9999999999999432
 30
0.0
 40
5.0000000000000862
210
0.0
220
-0.0000000000000002
230
-1.0
 50
270.0
 51
323.1301023541556106
  0
ARC
  5
4846
  8
0
  6
CONTINUOUS
 62
     3
 10
-49.4999999999999929
 20
-71.9999999999999147
 30
0.0
 40
5.0000000000000879
210
0.0
220
-0.0000000000000002
230
-1.0
 50
216.8698976458437926
 51
269.9999999999994884
  0
ARC
  5
4847
  8
0
  6
CONTINUOUS
 62
     3
 10
55.6090464708852323
 20
-51.4999999999998721
 30
0.0
 40
1.4999999999999469
210
0.0
220
-0.0000000000000002
230
-1.0
 50
25.8941133784704505
 51
89.9999999999999858
  0
ARC
  5
4848
  8
0
  6
CONTINUOUS
 62
     3
 10
-55.6090464708852608
 20
-51.4999999999998366
 30
0.0
 40
1.49999999999995
210
0.0
220
-0.0000000000000002
230
-1.0
 50
89.9999999999999858
 51
154.1058866215294927
  0
LINE
  5
4849
  8
0
  6
CONTINUOUS
 62
     3
 10
56.958450448327568
 20
-50.8449359530069671
 30
0.0000000000000113
 11
59.0984106065128785
 21
-55.2531625413520828
 31
0.0000000000000123
210
-0.0000000000000002
220
1.0
230
-0.0000000000000002
  0
LINE
  5
484A
  8
0
  6
CONTINUOUS
 62
     3
 10
-56.9584504483275325
 20
-50.8449359530070097
 30
0.0000000000000113
 11
-59.0984106065128501
 21
-55.2531625413521184
 31
0.0000000000000123
210
-0.0000000000000002
220
1.0
230
-0.0000000000000002
  0
ARC
  5
484B
  8
0
  6
CONTINUOUS
 62
     3
 10
55.4999999999992824
 20
-57.0000000000002913
 30
0.0
 40
4.0000000000007176
210
0.0
220
-0.0000000000000002
230
-1.0
 50
0.0000000000034477
 51
25.8941133784722588
  0
ARC
  5
484C
  8
0
  6
CONTINUOUS
 62
     3
 10
-55.499999999998991
 20
-57.0000000000003197
 30
0.0
 40
4.0000000000010383
210
0.0
220
-0.0000000000000002
230
-1.0
 50
154.1058866215288106
 51
179.9999999999955094
  0
LINE
  5
484D
  8
0
  6
VERDECKT
 62
     1
 10
59.332018301786853
 20
56.2036300463038572
 30
-0.0000000000000125
 11
-59.4734396580233877
 21
56.2036300463038287
 31
-0.0000000000000125
210
-0.0000000000000002
220
1.0
230
-0.0000000000000002
  0
LINE
  5
484E
  8
0
  6
VERDECKT
 62
     1
 10
-91.8207106781183739
 20
67.9999999999997726
 30
-0.0000000000000151
 11
-91.8207106781183739
 21
65.9999999999997726
 31
-0.0000000000000147
210
-0.0000000000000002
220
1.0
230
-0.0000000000000002
  0
LINE
  5
484F
  8
0
  6
VERDECKT
 62
     1
 10
-93.0707106781183739
 20
69.2499999999997868
 30
-0.0000000000000154
 11
-95.0707106781183882
 21
69.2499999999997726
 31
-0.0000000000000154
210
-0.0000000000000002
220
1.0
230
-0.0000000000000002
  0
LINE
  5
4850
  8
0
  6
VERDECKT
 62
     1
 10
59.3320183017868317
 20
56.2036300463038572
 30
-0.0000000000000125
 11
60.9292893218817611
 21
54.9999999999997868
 31
-0.0000000000000122
210
-0.0000000000000002
220
1.0
230
-0.0000000000000002
  0
LINE
  5
4851
  8
0
  6
VERDECKT
 62
     1
 10
-59.4734396580233806
 20
56.2036300463038287
 30
-0.0000000000000125
 11
-61.0707106781183029
 21
54.9999999999997584
 31
-0.0000000000000122
210
-0.0000000000000002
220
1.0
230
-0.0000000000000002
  0
ARC
  5
4852
  8
0
  6
VERDECKT
 62
     1
 10
-70.2155470891185161
 20
63.9999999999999218
 30
0.0
 40
3.999999999999841
210
0.0
220
-0.0000000000000002
230
-1.0
 50
36.9999999999947917
 51
89.9999999999997868
  0
ARC
  5
4853
  8
0
  6
VERDECKT
 62
     1
 10
70.356968445355065
 20
63.9999999999999218
 30
0.0
 40
3.999999999999809
210
0.0
220
-0.0000000000000002
230
-1.0
 50
90.0000000000003979
 51
143.0000000000052864
  0
LINE
  5
4854
  8
0
  6
VERDECKT
 62
     1
 10
-59.4734396580233877
 20
56.2036300463038216
 30
-0.0000000000000125
 11
-67.1624264051658315
 21
66.4072600926077286
 31
-0.0000000000000147
210
-0.0000000000000002
220
1.0
230
-0.0000000000000002
  0
LINE
  5
4855
  8
0
  6
VERDECKT
 62
     1
 10
59.3320183017868388
 20
56.2036300463038501
 30
-0.0000000000000125
 11
67.0210050489292541
 21
66.4072600926077286
 31
-0.0000000000000147
210
-0.0000000000000002
220
1.0
230
-0.0000000000000002
  0
LINE
  5
4856
  8
0
  6
VERDECKT
 62
     1
 10
-95.0707106781188003
 20
149.999999999999801
 30
-0.0000000000000333
 11
-93.0707106781188145
 21
149.999999999999801
 31
-0.0000000000000333
210
-0.0000000000000002
220
1.0
230
-0.0000000000000002
  0
LINE
  5
4857
  8
0
  6
VERDECKT
 62
     1
 10
-95.0707106781187434
 20
141.999999999999801
 30
-0.0000000000000315
 11
-93.0707106781187292
 21
141.999999999999801
 31
-0.0000000000000315
210
-0.0000000000000002
220
1.0
230
-0.0000000000000002
  0
LINE
  5
4858
  8
0
  6
VERDECKT
 62
     1
 10
-49.207444214685033
 20
0.1492555785314809
 30
0.0
 11
49.207444214685033
 21
0.1492555785315088
 31
0.0
210
-0.0000000000000002
220
1.0
230
-0.0000000000000002
  0
ARC
  5
4859
  8
0
  6
VERDECKT
 62
     1
 10
48.9999999999963904
 20
8.1246890528023972
 30
0.0
 40
1.000000000003616
210
0.0
220
-0.0000000000000002
230
-1.0
 50
354.2894068625121236
 51
359.9999999999910187
  0
ARC
  5
485A
  8
0
  6
VERDECKT
 62
     1
 10
-48.9999999999963407
 20
8.1246890528024274
 30
0.0
 40
1.0000000000036731
210
0.0
220
-0.0000000000000002
230
-1.0
 50
180.0000000000090097
 51
185.7105931374875922
  0
LINE
  5
485B
  8
0
  6
VERDECKT
 62
     1
 10
-49.207444214685033
 20
0.1492555785314813
 30
0.0
 11
-49.9950371902099988
 21
8.0251853337812413
 31
-0.0000000000000018
210
-0.0000000000000002
220
1.0
230
-0.0000000000000002
  0
LINE
  5
485C
  8
0
  6
VERDECKT
 62
     1
 10
49.207444214685033
 20
0.1492555785315094
 30
0.0
 11
49.9950371902099988
 21
8.0251853337812697
 31
-0.0000000000000018
210
-0.0000000000000002
220
1.0
230
-0.0000000000000002
  0
LINE
  5
485D
  8
0
  6
VERDECKT
 62
     1
 10
50.0
 20
40.0000000000000426
 30
-0.0000000000000089
 11
50.0000000000000071
 21
8.124689052802271
 31
-0.0000000000000018
210
-0.0000000000000002
220
1.0
230
-0.0000000000000002
  0
LINE
  5
485E
  8
0
  6
VERDECKT
 62
     1
 10
-50.0000000000000213
 20
40.0000000000000071
 30
-0.0000000000000089
 11
-50.0000000000000071
 21
8.1246890528022426
 31
-0.0000000000000018
210
-0.0000000000000002
220
1.0
230
-0.0000000000000002
  0
ARC
  5
485F
  8
0
  6
VERDECKT
 62
     1
 10
54.0000000000000426
 20
60.0
 30
0.0
 40
6.4999999999999929
210
0.0
220
-0.0000000000000002
230
-1.0
 50
329.9796896468806722
 51
359.9999999999998863
  0
ARC
  5
4860
  8
0
  6
VERDECKT
 62
     1
 10
-54.0000000000000213
 20
60.0000000000000213
 30
0.0
 40
6.4999999999999734
210
0.0
220
-0.0000000000000002
230
-1.0
 50
179.999999999999801
 51
210.0203103531189868
  0
LINE
  5
4861
  8
0
  6
VERDECKT
 62
     1
 10
-58.6179753299169377
 20
54.9999999999997584
 30
-0.0000000000000122
 11
-59.6280127027125175
 21
56.74800476351718
 31
-0.0000000000000126
210
-0.0000000000000002
220
1.0
230
-0.0000000000000002
  0
LINE
  5
4862
  8
0
  6
VERDECKT
 62
     1
 10
58.6179753299169093
 20
54.999999999999801
 30
-0.0000000000000122
 11
59.6280127027124891
 21
56.7480047635172085
 31
-0.0000000000000126
210
-0.0000000000000002
220
1.0
230
-0.0000000000000002
  0
LINE
  5
4863
  8
0
  6
VERDECKT
 62
     1
 10
49.207444214685033
 20
0.1492555785315076
 30
0.0
 11
50.7000000000000171
 21
0.0000000000000092
 31
0.0
210
-0.0000000000000002
220
1.0
230
-0.0000000000000002
  0
LINE
  5
4864
  8
0
  6
VERDECKT
 62
     1
 10
-49.207444214685033
 20
0.1492555785314797
 30
0.0
 11
-50.7000000000000171
 21
-0.0000000000000195
 31
0.0
210
-0.0000000000000002
220
1.0
230
-0.0000000000000002
  0
ARC
  5
4865
  8
0
  6
VERDECKT
 62
     1
 10
61.5000000000001066
 20
39.9999999999999929
 30
0.0
 40
11.5000000000000799
210
0.0
220
-0.0000000000000002
230
-1.0
 50
149.9796896468808995
 51
179.999999999999801
  0
ARC
  5
4866
  8
0
  6
VERDECKT
 62
     1
 10
-61.5000000000000426
 20
40.0000000000000426
 30
0.0
 40
11.5000000000000302
210
0.0
220
-0.0000000000000002
230
-1.0
 50
360.0
 51
30.0203103531190187
  0
LINE
  5
4867
  8
0
  6
VERDECKT
 62
     1
 10
-51.5427467567394686
 20
45.7535300337772881
 30
-0.0000000000000102
 11
-58.3292405405480991
 21
57.4984652027055319
 31
-0.0000000000000128
210
-0.0000000000000002
220
1.0
230
-0.0000000000000002
  0
LINE
  5
4868
  8
0
  6
VERDECKT
 62
     1
 10
51.5427467567394615
 20
45.7535300337773165
 30
-0.0000000000000102
 11
58.3292405405480707
 21
57.4984652027055674
 31
-0.0000000000000128
210
-0.0000000000000002
220
1.0
230
-0.0000000000000002
  0
ARC
  5
4869
  8
0
  6
VERDECKT
 62
     1
 10
54.0000000000001634
 20
59.9999999999999929
 30
0.0
 40
4.9999999999998801
210
0.0
220
-0.0000000000000002
230
-1.0
 50
329.9796896468802743
 51
0.0000000000005839
  0
ARC
  5
486A
  8
0
  6
VERDECKT
 62
     1
 10
-54.0000000000000284
 20
60.0000000000000426
 30
0.0
 40
4.9999999999999654
210
0.0
220
-0.0000000000000002
230
-1.0
 50
179.9999999999996021
 51
210.0203103531192141
  0
LINE
  5
486B
  8
0
  6
VERDECKT
 62
     1
 10
58.9999999999999929
 20
70.0000000000000426
 30
-0.0000000000000155
 11
58.9999999999999929
 21
60.0000000000000711
 31
-0.0000000000000133
210
-0.0000000000000002
220
1.0
230
-0.0000000000000002
  0
LINE
  5
486C
  8
0
  6
VERDECKT
 62
     1
 10
-59.0000000000000284
 20
70.0000000000000142
 30
-0.0000000000000155
 11
-59.0000000000000284
 21
60.0000000000000284
 31
-0.0000000000000133
210
-0.0000000000000002
220
1.0
230
-0.0000000000000002
  0
LINE
  5
486D
  8
0
  6
VERDECKT
 62
     1
 10
60.5
 20
67.9999999999997016
 30
-0.0000000000000151
 11
60.5
 21
60.0000000000000497
 31
-0.0000000000000133
210
-0.0000000000000002
220
1.0
230
-0.0000000000000002
  0
LINE
  5
486E
  8
0
  6
VERDECKT
 62
     1
 10
-60.5000000000000426
 20
67.9999999999997442
 30
-0.0000000000000151
 11
-60.5000000000000426
 21
60.0
 31
-0.0000000000000133
210
-0.0000000000000002
220
1.0
230
-0.0000000000000002
  0
LINE
  5
486F
  8
0
  6
VERDECKT
 62
     1
 10
-51.8016575748095605
 20
-59.913226507357237
 30
0.0000000000000133
 11
-0.0016575748095074
 21
-59.9132265073572228
 31
0.0000000000000133
210
-0.0000000000000002
220
1.0
230
-0.0000000000000002
  0
LINE
  5
4870
  8
0
  6
VERDECKT
 62
     1
 10
-0.0016575748094951
 20
-59.9132265073572228
 30
0.0000000000000133
 11
51.798342425190512
 21
-59.9132265073572086
 31
0.0000000000000133
210
-0.0000000000000002
220
1.0
230
-0.0000000000000002
  0
LINE
  5
4871
  8
0
  6
VERDECKT
 62
     1
 10
47.4983424251904793
 20
-75.4439840251518063
 30
0.0000000000000168
 11
-0.0016575748094897
 21
-75.4439840251518206
 31
0.0000000000000168
210
-0.0000000000000002
220
1.0
230
-0.0000000000000002
  0
LINE
  5
4872
  8
0
  6
VERDECKT
 62
     1
 10
-0.0016575748095011
 20
-75.4439840251518206
 30
0.0000000000000168
 11
-47.5016575748094922
 21
-75.4439840251518348
 31
0.0000000000000168
210
-0.0000000000000002
220
1.0
230
-0.0000000000000002
  0
LINE
  5
4873
  8
0
  6
VERDECKT
 62
     1
 10
-56.5995849235806006
 20
-72.9999999999999574
 30
0.0000000000000162
 11
0.0000000000000091
 21
-72.9999999999999432
 31
0.0000000000000162
210
-0.0000000000000002
220
1.0
230
-0.0000000000000002
  0
LINE
  5
4874
  8
0
  6
VERDECKT
 62
     1
 10
0.0000000000000174
 20
-72.9999999999999432
 30
0.0000000000000162
 11
56.5995849235806432
 21
-72.9999999999999289
 31
0.0000000000000162
210
-0.0000000000000002
220
1.0
230
-0.0000000000000002
  0
ARC
  5
4875
  8
0
  6
VERDECKT
 62
     1
 10
55.6107040456947388
 20
-51.49322650735715
 30
0.0
 40
1.4999999999999689
210
0.0
220
-0.0000000000000002
230
-1.0
 50
95.4470566892314451
 51
165.0000000000017906
  0
ARC
  5
4876
  8
0
  6
VERDECKT
 62
     1
 10
-55.6073888960757401
 20
-51.4932265073571216
 30
0.0
 40
1.4999999999999509
210
0.0
220
-0.0000000000000002
230
-1.0
 50
14.9999999999977707
 51
84.5529433107638653
  0
LINE
  5
4877
  8
0
  6
VERDECKT
 62
     1
 10
-51.8016575748095178
 20
-59.913226507357237
 30
0.0000000000000133
 11
-54.1618153062611611
 21
-51.1049979397034306
 31
0.0000000000000113
210
-0.0000000000000002
220
1.0
230
-0.0000000000000002
  0
LINE
  5
4878
  8
0
  6
VERDECKT
 62
     1
 10
51.7983424251905333
 20
-59.9132265073572086
 30
0.0000000000000133
 11
54.1585001566421624
 21
-51.1049979397034022
 31
0.0000000000000113
210
-0.0000000000000002
220
1.0
230
-0.0000000000000002
  0
LINE
  5
4879
  8
0
  6
VERDECKT
 62
     1
 10
51.7983424251905333
 20
-59.9132265073572086
 30
0.0000000000000133
 11
51.7983424251905333
 21
-70.4932265073571926
 31
0.0000000000000157
210
-0.0000000000000002
220
1.0
230
-0.0000000000000002
  0
LINE
  5
487A
  8
0
  6
VERDECKT
 62
     1
 10
-51.801657574809532
 20
-59.913226507357237
 30
0.0000000000000133
 11
-51.801657574809532
 21
-70.4932265073572211
 31
0.0000000000000157
210
-0.0000000000000002
220
1.0
230
-0.0000000000000002
  0
ARC
  5
487B
  8
0
  6
VERDECKT
 62
     1
 10
46.8016575748094681
 20
-70.4932265073571642
 30
0.0
 40
5.0000000000000497
210
0.0
220
-0.0000000000000002
230
-1.0
 50
278.0478462473117816
 51
359.9999999999993179
  0
ARC
  5
487C
  8
0
  6
VERDECKT
 62
     1
 10
-46.7983424251904765
 20
-70.4932265073571358
 30
0.0
 40
5.0000000000000426
210
0.0
220
-0.0000000000000002
230
-1.0
 50
180.0000000000005969
 51
261.9521537526882184
  0
LINE
  5
487D
  8
0
  6
VERDECKT
 62
     1
 10
-47.5016575748094994
 20
-77.0000000000000142
 30
0.0000000000000171
 11
-47.5016575748094994
 21
-75.4439840251518348
 31
0.0000000000000168
210
-0.0000000000000002
220
1.0
230
-0.0000000000000002
  0
LINE
  5
487E
  8
0
  6
VERDECKT
 62
     1
 10
47.4983424251905006
 20
-76.9999999999999858
 30
0.0000000000000171
 11
47.4983424251905006
 21
-75.4439840251518063
 31
0.0000000000000168
210
-0.0000000000000002
220
1.0
230
-0.0000000000000002
  0
LINE
  5
487F
  8
0
  6
VERDECKT
 62
     1
 10
56.5995849235806077
 20
-72.9999999999999432
 30
0.0000000000000162
 11
58.0
 21
-74.9999999999999716
 31
0.0000000000000167
210
-0.0000000000000002
220
1.0
230
-0.0000000000000002
  0
LINE
  5
4880
  8
0
  6
VERDECKT
 62
     1
 10
-56.5995849235805721
 20
-72.9999999999999716
 30
0.0000000000000162
 11
-57.9999999999999716
 21
-75.0
 31
0.0000000000000167
210
-0.0000000000000002
220
1.0
230
-0.0000000000000002
  0
ARC
  5
4881
  8
0
  6
VERDECKT
 62
     1
 10
49.5000000000000924
 20
-72.0000000000000568
 30
0.0
 40
4.9999999999999121
210
0.0
220
-0.0000000000000002
230
-1.0
 50
323.130102354156179
 51
348.4630409671851226
  0
ARC
  5
4882
  8
0
  6
VERDECKT
 62
     1
 10
-49.5000000000001208
 20
-72.0000000000000142
 30
0.0
 40
4.9999999999999112
210
0.0
220
-0.0000000000000002
230
-1.0
 50
191.5369590328147922
 51
216.8698976458437073
  0
ENDBLK
  5
4884
  8
0
  0
BLOCK
  8
0
  2
A$CDDF17E2E
 70
     0
 10
0.0
 20
0.0
 30
0.0
  3
A$CDDF17E2E
  1

  0
ARC
  5
4888
  8
0
  6
CONTINUOUS
 62
     3
 10
-0.0000000000015765
 20
0.0707106781183597
 30
0.0
 40
122.5
 50
180.0000000000001137
 51
270.0
  0
LINE
  5
4889
  8
0
  6
CONTINUOUS
 62
     3
 10
91.7499999999987068
 20
-122.4292893218815976
 30
0.0000000000000142
 11
-0.0000000000015348
 21
-122.4292893218815976
 31
-0.0000000000000062
  0
LINE
  5
488A
  8
0
  6
CONTINUOUS
 62
     3
 10
-122.5000000000012932
 20
0.0707106781183882
 30
-0.0000000000000284
 11
-122.5000000000012932
 21
91.8207106781184024
 31
-0.0000000000000284
  0
LINE
  5
488B
  8
0
  6
CONTINUOUS
 62
     3
 10
94.9999999999993037
 20
-102.4292893218816971
 30
0.0000000000000284
 11
94.9999999999991758
 21
-122.4292893218816971
 31
0.0000000000000284
  0
LINE
  5
488C
  8
0
  6
CONTINUOUS
 62
     3
 10
92.9999999999992468
 20
-122.4292893218816971
 30
0.0000000000000284
 11
92.9999999999993037
 21
-102.4292893218816971
 31
0.0000000000000284
  0
LINE
  5
488D
  8
0
  6
CONTINUOUS
 62
     3
 10
92.9999999999991758
 20
-122.4292893218816971
 30
0.0000000000000284
 11
94.9999999999991758
 21
-122.4292893218816971
 31
0.0000000000000289
  0
LINE
  5
488E
  8
0
  6
CONTINUOUS
 62
     3
 10
92.9999999999993037
 20
-102.4292893218816971
 30
0.0000000000000284
 11
92.9999999999993747
 21
92.9999999999997442
 31
0.0000000000000284
  0
LINE
  5
488F
  8
0
  6
CONTINUOUS
 62
     3
 10
-122.5000000000011937
 20
95.0707106781188145
 30
-0.0000000000000284
 11
-102.5000000000012932
 21
95.070710678118914
 31
-0.0000000000000284
  0
LINE
  5
4890
  8
0
  6
CONTINUOUS
 62
     3
 10
-122.5000000000012932
 20
95.0707106781188003
 30
-0.0000000000000284
 11
-122.5000000000012932
 21
93.0707106781188145
 31
-0.0000000000000284
  0
LINE
  5
4891
  8
0
  6
CONTINUOUS
 62
     3
 10
-102.5000000000012932
 20
93.0707106781189282
 30
-0.0000000000000284
 11
-122.5000000000012932
 21
93.0707106781188145
 31
-0.0000000000000284
  0
LINE
  5
4892
  8
0
  6
CONTINUOUS
 62
     3
 10
92.9292893218801481
 20
93.0707106781188855
 30
0.0000000000000284
 11
-102.5000000000012932
 21
93.0707106781189282
 31
-0.000000000000015
  0
LINE
  5
4893
  8
0
  6
CONTINUOUS
 62
     3
 10
92.9999999999987637
 20
-122.4292893218816971
 30
0.0000000000000142
 11
91.7499999999987637
 21
-122.4292893218816971
 31
0.0000000000000142
  0
LINE
  5
4894
  8
0
  6
CONTINUOUS
 62
     3
 10
92.9999999999993037
 20
92.9999999999997158
 30
0.0000000000000284
 11
94.9999999999993037
 21
92.9999999999997158
 31
0.0000000000000289
  0
LINE
  5
4895
  8
0
  6
CONTINUOUS
 62
     3
 10
91.7499999999987637
 20
91.8207106781183597
 30
0.0000000000000142
 11
92.9999999999988063
 21
91.8207106781183597
 31
0.0000000000000142
  0
LINE
  5
4896
  8
0
  6
CONTINUOUS
 62
     3
 10
94.9999999999993037
 20
-102.4292893218816971
 30
0.0000000000000284
 11
94.9999999999993747
 21
92.9999999999997442
 31
0.0000000000000284
  0
LINE
  5
4897
  8
0
  6
CONTINUOUS
 62
     3
 10
-122.5000000000012932
 20
93.0707106781184024
 30
-0.0000000000000284
 11
-122.5000000000012932
 21
91.8207106781184024
 31
-0.0000000000000284
  0
LINE
  5
4898
  8
0
  6
CONTINUOUS
 62
     3
 10
91.7499999999987637
 20
91.8207106781183597
 30
0.0000000000000142
 11
91.7499999999987637
 21
93.0707106781183739
 31
0.0000000000000142
  0
LINE
  5
4899
  8
0
  6
CONTINUOUS
 62
     3
 10
92.9292893218801481
 20
93.0707106781188855
 30
0.0000000000000284
 11
92.9292893218801481
 21
95.070710678118914
 31
0.0000000000000284
  0
LINE
  5
489A
  8
0
  6
CONTINUOUS
 62
     3
 10
92.9292893218801481
 20
95.070710678118914
 30
0.0000000000000284
 11
-102.5000000000012932
 21
95.0707106781189424
 31
-0.000000000000015
  0
CIRCLE
  5
489B
  8
0
  6
CONTINUOUS
 62
     3
 10
-0.0000000000006821
 20
0.0
 30
0.0
 40
49.2074442146850117
  0
CIRCLE
  5
489C
  8
0
  6
CONTINUOUS
 62
     3
 10
-0.0000000000006758
 20
0.0000000000000024
 30
0.0
 40
50.0
  0
CIRCLE
  5
489D
  8
0
  6
CONTINUOUS
 62
     3
 10
-0.000000000000671
 20
0.0000000000000043
 30
0.0
 40
59.0
  0
CIRCLE
  5
489E
  8
0
  6
CONTINUOUS
 62
     3
 10
-0.000000000000671
 20
0.0000000000000043
 30
0.0
 40
60.5
  0
CIRCLE
  5
489F
  8
0
  6
CONTINUOUS
 62
     3
 10
0.0000000000000401
 20
0.0016575748095129
 30
0.0
 40
47.5
  0
CIRCLE
  5
48A0
  8
0
  6
VERDECKT
 62
     1
 10
-0.0000000000014654
 20
0.0707106781182603
 30
0.0
 40
59.402728979905099
  0
CIRCLE
  5
48A1
  8
0
  6
VERDECKT
 62
     1
 10
-0.0000000000014657
 20
0.0707106781182603
 30
0.0
 40
61.0000000000000284
  0
LINE
  5
48A2
  8
0
  6
VERDECKT
 62
     1
 10
92.9999999999987637
 20
91.8207106781183597
 30
0.0000000000000142
 11
94.9999999999987637
 21
91.8207106781183597
 31
0.0000000000000147
  0
LINE
  5
48A3
  8
0
  6
VERDECKT
 62
     1
 10
91.7499999999987637
 20
93.0707106781183597
 30
0.0000000000000142
 11
91.7499999999987637
 21
95.0707106781183455
 31
0.0000000000000142
  0
LINE
  5
48A4
  8
0
  6
VERDECKT
 62
     1
 10
94.9999999999991189
 20
-106.4292893218816971
 30
0.0000000000000284
 11
92.9999999999990621
 21
-106.4292893218816971
 31
0.000000000000028
  0
LINE
  5
48A5
  8
0
  6
VERDECKT
 62
     1
 10
94.9999999999991189
 20
-98.4292893218816971
 30
0.0000000000000284
 11
92.9999999999991047
 21
-98.4292893218816971
 31
0.000000000000028
  0
LINE
  5
48A6
  8
0
  6
VERDECKT
 62
     1
 10
-98.5000000000013927
 20
95.0707106781187576
 30
-0.0000000000000284
 11
-98.5000000000013927
 21
93.0707106781187434
 31
-0.0000000000000284
  0
LINE
  5
48A7
  8
0
  6
VERDECKT
 62
     1
 10
-106.5000000000014069
 20
95.0707106781187576
 30
-0.0000000000000284
 11
-106.5000000000014069
 21
93.0707106781187434
 31
-0.0000000000000284
  0
CIRCLE
  5
48A8
  8
0
  6
VERDECKT
 62
     1
 10
-0.0000000000006758
 20
0.0000000000000024
 30
0.0
 40
51.4999999999999929
  0
CIRCLE
  5
48A9
  8
0
  6
VERDECKT
 62
     1
 10
-0.0000000000006821
 20
0.0
 30
0.0
 40
50.7000000000000028
  0
CIRCLE
  5
48AA
  8
0
  6
VERDECKT
 62
     1
 10
0.0000000000000435
 20
0.0016575748095139
 30
0.0
 40
51.8000000000000114
  0
CIRCLE
  5
48AB
  8
0
  6
VERDECKT
 62
     1
 10
-0.0000000000000147
 20
0.0000000000000022
 30
0.0
 40
57.75
  0
CIRCLE
  5
48AC
  8
0
  6
VERDECKT
 62
     1
 10
-0.0000000000000157
 20
0.0000000000000019
 30
0.0
 40
57.1171444324796695
  0
CIRCLE
  5
48AD
  8
0
  6
VERDECKT
 62
     1
 10
-0.0000000000000167
 20
0.0000000000000016
 30
0.0
 40
60.0
  0
CIRCLE
  5
48AE
  8
0
  6
VERDECKT
 62
     1
 10
-0.0000000000000167
 20
0.0000000000000016
 30
0.0
 40
58.0
  0
CIRCLE
  5
48AF
  8
0
  6
VERDECKT
 62
     1
 10
-0.0000000000000162
 20
0.0000000000000017
 30
0.0
 40
56.5995849235806077
  0
CIRCLE
  5
48B0
  8
0
  6
VERDECKT
 62
     1
 10
-0.0000000000000162
 20
0.0000000000000017
 30
0.0
 40
54.3989794855663717
  0
CIRCLE
  5
48B1
  8
0
  6
VERDECKT
 62
     1
 10
-0.0000000000000127
 20
0.0000000000000027
 30
0.0
 40
59.5
  0
CIRCLE
  5
48B2
  8
0
  6
VERDECKT
 62
     1
 10
-0.0000000000000128
 20
0.0000000000000027
 30
0.0
 40
54.8394515204001891
  0
ENDBLK
  5
48B4
  8
0
  0
ENDSEC
  0
SECTION
  2
ENTITIES
  0
TEXT
  5
3D7
  8
VOLL
 10
78.076754716981128
 20
31.025947764705851
 30
0.0
 40
1.8
  1

  7
GREEKS
  0
INSERT
  5
AD0
  8
ADSK_ASSOC_ENTITY_BACKUPS
  2
*S0
 10
0.0
 20
0.0
 30
0.0
  0
INSERT
  5
47FF
  8
STEMPEL
  2
A$C637A6FE1
 10
0.0
 20
0.0
 30
0.0
  0
INSERT
  5
4885
  8
STEMPEL
  2
A$C6E2A1973
 10
240.0707106781171944
 20
-0.0000000000009948
 30
0.0
  0
INSERT
  5
48B5
  8
STEMPEL
  2
A$CDDF17E2E
 10
0.0
 20
-222.0707106781188998
 30
0.0000000000000104
  0
VIEWPORT
  5
2829
 67
     1
  8
0
 10
285.1043952631305842
 20
184.2256909515664915
 30
0.0
 40
1265.1314535000840351
 41
675.8131556527341672
 68
     1
 69
     1
1001
ACAD
1000
MVIEW
1002
{
1070
    16
1010
0.0
1020
0.0
1030
0.0
1010
0.0
1020
0.0
1030
1.0
1040
0.0
1040
675.8131556527341672
1040
285.1043952631305842
1040
184.2256909515664915
1040
50.0
1040
0.0
1040
0.0
1070
     0
1070
  1500
1070
     1
1070
     1
1070
     0
1070
     0
1070
     0
1070
     0
1040
0.0
1040
0.0
1040
0.0
1040
10.0
1040
10.0
1040
10.0
1040
10.0
1070
     0
1002
{
1002
}
1002
}
  0
ENDSEC
  0
EOF
