  0
SECTION
  2
HEADER
  9
$ACADVER
  1
AC1009
  9
$INSBASE
 10
0.0
 20
0.0
 30
0.0
  9
$EXTMIN
 10
-122.5
 20
-372.5
 30
-0.0000000000000857
  9
$EXTMAX
 10
372.5
 20
365.9999999999997726
 30
0.0000000000000204
  9
$LIMMIN
 10
0.0
 20
0.0
  9
$LIMMAX
 10
419.9999999999998863
 20
594.0
  9
$ORTHOMODE
 70
     1
  9
$REGENMODE
 70
     1
  9
$FILLMODE
 70
     1
  9
$QTEXTMODE
 70
     0
  9
$MIRRTEXT
 70
     1
  9
$DRAGMODE
 70
     2
  9
$LTSCALE
 40
10.0
  9
$OSMODE
 70
   511
  9
$ATTMODE
 70
     1
  9
$TEXTSIZE
 40
3.5
  9
$TRACEWID
 40
1.0
  9
$TEXTSTYLE
  7
STANDARD
  9
$CLAYER
  8
STEMPEL
  9
$CELTYPE
  6
BYLAYER
  9
$CECOLOR
 62
   256
  9
$DIMSCALE
 40
1.0
  9
$DIMASZ
 40
3.5
  9
$DIMEXO
 40
1.0
  9
$DIMDLI
 40
0.38
  9
$DIMRND
 40
0.0
  9
$DIMDLE
 40
0.0
  9
$DIMEXE
 40
1.0
  9
$DIMTP
 40
0.0
  9
$DIMTM
 40
0.000000001
  9
$DIMTXT
 40
3.5
  9
$DIMCEN
 40
0.09
  9
$DIMTSZ
 40
0.0
  9
$DIMTOL
 70
     0
  9
$DIMLIM
 70
     0
  9
$DIMTIH
 70
     0
  9
$DIMTOH
 70
     0
  9
$DIMSE1
 70
     0
  9
$DIMSE2
 70
     0
  9
$DIMTAD
 70
     1
  9
$DIMZIN
 70
     8
  9
$DIMBLK
  1

  9
$DIMASO
 70
     1
  9
$DIMSHO
 70
     0
  9
$DIMPOST
  1

  9
$DIMAPOST
  1

  9
$DIMALT
 70
     0
  9
$DIMALTD
 70
     2
  9
$DIMALTF
 40
25.3999999999999986
  9
$DIMLFAC
 40
2.0
  9
$DIMTOFL
 70
     1
  9
$DIMTVP
 40
0.0
  9
$DIMTIX
 70
     0
  9
$DIMSOXD
 70
     0
  9
$DIMSAH
 70
     0
  9
$DIMBLK1
  1

  9
$DIMBLK2
  1

  9
$DIMSTYLE
  2
LORO
  9
$DIMCLRD
 70
     0
  9
$DIMCLRE
 70
     0
  9
$DIMCLRT
 70
     1
  9
$DIMTFAC
 40
0.5
  9
$DIMGAP
 40
1.5
  9
$LUNITS
 70
     2
  9
$LUPREC
 70
     2
  9
$SKETCHINC
 40
1.0
  9
$FILLETRAD
 40
2.0
  9
$AUNITS
 70
     0
  9
$AUPREC
 70
     2
  9
$MENU
  1
ACAD
  9
$ELEVATION
 40
0.0
  9
$PELEVATION
 40
0.0
  9
$THICKNESS
 40
0.0
  9
$LIMCHECK
 70
     0
  9
$BLIPMODE
 70
     0
  9
$CHAMFERA
 40
0.0
  9
$CHAMFERB
 40
0.0
  9
$SKPOLY
 70
     0
  9
$TDCREATE
 40
2455397.867048610933125
  9
$TDUPDATE
 40
2460592.3105439809150994
  9
$TDINDWG
 40
0.9133735301
  9
$TDUSRTIMER
 40
0.9133735301
  9
$USRTIMER
 70
     1
  9
$ANGBASE
 50
0.0
  9
$ANGDIR
 70
     0
  9
$PDMODE
 70
     0
  9
$PDSIZE
 40
0.0
  9
$PLINEWID
 40
0.0
  9
$COORDS
 70
     1
  9
$SPLFRAME
 70
     0
  9
$SPLINETYPE
 70
     6
  9
$SPLINESEGS
 70
     8
  9
$ATTDIA
 70
     1
  9
$ATTREQ
 70
     1
  9
$HANDLING
 70
     1
  9
$HANDSEED
  5
4DD7
  9
$SURFTAB1
 70
     6
  9
$SURFTAB2
 70
     6
  9
$SURFTYPE
 70
     6
  9
$SURFU
 70
     6
  9
$SURFV
 70
     6
  9
$UCSNAME
  2

  9
$UCSORG
 10
0.0
 20
0.0
 30
0.0
  9
$UCSXDIR
 10
1.0
 20
0.0
 30
0.0
  9
$UCSYDIR
 10
0.0
 20
1.0
 30
0.0
  9
$PUCSNAME
  2

  9
$PUCSORG
 10
0.0
 20
0.0
 30
0.0
  9
$PUCSXDIR
 10
1.0
 20
0.0
 30
0.0
  9
$PUCSYDIR
 10
0.0
 20
1.0
 30
0.0
  9
$USERI1
 70
     0
  9
$USERI2
 70
     0
  9
$USERI3
 70
     0
  9
$USERI4
 70
     0
  9
$USERI5
 70
     0
  9
$USERR1
 40
0.0
  9
$USERR2
 40
0.0
  9
$USERR3
 40
0.0
  9
$USERR4
 40
0.0
  9
$USERR5
 40
0.0
  9
$WORLDVIEW
 70
     1
  9
$SHADEDGE
 70
     3
  9
$SHADEDIF
 70
    70
  9
$TILEMODE
 70
     1
  9
$MAXACTVP
 70
    16
  9
$PLIMCHECK
 70
     0
  9
$PEXTMIN
 10
1.0000000000000000E+20
 20
1.0000000000000000E+20
 30
1.0000000000000000E+20
  9
$PEXTMAX
 10
-1.0000000000000000E+20
 20
-1.0000000000000000E+20
 30
-1.0000000000000000E+20
  9
$PLIMMIN
 10
-0.25
 20
-0.2500000000000568
  9
$PLIMMAX
 10
593.75
 20
419.7499999999998863
  9
$UNITMODE
 70
     0
  9
$VISRETAIN
 70
     0
  9
$PLINEGEN
 70
     0
  9
$PSLTSCALE
 70
     0
  0
ENDSEC
  0
SECTION
  2
TABLES
  0
TABLE
  2
VPORT
 70
     1
  0
VPORT
  2
*ACTIVE
 70
     0
 10
0.0
 20
0.0
 11
1.0
 21
1.0
 12
125.0
 22
-125.0000000000000995
 13
0.0
 23
0.0
 14
1.0
 24
1.0
 15
10.0
 25
10.0
 16
0.0000000000003368
 26
0.0
 36
1516.6416665820308936
 17
0.0
 27
121.75
 37
-0.0000000000000304
 40
742.3067010309275702
 41
1.8847807394668961
 42
50.0
 43
0.0
 44
0.0
 50
0.0
 51
0.0
 71
     0
 72
  1500
 73
     1
 74
     0
 75
     0
 76
     0
 77
     0
 78
     0
  0
ENDTAB
  0
TABLE
  2
LTYPE
 70
     6
  0
LTYPE
  2
CONTINUOUS
 70
     0
  3
Solid line
 72
    65
 73
     0
 40
0.0
  0
LTYPE
  2
STRICHPUNKT
 70
     0
  3
__ . __ . __ . __ . __ . __ . __ . __ . __ . __
 72
    65
 73
     4
 40
1.0
 49
0.5
 49
-0.25
 49
0.0
 49
-0.25
  0
LTYPE
  2
VERDECKT
 70
     0
  3
Verdeckt __ __ __ __ __ __ __ __ __ __ __ __ __
 72
    65
 73
     2
 40
0.375
 49
0.25
 49
-0.125
  0
ENDTAB
  0
TABLE
  2
LAYER
 70
    18
  0
LAYER
  2
0
 70
     0
 62
     7
  6
CONTINUOUS
  0
LAYER
  2
VOLL
 70
     0
 62
     1
  6
CONTINUOUS
  0
LAYER
  2
STEMPEL
 70
     0
 62
     3
  6
CONTINUOUS
  0
LAYER
  2
ADSK_ASSOC_ENTITY_BACKUPS
 70
     1
 62
    -7
  6
CONTINUOUS
  0
ENDTAB
  0
TABLE
  2
STYLE
 70
     4
  0
STYLE
  2
STANDARD
 70
     0
 40
0.0
 41
0.8
 50
0.0
 71
     0
 42
3.5
  3
simplex.shx
  4

  0
STYLE
  2
GREEKS
 70
     0
 40
0.0
 41
0.8
 50
0.0
 71
     0
 42
2.5
  3
SIMPLEX.shx
  4

  0
ENDTAB
  0
TABLE
  2
VIEW
 70
     2
  0
ENDTAB
  0
TABLE
  2
UCS
 70
     0
  0
ENDTAB
  0
TABLE
  2
APPID
 70
    28
  0
APPID
  2
ACAD
 70
     0
  0
APPID
  2
ACAECLAYERSTANDARD
 70
     0
  0
APPID
  2
ACCMTRANSPARENCY
 70
     0
  0
APPID
  2
ACAD_NAV_VCDISPLAY
 70
     0
  0
APPID
  2
ACAD_PSEXT
 70
     0
  0
APPID
  2
ACAD_EXEMPT_FROM_CAD_STANDARDS
 70
     0
  0
APPID
  2
ACSYNERGY
 70
     0
  0
APPID
  2
SYNERGY_BODY_TBR_ID
 70
     0
  0
APPID
  2
ACAD_VIEW_EDGE_ID
 70
     0
  0
APPID
  2
ACSYNERGYSKETCH
 70
     0
  0
APPID
  2
ACAD_MODELDOC_XFORM
 70
     0
  0
APPID
  2
ACAD_MLEADERVER
 70
     0
  0
APPID
  2
ACADANNOMONITORALERTICONDI
 70
     0
  0
APPID
  2
ACAD_DSTYLE_DIMJAG
 70
     0
  0
APPID
  2
ACAD_DSTYLE_DIMTALN
 70
     0
  0
APPID
  2
ACAD_DSTYLE_DIMBREAK
 70
     0
  0
APPID
  2
ACAD_STEPID
 70
     0
  0
APPID
  2
ACAD_TC
 70
     0
  0
APPID
  2
ACDBDYNAMICBLOCKGUID
 70
     0
  0
APPID
  2
ACADANNOPO
 70
     0
  0
APPID
  2
PLOTTRANSPARENCY
 70
     0
  0
APPID
  2
ACADANNOAV
 70
     0
  0
APPID
  2
ACAD_DIMASSOC_CALC_DIMLFAC
 70
     0
  0
APPID
  2
ACAD_DIMASSOC_DIMLFAC
 70
     0
  0
APPID
  2
ACAD_DIMASSOC_OVERRIDDEN_D
 70
     0
  0
APPID
  2
ACAD_DSTYLE_DIMRADIAL_EXTENSION
 70
     0
  0
APPID
  2
ACADANNOTATIVE
 70
     0
  0
APPID
  2
AcDbAttr
 70
     0
  0
ENDTAB
  0
TABLE
  2
DIMSTYLE
 70
     2
  0
DIMSTYLE
  2
LORO
 70
     0
  3

  4

  5

  6

  7

 40
1.0
 41
3.5
 42
1.0
 43
0.38
 44
1.0
 45
0.0
 46
0.0
 47
0.0
 48
0.000000001
140
3.5
141
0.09
142
0.0
143
25.3999999999999986
144
2.0
145
0.0
146
0.5
147
1.5
 71
     0
 72
     0
 73
     0
 74
     0
 75
     0
 76
     0
 77
     1
 78
     8
170
     0
171
     2
172
     1
173
     0
174
     0
175
     0
176
     0
177
     0
178
     1
  0
ENDTAB
  0
ENDSEC
  0
SECTION
  2
BLOCKS
  0
BLOCK
  8
0
  2
$MODEL_SPACE
 70
     0
 10
0.0
 20
0.0
 30
0.0
  3
$MODEL_SPACE
  1

  0
ENDBLK
  5
38
  8
0
  0
BLOCK
 67
     1
  8
0
  2
$PAPER_SPACE
 70
     0
 10
0.0
 20
0.0
 30
0.0
  3
$PAPER_SPACE
  1

  0
ENDBLK
  5
36
 67
     1
  8
0
  0
BLOCK
  8
0
  2
*S0
 70
     1
 10
0.0
 20
0.0
 30
0.0
  3
*S0
  1

  0
ENDBLK
  5
ACE
  8
0
  0
BLOCK
  8
0
  2
A$C17CC5E5A
 70
     0
 10
0.0
 20
0.0
 30
0.0
  3
A$C17CC5E5A
  1

  0
CIRCLE
  5
4C37
  8
0
  6
CONTINUOUS
 62
     3
 10
-0.0000000000000447
 20
-0.0016575748095115
 30
0.0
 40
32.0
  0
LINE
  5
4C38
  8
0
  6
CONTINUOUS
 62
     3
 10
0.0000000000000738
 20
-122.5
 30
0.0
 11
91.7500000000000853
 21
-122.5
 31
0.0000000000000204
  0
LINE
  5
4C39
  8
0
  6
CONTINUOUS
 62
     3
 10
0.0000000000000454
 20
122.5
 30
0.0
 11
91.7500000000000711
 21
122.5
 31
0.0000000000000204
  0
ARC
  5
4C3A
  8
0
  6
CONTINUOUS
 62
     3
 10
0.0000000000000454
 20
0.0000000000000071
 30
0.0
 40
122.5
 50
90.0
 51
270.0
  0
LINE
  5
4C3B
  8
0
  6
CONTINUOUS
 62
     3
 10
93.0000000000000568
 20
102.5
 30
0.0
 11
93.0000000000000426
 21
122.5
 31
0.0
  0
LINE
  5
4C3C
  8
0
  6
CONTINUOUS
 62
     3
 10
95.0000000000000568
 20
122.5
 30
0.0
 11
95.0000000000000568
 21
102.5
 31
0.0
  0
LINE
  5
4C3D
  8
0
  6
CONTINUOUS
 62
     3
 10
95.0000000000000142
 20
122.5
 30
0.0
 11
93.0000000000000853
 21
122.5
 31
-0.0000000000000004
  0
LINE
  5
4C3E
  8
0
  6
CONTINUOUS
 62
     3
 10
95.0000000000000284
 20
-102.5
 30
0.0
 11
95.0000000000000284
 21
102.5
 31
0.0
  0
LINE
  5
4C3F
  8
0
  6
CONTINUOUS
 62
     3
 10
95.0000000000000568
 20
-102.5
 30
0.0
 11
95.0000000000000568
 21
-122.5
 31
0.0
  0
LINE
  5
4C40
  8
0
  6
CONTINUOUS
 62
     3
 10
93.0000000000000853
 20
-102.5
 30
0.0
 11
93.0000000000000853
 21
102.5
 31
0.0
  0
LINE
  5
4C41
  8
0
  6
CONTINUOUS
 62
     3
 10
93.0000000000000426
 20
-122.5
 30
0.0
 11
93.0000000000000568
 21
-102.5
 31
0.0
  0
LINE
  5
4C42
  8
0
  6
CONTINUOUS
 62
     3
 10
93.0000000000000711
 20
-122.5
 30
0.0
 11
95.0000000000000568
 21
-122.5
 31
0.0000000000000004
  0
LINE
  5
4C43
  8
0
  6
CONTINUOUS
 62
     3
 10
93.0000000000000142
 20
122.5
 30
0.0
 11
91.7500000000000142
 21
122.5
 31
0.0
  0
LINE
  5
4C44
  8
0
  6
CONTINUOUS
 62
     3
 10
91.7500000000000142
 20
-122.5
 30
0.0
 11
93.0000000000000142
 21
-122.5
 31
0.0
  0
CIRCLE
  5
4C45
  8
0
  6
CONTINUOUS
 62
     3
 10
0.0000000000000601
 20
-0.0000000000000284
 30
0.0
 40
50.2000000000000313
  0
CIRCLE
  5
4C46
  8
0
  6
CONTINUOUS
 62
     3
 10
0.0000000000000601
 20
-0.0000000000000284
 30
0.0
 40
49.0000000000000213
  0
CIRCLE
  5
4C47
  8
0
  6
CONTINUOUS
 62
     3
 10
0.0000000000000564
 20
-0.0000000000000284
 30
0.0
 40
39.5000000000000071
  0
CIRCLE
  5
4C48
  8
0
  6
CONTINUOUS
 62
     3
 10
0.0000000000000566
 20
-0.0000000000000284
 30
0.0
 40
35.3000000000000114
  0
CIRCLE
  5
4C49
  8
0
  6
CONTINUOUS
 62
     3
 10
0.0000000000000001
 20
0.0
 30
0.0
 40
34.3092665479436008
  0
CIRCLE
  5
4C4A
  8
0
  6
VERDECKT
 62
     1
 10
-0.0000000000000413
 20
-0.0016575748095106
 30
0.0
 40
37.0
  0
CIRCLE
  5
4C4B
  8
0
  6
VERDECKT
 62
     1
 10
-0.0000000000000411
 20
-0.0016575748095105
 30
0.0
 40
42.3000000000000114
  0
CIRCLE
  5
4C4C
  8
0
  6
VERDECKT
 62
     1
 10
-0.0000000000000423
 20
-0.0016575748095108
 30
0.0
 40
40.4999999999999929
  0
CIRCLE
  5
4C4D
  8
0
  6
VERDECKT
 62
     1
 10
-0.0000000000000429
 20
-0.001657574809511
 30
0.0
 40
41.900000000000027
  0
CIRCLE
  5
4C4E
  8
0
  6
VERDECKT
 62
     1
 10
-0.0000000000000444
 20
-0.0016575748095114
 30
0.0
 40
42.8000000000000114
  0
CIRCLE
  5
4C4F
  8
0
  6
VERDECKT
 62
     1
 10
-0.0000000000000444
 20
-0.0016575748095114
 30
0.0
 40
41.0
  0
CIRCLE
  5
4C50
  8
0
  6
VERDECKT
 62
     1
 10
-0.0000000000000412
 20
-0.0016575748095105
 30
0.0
 40
38.7140740033711026
  0
CIRCLE
  5
4C51
  8
0
  6
VERDECKT
 62
     1
 10
0.0000000000000303
 20
0.0000000000000355
 30
0.0
 40
49.75
  0
CIRCLE
  5
4C52
  8
0
  6
VERDECKT
 62
     1
 10
0.0000000000000308
 20
0.0000000000000355
 30
0.0
 40
51.6235332713359725
  0
LINE
  5
4C53
  8
0
  6
VERDECKT
 62
     1
 10
93.0000000000000426
 20
106.5000000000000995
 30
0.0
 11
95.0000000000000568
 21
106.5000000000000995
 31
0.0000000000000004
  0
LINE
  5
4C54
  8
0
  6
VERDECKT
 62
     1
 10
93.0000000000000426
 20
98.5000000000000853
 30
0.0
 11
95.0000000000000568
 21
98.5000000000000853
 31
0.0000000000000004
  0
LINE
  5
4C55
  8
0
  6
VERDECKT
 62
     1
 10
93.0000000000000142
 20
-98.4999999999999858
 30
0.0
 11
95.0000000000000142
 21
-98.4999999999999858
 31
0.0000000000000004
  0
LINE
  5
4C56
  8
0
  6
VERDECKT
 62
     1
 10
93.0000000000000142
 20
-106.5
 30
0.0
 11
95.0000000000000142
 21
-106.5
 31
0.0000000000000004
  0
CIRCLE
  5
4C57
  8
0
  6
VERDECKT
 62
     1
 10
0.0000000000000563
 20
-0.0000000000000284
 30
0.0
 40
40.4663561740293289
  0
CIRCLE
  5
4C58
  8
0
  6
VERDECKT
 62
     1
 10
0.0000000000000566
 20
-0.0000000000000284
 30
0.0
 40
36.5
  0
CIRCLE
  5
4C59
  8
0
  6
VERDECKT
 62
     1
 10
0.000000000000059
 20
-0.0000000000000284
 30
0.0
 40
40.7499999999999929
  0
CIRCLE
  5
4C5A
  8
0
  6
VERDECKT
 62
     1
 10
0.0000000000000594
 20
-0.0000000000000284
 30
0.0
 40
39.9347703342132974
  0
CIRCLE
  5
4C5B
  8
0
  6
VERDECKT
 62
     1
 10
0.0
 20
0.0
 30
0.0
 40
35.5
  0
ENDBLK
  5
4C5D
  8
0
  0
BLOCK
  8
0
  2
A$CED5DB3AF
 70
     0
 10
0.0
 20
0.0
 30
0.0
  3
A$CED5DB3AF
  1

  0
LINE
  5
4C61
  8
0
  6
CONTINUOUS
 62
     3
 10
-42.3000000000000327
 20
-57.0000000000001279
 30
0.0000000000000127
 11
42.2999999999999829
 21
-57.0000000000001279
 31
0.0000000000000127
210
0.0
220
1.0
230
-0.0000000000000002
  0
LINE
  5
4C62
  8
0
  6
CONTINUOUS
 62
     3
 10
-40.5000000000000284
 20
-62.4949548389092868
 30
0.0000000000000139
 11
40.4999999999999716
 21
-62.4949548389092868
 31
0.0000000000000139
210
0.0
220
1.0
230
-0.0000000000000002
  0
LINE
  5
4C63
  8
0
  6
CONTINUOUS
 62
     3
 10
-40.5000000000000284
 20
-63.6000000000001009
 30
0.0000000000000141
 11
40.4999999999999716
 21
-63.6000000000001009
 31
0.0000000000000141
210
0.0
220
1.0
230
-0.0000000000000002
  0
LINE
  5
4C64
  8
0
  6
CONTINUOUS
 62
     3
 10
-41.9000000000000625
 20
-65.0000000000001279
 30
0.0000000000000144
 11
41.8999999999999986
 21
-65.0000000000001279
 31
0.0000000000000144
210
0.0
220
1.0
230
-0.0000000000000002
  0
LINE
  5
4C65
  8
0
  6
CONTINUOUS
 62
     3
 10
-41.9000000000000625
 20
-66.0000000000001137
 30
0.0000000000000147
 11
41.8999999999999986
 21
-66.0000000000001137
 31
0.0000000000000147
210
0.0
220
1.0
230
-0.0000000000000002
  0
LINE
  5
4C66
  8
0
  6
CONTINUOUS
 62
     3
 10
-40.5000000000000711
 20
-67.4000000000001052
 30
0.000000000000015
 11
40.5000000000000213
 21
-67.4000000000001052
 31
0.000000000000015
210
0.0
220
1.0
230
-0.0000000000000002
  0
LINE
  5
4C67
  8
0
  6
CONTINUOUS
 62
     3
 10
-40.5000000000000711
 20
-68.0000000000001279
 30
0.0000000000000151
 11
40.5000000000000213
 21
-68.0000000000001279
 31
0.0000000000000151
210
0.0
220
1.0
230
-0.0000000000000002
  0
LINE
  5
4C68
  8
0
  6
CONTINUOUS
 62
     3
 10
-42.8000000000000327
 20
-72.0000000000001279
 30
0.000000000000016
 11
42.7999999999999687
 21
-72.0000000000001279
 31
0.000000000000016
210
0.0
220
1.0
230
-0.0000000000000002
  0
LINE
  5
4C69
  8
0
  6
CONTINUOUS
 62
     3
 10
-34.5000000000000284
 20
-74.5000000000001279
 30
0.0000000000000165
 11
34.4999999999999716
 21
-74.5000000000001279
 31
0.0000000000000165
210
0.0
220
1.0
230
-0.0000000000000002
  0
ARC
  5
4C6A
  8
0
  6
CONTINUOUS
 62
     3
 10
38.8970615154280708
 20
-53.0000000000001421
 30
0.0
 40
1.0000000000000271
210
0.0
220
-0.0000000000000002
230
-1.0
 50
29.4119136655303883
 51
89.9999999999992042
  0
ARC
  5
4C6B
  8
0
  6
CONTINUOUS
 62
     3
 10
-38.8970615154280068
 20
-53.0000000000001421
 30
0.0
 40
1.000000000000028
210
0.0
220
-0.0000000000000002
230
-1.0
 50
90.00000000000081
 51
150.5880863344696081
  0
LINE
  5
4C6C
  8
0
  6
CONTINUOUS
 62
     3
 10
38.897061515428021
 20
-52.0000000000000995
 30
0.0000000000000115
 11
-38.8970615154280779
 21
-52.0000000000000995
 31
0.0000000000000115
210
0.0
220
1.0
230
-0.0000000000000002
  0
LINE
  5
4C6D
  8
0
  6
CONTINUOUS
 62
     3
 10
39.7681732327772792
 20
-52.5089151031677801
 30
0.0000000000000117
 11
42.2999999999999901
 21
-57.0000000000001279
 31
0.0000000000000127
210
0.0
220
1.0
230
-0.0000000000000002
  0
LINE
  5
4C6E
  8
0
  6
CONTINUOUS
 62
     3
 10
-39.7681732327773432
 20
-52.5089151031677801
 30
0.0000000000000117
 11
-42.3000000000000398
 21
-57.0000000000001279
 31
0.0000000000000127
210
0.0
220
1.0
230
-0.0000000000000002
  0
ARC
  5
4C6F
  8
0
  6
CONTINUOUS
 62
     3
 10
39.214074003371131
 20
-57.5000000000000711
 30
0.0
 40
0.5
210
0.0
220
-0.0000000000000002
230
-1.0
 50
90.0000000000016058
 51
199.9999999999990052
  0
ARC
  5
4C70
  8
0
  6
CONTINUOUS
 62
     3
 10
-39.2140740033710671
 20
-57.5000000000000711
 30
0.0
 40
0.4999999999999987
210
0.0
220
-0.0000000000000002
230
-1.0
 50
339.9999999999998863
 51
89.9999999999983658
  0
LINE
  5
4C71
  8
0
  6
CONTINUOUS
 62
     3
 10
38.7442276929781002
 20
-57.6710100716628915
 30
0.0000000000000128
 11
40.4999999999999787
 21
-62.4949548389092868
 31
0.0000000000000139
210
0.0
220
1.0
230
-0.0000000000000002
  0
LINE
  5
4C72
  8
0
  6
CONTINUOUS
 62
     3
 10
-38.7442276929781713
 20
-57.6710100716628986
 30
0.0000000000000128
 11
-40.5000000000000284
 21
-62.4949548389092868
 31
0.0000000000000139
210
0.0
220
1.0
230
-0.0000000000000002
  0
LINE
  5
4C73
  8
0
  6
CONTINUOUS
 62
     3
 10
40.4999999999999716
 20
-62.4949548389092868
 30
0.0000000000000139
 11
40.4999999999999716
 21
-63.6000000000001009
 31
0.0000000000000141
210
0.0
220
1.0
230
-0.0000000000000002
  0
LINE
  5
4C74
  8
0
  6
CONTINUOUS
 62
     3
 10
-40.5000000000000284
 20
-62.4949548389092868
 30
0.0000000000000139
 11
-40.5000000000000284
 21
-63.6000000000001009
 31
0.0000000000000141
210
0.0
220
1.0
230
-0.0000000000000002
  0
LINE
  5
4C75
  8
0
  6
CONTINUOUS
 62
     3
 10
40.4999999999999716
 20
-63.6000000000001009
 30
0.0000000000000141
 11
41.8999999999999986
 21
-65.0000000000001279
 31
0.0000000000000144
210
0.0
220
1.0
230
-0.0000000000000002
  0
LINE
  5
4C76
  8
0
  6
CONTINUOUS
 62
     3
 10
-40.5000000000000284
 20
-63.6000000000001009
 30
0.0000000000000141
 11
-41.9000000000000625
 21
-65.0000000000001279
 31
0.0000000000000144
210
0.0
220
1.0
230
-0.0000000000000002
  0
LINE
  5
4C77
  8
0
  6
CONTINUOUS
 62
     3
 10
41.8999999999999986
 20
-65.0000000000001279
 30
0.0000000000000144
 11
41.8999999999999986
 21
-66.0000000000001137
 31
0.0000000000000147
210
0.0
220
1.0
230
-0.0000000000000002
  0
LINE
  5
4C78
  8
0
  6
CONTINUOUS
 62
     3
 10
-41.9000000000000625
 20
-65.0000000000001279
 30
0.0000000000000144
 11
-41.9000000000000625
 21
-66.0000000000001137
 31
0.0000000000000147
210
0.0
220
1.0
230
-0.0000000000000002
  0
LINE
  5
4C79
  8
0
  6
CONTINUOUS
 62
     3
 10
-40.5000000000000782
 20
-67.4000000000001052
 30
0.000000000000015
 11
-41.9000000000000625
 21
-66.0000000000001137
 31
0.0000000000000147
210
0.0
220
1.0
230
-0.0000000000000002
  0
LINE
  5
4C7A
  8
0
  6
CONTINUOUS
 62
     3
 10
40.5000000000000284
 20
-67.4000000000001052
 30
0.000000000000015
 11
41.8999999999999986
 21
-66.0000000000001137
 31
0.0000000000000147
210
0.0
220
1.0
230
-0.0000000000000002
  0
LINE
  5
4C7B
  8
0
  6
CONTINUOUS
 62
     3
 10
40.5000000000000284
 20
-67.4000000000001052
 30
0.000000000000015
 11
40.5000000000000284
 21
-68.0000000000001279
 31
0.0000000000000151
210
0.0
220
1.0
230
-0.0000000000000002
  0
LINE
  5
4C7C
  8
0
  6
CONTINUOUS
 62
     3
 10
-40.5000000000000782
 20
-67.4000000000001052
 30
0.000000000000015
 11
-40.5000000000000782
 21
-68.0000000000001279
 31
0.0000000000000151
210
0.0
220
1.0
230
-0.0000000000000002
  0
LINE
  5
4C7D
  8
0
  6
CONTINUOUS
 62
     3
 10
40.5000000000000284
 20
-68.0000000000001279
 30
0.0000000000000151
 11
42.7999999999999829
 21
-72.0000000000001279
 31
0.000000000000016
210
0.0
220
1.0
230
-0.0000000000000002
  0
LINE
  5
4C7E
  8
0
  6
CONTINUOUS
 62
     3
 10
-40.5000000000000782
 20
-68.0000000000001279
 30
0.0000000000000151
 11
-42.8000000000000327
 21
-72.0000000000001279
 31
0.000000000000016
210
0.0
220
1.0
230
-0.0000000000000002
  0
ARC
  5
4C7F
  8
0
  6
CONTINUOUS
 62
     3
 10
34.5000000000000568
 20
-70.5000000000001705
 30
0.0
 40
3.9999999999999569
210
0.0
220
-0.0000000000000002
230
-1.0
 50
270.0
 51
337.9756871629587067
  0
ARC
  5
4C80
  8
0
  6
CONTINUOUS
 62
     3
 10
-34.5
 20
-70.5000000000001705
 30
0.0
 40
3.9999999999999538
210
0.0
220
-0.0000000000000002
230
-1.0
 50
202.0243128370416912
 51
270.0000000000003979
  0
LINE
  5
4C81
  8
0
  6
CONTINUOUS
 62
     3
 10
0.0000000000000142
 20
267.9999999999998863
 30
-0.0000000000000595
 11
91.7500000000000426
 21
267.9999999999998863
 31
-0.0000000000000595
210
0.0
220
1.0
230
-0.0000000000000002
  0
LINE
  5
4C82
  8
0
  6
CONTINUOUS
 62
     3
 10
-122.5
 20
267.9999999999997726
 30
-0.0000000000000595
 11
0.0
 21
267.9999999999998863
 31
-0.0000000000000595
210
0.0
220
1.0
230
-0.0000000000000002
  0
LINE
  5
4C83
  8
0
  6
CONTINUOUS
 62
     3
 10
94.9999999999999858
 20
365.9999999999997158
 30
-0.0000000000000813
 11
94.9999999999999858
 21
345.9999999999997158
 31
-0.0000000000000768
210
0.0
220
1.0
230
-0.0000000000000002
  0
LINE
  5
4C84
  8
0
  6
CONTINUOUS
 62
     3
 10
94.9999999999999858
 20
269.2499999999998863
 30
-0.0000000000000598
 11
94.9999999999999858
 21
345.9999999999997158
 31
-0.0000000000000768
210
0.0
220
1.0
230
-0.0000000000000002
  0
LINE
  5
4C85
  8
0
  6
CONTINUOUS
 62
     3
 10
94.9999999999999432
 20
365.9999999999997158
 30
-0.0000000000000813
 11
93.0
 21
365.9999999999997158
 31
-0.0000000000000813
210
0.0
220
1.0
230
-0.0000000000000002
  0
LINE
  5
4C86
  8
0
  6
CONTINUOUS
 62
     3
 10
92.9999999999999716
 20
345.9999999999997158
 30
-0.0000000000000768
 11
92.9999999999999716
 21
365.9999999999997158
 31
-0.0000000000000813
210
0.0
220
1.0
230
-0.0000000000000002
  0
LINE
  5
4C87
  8
0
  6
CONTINUOUS
 62
     3
 10
93.0
 20
269.2500000000002842
 30
-0.0000000000000598
 11
93.0
 21
345.9999999999997158
 31
-0.0000000000000768
210
0.0
220
1.0
230
-0.0000000000000002
  0
ARC
  5
4C88
  8
0
  6
CONTINUOUS
 62
     3
 10
-91.7499999999999716
 20
269.2499999999998863
 30
0.0
 40
3.2499999999999849
210
0.0
220
-0.0000000000000002
230
-1.0
 50
180.0
 51
270.0000000000006821
  0
ARC
  5
4C89
  8
0
  6
CONTINUOUS
 62
     3
 10
91.7499999999999432
 20
269.2500000000002274
 30
-0.0000000000000598
 40
1.250000000000014
 50
270.0
 51
359.9999999999980105
  0
LINE
  5
4C8A
  8
0
  6
CONTINUOUS
 62
     3
 10
91.75
 20
265.9999999999997726
 30
-0.0000000000000591
 11
-0.0000000000000284
 21
265.9999999999997726
 31
-0.0000000000000591
210
0.0
220
1.0
230
-0.0000000000000002
  0
LINE
  5
4C8B
  8
0
  6
CONTINUOUS
 62
     3
 10
-122.5
 20
265.9999999999997726
 30
-0.0000000000000591
 11
0.0
 21
265.9999999999998863
 31
-0.0000000000000591
210
0.0
220
1.0
230
-0.0000000000000002
  0
LINE
  5
4C8C
  8
0
  6
CONTINUOUS
 62
     3
 10
51.6235332713359583
 20
258.0
 30
-0.0000000000000573
 11
-51.623533271336008
 21
258.0
 31
-0.0000000000000573
210
0.0
220
1.0
230
-0.0000000000000002
  0
LINE
  5
4C8D
  8
0
  6
CONTINUOUS
 62
     3
 10
-122.5
 20
267.9999999999997726
 30
-0.0000000000000595
 11
-122.5
 21
265.9999999999997726
 31
-0.0000000000000591
210
0.0
220
1.0
230
-0.0000000000000002
  0
ARC
  5
4C8E
  8
0
  6
CONTINUOUS
 62
     3
 10
-55.9999999999998508
 20
264.0000000000002274
 30
0.0
 40
1.9999999999997899
210
0.0
220
-0.0000000000000002
230
-1.0
 50
20.4845424892741086
 51
90.0000000000036664
  0
ARC
  5
4C8F
  8
0
  6
CONTINUOUS
 62
     3
 10
55.9999999999999787
 20
264.0
 30
0.0
 40
1.9999999999998861
210
0.0
220
-0.0000000000000002
230
-1.0
 50
89.9999999999981668
 51
159.5154575107218022
  0
LINE
  5
4C90
  8
0
  6
CONTINUOUS
 62
     3
 10
-51.623533271336008
 20
258.0
 30
-0.0000000000000573
 11
-54.1264667286640986
 21
264.6999093378411203
 31
-0.0000000000000588
210
0.0
220
1.0
230
-0.0000000000000002
  0
LINE
  5
4C91
  8
0
  6
CONTINUOUS
 62
     3
 10
51.6235332713359369
 20
258.0
 30
-0.0000000000000573
 11
54.1264667286640133
 21
264.6999093378411203
 31
-0.0000000000000588
210
0.0
220
1.0
230
-0.0000000000000002
  0
LINE
  5
4C92
  8
0
  6
CONTINUOUS
 62
     3
 10
50.2000000000000171
 20
270.0000000000001137
 30
-0.00000000000006
 11
-50.2000000000000171
 21
270.0000000000001137
 31
-0.00000000000006
210
0.0
220
1.0
230
-0.0000000000000002
  0
LINE
  5
4C93
  8
0
  6
CONTINUOUS
 62
     3
 10
40.4663561740293432
 20
236.5000000000001137
 30
-0.0000000000000525
 11
-40.4663561740293289
 21
236.5000000000001137
 31
-0.0000000000000525
210
0.0
220
1.0
230
-0.0000000000000002
  0
ARC
  5
4C94
  8
0
  6
CONTINUOUS
 62
     3
 10
-40.1999999999994628
 20
262.0000000000003979
 30
0.0
 40
10.0000000000006395
210
0.0
220
-0.0000000000000002
230
-1.0
 50
203.5781784782020054
 51
209.1143386591436979
  0
ARC
  5
4C95
  8
0
  6
CONTINUOUS
 62
     3
 10
40.2000000000028308
 20
261.9999999999986926
 30
0.0
 40
9.9999999999968932
210
0.0
220
-0.0000000000000002
230
-1.0
 50
330.8856613408555063
 51
336.4218215217986199
  0
LINE
  5
4C96
  8
0
  6
CONTINUOUS
 62
     3
 10
-50.2000000000000313
 20
267.9999999999997726
 30
-0.0000000000000595
 11
-50.2000000000000313
 21
270.0000000000001137
 31
-0.00000000000006
210
0.0
220
1.0
230
-0.0000000000000002
  0
LINE
  5
4C97
  8
0
  6
CONTINUOUS
 62
     3
 10
50.2000000000000313
 20
268.0000000000001137
 30
-0.0000000000000595
 11
50.2000000000000313
 21
270.0000000000001137
 31
-0.00000000000006
210
0.0
220
1.0
230
-0.0000000000000002
  0
ARC
  5
4C98
  8
0
  6
CONTINUOUS
 62
     3
 10
-16.3074518232963186
 20
254.2861558683187866
 30
0.0
 40
29.9999999999999183
210
0.0
220
-0.0000000000000002
230
-1.0
 50
191.2917700051418137
 51
216.361070218876705
  0
ARC
  5
4C99
  8
0
  6
CONTINUOUS
 62
     3
 10
16.3074518232964216
 20
254.2861558683187013
 30
0.0
 40
29.9999999999998188
210
0.0
220
-0.0000000000000002
230
-1.0
 50
323.6389297811231245
 51
348.7082299948580726
  0
ARC
  5
4C9A
  8
0
  6
CONTINUOUS
 62
     3
 10
-75.1460194773267034
 20
242.5378386942691975
 30
0.0
 40
29.9999999999997797
210
0.0
220
-0.0000000000000002
230
-1.0
 50
11.2917700051424106
 51
29.1143386591440212
  0
ARC
  5
4C9B
  8
0
  6
CONTINUOUS
 62
     3
 10
75.1460194773263765
 20
242.5378386942693112
 30
0.0
 40
29.9999999999994209
210
0.0
220
-0.0000000000000002
230
-1.0
 50
150.8856613408559042
 51
168.7082299948575894
  0
LINE
  5
4C9C
  8
0
  6
CONTINUOUS
 62
     3
 10
40.75
 20
236.119431665331291
 30
-0.0000000000000524
 11
-40.7499999999999787
 21
236.119431665331291
 31
-0.0000000000000524
210
0.0
220
1.0
230
-0.0000000000000002
  0
LINE
  5
4C9D
  8
0
  6
CONTINUOUS
 62
     3
 10
35.5
 20
0.0000000000000309
 30
0.0
 11
-35.5
 21
0.0000000000000436
 31
0.0
210
0.0
220
1.0
230
-0.0000000000000002
  0
ARC
  5
4C9E
  8
0
  6
CONTINUOUS
 62
     3
 10
-41.4999999999999432
 20
230.0000000000001137
 30
0.0
 40
4.9999999999999361
210
0.0
220
-0.0000000000000002
230
-1.0
 50
359.9999999999997158
 51
47.2065004727362378
  0
ARC
  5
4C9F
  8
0
  6
CONTINUOUS
 62
     3
 10
41.4999999999999432
 20
230.0000000000001137
 30
0.0
 40
4.9999999999999476
210
0.0
220
-0.0000000000000002
230
-1.0
 50
132.7934995272634922
 51
180.0000000000003126
  0
LINE
  5
4CA0
  8
0
  6
CONTINUOUS
 62
     3
 10
-38.1032097258887319
 20
233.6690347277865101
 30
-0.0000000000000519
 11
-40.7499999999999787
 21
236.119431665331291
 31
-0.0000000000000524
210
0.0
220
1.0
230
-0.0000000000000002
  0
LINE
  5
4CA1
  8
0
  6
CONTINUOUS
 62
     3
 10
38.1032097258887319
 20
233.6690347277865101
 30
-0.0000000000000519
 11
40.7499999999999787
 21
236.119431665331291
 31
-0.0000000000000524
210
0.0
220
1.0
230
-0.0000000000000002
  0
LINE
  5
4CA2
  8
0
  6
CONTINUOUS
 62
     3
 10
40.3976700511860827
 20
236.5000000000001137
 30
-0.0000000000000525
 11
40.7500000000000071
 21
236.119431665331291
 31
-0.0000000000000524
210
0.0
220
1.0
230
-0.0000000000000002
  0
LINE
  5
4CA3
  8
0
  6
CONTINUOUS
 62
     3
 10
-40.3976700511860685
 20
236.5000000000001137
 30
-0.0000000000000525
 11
-40.7499999999999787
 21
236.119431665331291
 31
-0.0000000000000524
210
0.0
220
1.0
230
-0.0000000000000002
  0
ARC
  5
4CA4
  8
0
  6
CONTINUOUS
 62
     3
 10
-35.5000000000016414
 20
8.0622577482984497
 30
0.0
 40
0.9999999999983586
210
0.0
220
-0.0000000000000002
230
-1.0
 50
179.9999999999955094
 51
187.1250163489090141
  0
ARC
  5
4CA5
  8
0
  6
CONTINUOUS
 62
     3
 10
35.5000000000016129
 20
8.0622577482984639
 30
0.0
 40
0.9999999999983941
210
0.0
220
-0.0000000000000002
230
-1.0
 50
352.8749836510912132
 51
0.0000000000044642
  0
LINE
  5
4CA6
  8
0
  6
CONTINUOUS
 62
     3
 10
-35.5000000000000071
 20
0.0000000000000426
 30
0.0
 11
-36.492277876713672
 21
7.938223013709333
 31
-0.0000000000000018
210
0.0
220
1.0
230
-0.0000000000000002
  0
LINE
  5
4CA7
  8
0
  6
CONTINUOUS
 62
     3
 10
35.5000000000000071
 20
0.0000000000000302
 30
0.0
 11
36.492277876713672
 21
7.9382230137093179
 31
-0.0000000000000018
210
0.0
220
1.0
230
-0.0000000000000002
  0
LINE
  5
4CA8
  8
0
  6
CONTINUOUS
 62
     3
 10
-36.5
 20
8.0622577482985402
 30
-0.0000000000000018
 11
-36.4999999999999716
 21
230.0000000000001137
 31
-0.0000000000000511
210
0.0
220
1.0
230
-0.0000000000000002
  0
LINE
  5
4CA9
  8
0
  6
CONTINUOUS
 62
     3
 10
36.5
 20
8.0622577482985278
 30
-0.0000000000000018
 11
36.5000000000000426
 21
230.0000000000001137
 31
-0.0000000000000511
210
0.0
220
1.0
230
-0.0000000000000002
  0
LINE
  5
4CAA
  8
0
  6
VERDECKT
 62
     1
 10
-37.0000000000000284
 20
-58.0000000000001279
 30
0.0000000000000129
 11
36.9999999999999716
 21
-58.0000000000001279
 31
0.0000000000000129
210
0.0
220
1.0
230
-0.0000000000000002
  0
LINE
  5
4CAB
  8
0
  6
VERDECKT
 62
     1
 10
-32.0000000000000284
 20
-73.0000000000001279
 30
0.0000000000000162
 11
31.9999999999999716
 21
-73.0000000000001279
 31
0.0000000000000162
210
0.0
220
1.0
230
-0.0000000000000002
  0
LINE
  5
4CAC
  8
0
  6
VERDECKT
 62
     1
 10
36.9999999999999716
 20
-58.0000000000001279
 30
0.0000000000000129
 11
36.9999999999999716
 21
-68.0000000000001279
 31
0.0000000000000151
210
0.0
220
1.0
230
-0.0000000000000002
  0
LINE
  5
4CAD
  8
0
  6
VERDECKT
 62
     1
 10
-37.0000000000000284
 20
-58.0000000000001279
 30
0.0000000000000129
 11
-37.0000000000000284
 21
-68.0000000000001279
 31
0.0000000000000151
210
0.0
220
1.0
230
-0.0000000000000002
  0
LINE
  5
4CAE
  8
0
  6
VERDECKT
 62
     1
 10
-37.0000000000000284
 20
-58.0000000000001279
 30
0.0000000000000129
 11
-37.9122537624158724
 21
-52.8263518223331729
 31
0.0000000000000117
210
0.0
220
1.0
230
-0.0000000000000002
  0
LINE
  5
4CAF
  8
0
  6
VERDECKT
 62
     1
 10
36.9999999999999716
 20
-58.0000000000001279
 30
0.0000000000000129
 11
37.9122537624158227
 21
-52.8263518223331729
 31
0.0000000000000117
210
0.0
220
1.0
230
-0.0000000000000002
  0
ARC
  5
4CB0
  8
0
  6
VERDECKT
 62
     1
 10
38.8970615154280921
 20
-53.0000000000001066
 30
0.0
 40
1.0000000000000071
210
0.0
220
-0.0000000000000002
230
-1.0
 50
90.0000000000003979
 51
169.9999999999990052
  0
ARC
  5
4CB1
  8
0
  6
VERDECKT
 62
     1
 10
-38.8970615154280281
 20
-53.0000000000001066
 30
0.0
 40
1.0000000000000071
210
0.0
220
-0.0000000000000002
230
-1.0
 50
10.0000000000009397
 51
89.9999999999995879
  0
LINE
  5
4CB2
  8
0
  6
VERDECKT
 62
     1
 10
40.1756658041690287
 20
-70.4725600474013305
 30
0.0000000000000156
 11
40.9999999999999574
 21
-72.0000000000001279
 31
0.000000000000016
210
0.0
220
1.0
230
-0.0000000000000002
  0
LINE
  5
4CB3
  8
0
  6
VERDECKT
 62
     1
 10
-40.1756658041690784
 20
-70.4725600474013305
 30
0.0000000000000156
 11
-41.0000000000000284
 21
-72.0000000000001279
 31
0.000000000000016
210
0.0
220
1.0
230
-0.0000000000000002
  0
ARC
  5
4CB4
  8
0
  6
VERDECKT
 62
     1
 10
39.3836461788299275
 20
-70.9000000000001336
 30
0.0
 40
0.9000000000000328
210
0.0
220
-0.0000000000000002
230
-1.0
 50
28.3550060284115588
 51
89.9999999999986642
  0
ARC
  5
4CB5
  8
0
  6
VERDECKT
 62
     1
 10
39.3836461788299701
 20
-70.9000000000001336
 30
0.0
 40
0.9000000000000341
210
0.0
220
-0.0000000000000002
230
-1.0
 50
90.0000000000013358
 51
175.3175831377299119
  0
ARC
  5
4CB6
  8
0
  6
VERDECKT
 62
     1
 10
-39.3836461788299133
 20
-70.9000000000001336
 30
0.0
 40
0.9000000000000262
210
0.0
220
-0.0000000000000002
230
-1.0
 50
4.6824168622700792
 51
89.9999999999986358
  0
ARC
  5
4CB7
  8
0
  6
VERDECKT
 62
     1
 10
-39.3836461788298706
 20
-70.9000000000001336
 30
0.0
 40
0.9000000000000341
210
0.0
220
-0.0000000000000002
230
-1.0
 50
90.0000000000013358
 51
151.6449939715884057
  0
LINE
  5
4CB8
  8
0
  6
VERDECKT
 62
     1
 10
39.3836461788298919
 20
-70.0000000000001137
 30
0.0000000000000155
 11
-39.3836461788299488
 21
-70.0000000000001137
 31
0.0000000000000155
210
0.0
220
1.0
230
-0.0000000000000002
  0
ARC
  5
4CB9
  8
0
  6
VERDECKT
 62
     1
 10
34.5000000000001776
 20
-70.5000000000001847
 30
0.0
 40
3.999999999999837
210
0.0
220
-0.0000000000000002
230
-1.0
 50
337.9756871629576835
 51
355.3175831377308214
  0
ARC
  5
4CBA
  8
0
  6
VERDECKT
 62
     1
 10
-34.5000000000001208
 20
-70.5000000000001847
 30
0.0
 40
3.999999999999837
210
0.0
220
-0.0000000000000002
230
-1.0
 50
184.6824168622690934
 51
202.0243128370422028
  0
LINE
  5
4CBB
  8
0
  6
VERDECKT
 62
     1
 10
31.9999999999999716
 20
-73.0000000000001279
 30
0.0000000000000162
 11
31.9999999999999716
 21
-74.5000000000001279
 31
0.0000000000000165
210
0.0
220
1.0
230
-0.0000000000000002
  0
LINE
  5
4CBC
  8
0
  6
VERDECKT
 62
     1
 10
-32.0000000000000284
 20
-73.0000000000001279
 30
0.0000000000000162
 11
-32.0000000000000284
 21
-74.5000000000001279
 31
0.0000000000000165
210
0.0
220
1.0
230
-0.0000000000000002
  0
ARC
  5
4CBD
  8
0
  6
VERDECKT
 62
     1
 10
32.0000000000000284
 20
-68.0000000000001279
 30
0.0
 40
5.0
210
0.0
220
-0.0000000000000002
230
-1.0
 50
270.0
 51
0.0
  0
ARC
  5
4CBE
  8
0
  6
VERDECKT
 62
     1
 10
-31.9999999999999716
 20
-68.0000000000001279
 30
0.0
 40
5.0
210
0.0
220
-0.0000000000000002
230
-1.0
 50
180.0
 51
270.0
  0
LINE
  5
4CBF
  8
0
  6
VERDECKT
 62
     1
 10
49.7499999999999716
 20
258.6999093378411771
 30
-0.0000000000000574
 11
-49.7500000000000284
 21
258.6999093378411203
 31
-0.0000000000000574
210
0.0
220
1.0
230
-0.0000000000000002
  0
LINE
  5
4CC0
  8
0
  6
VERDECKT
 62
     1
 10
92.9999999999999716
 20
349.9999999999997726
 30
-0.0000000000000777
 11
94.9999999999999432
 21
349.9999999999997726
 31
-0.0000000000000777
210
0.0
220
1.0
230
-0.0000000000000002
  0
LINE
  5
4CC1
  8
0
  6
VERDECKT
 62
     1
 10
92.9999999999999432
 20
341.9999999999997726
 30
-0.0000000000000759
 11
94.9999999999999432
 21
341.9999999999997726
 31
-0.0000000000000759
210
0.0
220
1.0
230
-0.0000000000000002
  0
LINE
  5
4CC2
  8
0
  6
VERDECKT
 62
     1
 10
49.7499999999999787
 20
258.6999093378412908
 30
-0.0000000000000574
 11
51.6235332713359725
 21
258.0
 31
-0.0000000000000573
210
0.0
220
1.0
230
-0.0000000000000002
  0
LINE
  5
4CC3
  8
0
  6
VERDECKT
 62
     1
 10
-49.7500000000000426
 20
258.6999093378411203
 30
-0.0000000000000574
 11
-51.6235332713360293
 21
258.0
 31
-0.0000000000000573
210
0.0
220
1.0
230
-0.0000000000000002
  0
LINE
  5
4CC4
  8
0
  6
VERDECKT
 62
     1
 10
-49.75
 20
258.6999093378411203
 30
-0.0000000000000574
 11
-52.2529334573281332
 21
265.3998186756821838
 31
-0.0000000000000589
210
0.0
220
1.0
230
-0.0000000000000002
  0
LINE
  5
4CC5
  8
0
  6
VERDECKT
 62
     1
 10
49.7499999999999503
 20
258.6999093378411771
 30
-0.0000000000000574
 11
52.2529334573280693
 21
265.3998186756822975
 31
-0.0000000000000589
210
0.0
220
1.0
230
-0.0000000000000002
  0
ARC
  5
4CC6
  8
0
  6
VERDECKT
 62
     1
 10
-55.9999999999999432
 20
264.0
 30
0.0
 40
3.9999999999999392
210
0.0
220
-0.0000000000000002
230
-1.0
 50
20.4845424892782688
 51
90.0000000000005258
  0
ARC
  5
4CC7
  8
0
  6
VERDECKT
 62
     1
 10
56.0000000000000426
 20
263.9999999999997726
 30
0.0
 40
4.0
210
0.0
220
-0.0000000000000002
230
-1.0
 50
89.9999999999999147
 51
159.5154575107202106
  0
LINE
  5
4CC8
  8
0
  6
VERDECKT
 62
     1
 10
39.5000000000000071
 20
237.2114462347327901
 30
-0.0000000000000527
 11
-39.5
 21
237.2114462347327901
 31
-0.0000000000000527
210
0.0
220
1.0
230
-0.0000000000000002
  0
ARC
  5
4CC9
  8
0
  6
VERDECKT
 62
     1
 10
-40.2000000000000171
 20
262.0
 30
0.0
 40
10.0000000000000195
210
0.0
220
-0.0000000000000002
230
-1.0
 50
180.0
 51
203.5781784782018065
  0
ARC
  5
4CCA
  8
0
  6
VERDECKT
 62
     1
 10
40.20000000000028
 20
262.0
 30
0.0
 40
9.9999999999997513
210
0.0
220
-0.0000000000000002
230
-1.0
 50
336.4218215217975967
 51
0.0000000000003435
  0
LINE
  5
4CCB
  8
0
  6
VERDECKT
 62
     1
 10
-50.2000000000000313
 20
262.0
 30
-0.0000000000000582
 11
-50.2000000000000313
 21
267.9999999999997726
 31
-0.0000000000000595
210
0.0
220
1.0
230
-0.0000000000000002
  0
LINE
  5
4CCC
  8
0
  6
VERDECKT
 62
     1
 10
50.2000000000000313
 20
262.0
 30
-0.0000000000000582
 11
50.2000000000000313
 21
268.0000000000001137
 31
-0.0000000000000595
210
0.0
220
1.0
230
-0.0000000000000002
  0
LINE
  5
4CCD
  8
0
  6
VERDECKT
 62
     1
 10
-49.0000000000000213
 20
262.0
 30
-0.0000000000000582
 11
-49.0000000000000213
 21
270.0000000000001137
 31
-0.00000000000006
210
0.0
220
1.0
230
-0.0000000000000002
  0
LINE
  5
4CCE
  8
0
  6
VERDECKT
 62
     1
 10
49.0000000000000213
 20
262.0
 30
-0.0000000000000582
 11
49.0000000000000213
 21
270.0000000000001137
 31
-0.00000000000006
210
0.0
220
1.0
230
-0.0000000000000002
  0
ARC
  5
4CCF
  8
0
  6
VERDECKT
 62
     1
 10
-40.2000000000000384
 20
262.0
 30
0.0
 40
8.7999999999999812
210
0.0
220
-0.0000000000000002
230
-1.0
 50
180.0
 51
209.1143386591442095
  0
ARC
  5
4CD0
  8
0
  6
VERDECKT
 62
     1
 10
40.2000000000000384
 20
262.0
 30
0.0
 40
8.7999999999999812
210
0.0
220
-0.0000000000000002
230
-1.0
 50
330.8856613408557905
 51
0.0000000000000127
  0
ARC
  5
4CD1
  8
0
  6
VERDECKT
 62
     1
 10
-75.1460194773271155
 20
242.5378386942691122
 30
0.0
 40
31.2000000000001982
210
0.0
220
-0.0000000000000002
230
-1.0
 50
11.2917700051426397
 51
29.1143386591438613
  0
ARC
  5
4CD2
  8
0
  6
VERDECKT
 62
     1
 10
75.1460194773267744
 20
242.5378386942691975
 30
0.0
 40
31.1999999999998714
210
0.0
220
-0.0000000000000002
230
-1.0
 50
150.8856613408559895
 51
168.7082299948573905
  0
ARC
  5
4CD3
  8
0
  6
VERDECKT
 62
     1
 10
-16.3074518232958816
 20
254.286155868319014
 30
0.0
 40
28.8000000000003809
210
0.0
220
-0.0000000000000002
230
-1.0
 50
191.2917700051420127
 51
216.3610702188765913
  0
ARC
  5
4CD4
  8
0
  6
VERDECKT
 62
     1
 10
16.3074518232961303
 20
254.2861558683189003
 30
0.0
 40
28.8000000000001108
210
0.0
220
-0.0000000000000002
230
-1.0
 50
323.638929781123295
 51
348.7082299948580726
  0
LINE
  5
4CD5
  8
0
  6
VERDECKT
 62
     1
 10
39.5000000000000071
 20
237.2114462347327901
 30
-0.0000000000000527
 11
40.4663561740293289
 21
236.5000000000001137
 31
-0.0000000000000525
210
0.0
220
1.0
230
-0.0000000000000002
  0
LINE
  5
4CD6
  8
0
  6
VERDECKT
 62
     1
 10
-39.5
 20
237.2114462347327901
 30
-0.0000000000000527
 11
-40.4663561740293289
 21
236.5000000000001137
 31
-0.0000000000000525
210
0.0
220
1.0
230
-0.0000000000000002
  0
LINE
  5
4CD7
  8
0
  6
VERDECKT
 62
     1
 10
39.9347703342132974
 20
237.0000000000001137
 30
-0.0000000000000526
 11
-39.9347703342132974
 21
237.0000000000001137
 31
-0.0000000000000526
210
0.0
220
1.0
230
-0.0000000000000002
  0
LINE
  5
4CD8
  8
0
  6
VERDECKT
 62
     1
 10
34.3092665479436008
 20
0.1488416815070819
 30
0.0
 11
-34.3092665479436008
 21
0.1488416815070942
 31
0.0
210
0.0
220
1.0
230
-0.0000000000000002
  0
LINE
  5
4CD9
  8
0
  6
VERDECKT
 62
     1
 10
39.9347703342132974
 20
237.0
 30
-0.0000000000000526
 11
40.3976700511860827
 21
236.5000000000001137
 31
-0.0000000000000525
210
0.0
220
1.0
230
-0.0000000000000002
  0
LINE
  5
4CDA
  8
0
  6
VERDECKT
 62
     1
 10
-39.9347703342132618
 20
237.0000000000001137
 30
-0.0000000000000526
 11
-40.3976700511860685
 21
236.5000000000001137
 31
-0.0000000000000525
210
0.0
220
1.0
230
-0.0000000000000002
  0
LINE
  5
4CDB
  8
0
  6
VERDECKT
 62
     1
 10
-37.2879800601020435
 20
234.5496030624553043
 30
-0.0000000000000521
 11
-39.9347703342132974
 21
237.0
 31
-0.0000000000000526
210
0.0
220
1.0
230
-0.0000000000000002
  0
LINE
  5
4CDC
  8
0
  6
VERDECKT
 62
     1
 10
37.2879800601020293
 20
234.5496030624553043
 30
-0.0000000000000521
 11
39.9347703342132974
 21
237.0
 31
-0.0000000000000526
210
0.0
220
1.0
230
-0.0000000000000002
  0
ARC
  5
4CDD
  8
0
  6
VERDECKT
 62
     1
 10
-41.4999999999999503
 20
230.0000000000001137
 30
0.0
 40
6.1999999999999451
210
0.0
220
-0.0000000000000002
230
-1.0
 50
359.9999999999997158
 51
47.206500472736252
  0
ARC
  5
4CDE
  8
0
  6
VERDECKT
 62
     1
 10
41.5000000000000782
 20
230.0
 30
0.0
 40
6.200000000000081
210
0.0
220
-0.0000000000000002
230
-1.0
 50
132.7934995272638901
 51
179.9999999999996874
  0
ARC
  5
4CDF
  8
0
  6
VERDECKT
 62
     1
 10
-34.3000000000016598
 20
8.1369670462567605
 30
0.0
 40
0.9999999999983444
210
0.0
220
-0.0000000000000002
230
-1.0
 50
179.9999999999955094
 51
187.1250163489090141
  0
ARC
  5
4CE0
  8
0
  6
VERDECKT
 62
     1
 10
34.300000000001603
 20
8.1369670462567711
 30
0.0
 40
0.9999999999984012
210
0.0
220
-0.0000000000000002
230
-1.0
 50
352.8749836510912132
 51
0.0000000000045927
  0
LINE
  5
4CE1
  8
0
  6
VERDECKT
 62
     1
 10
-35.3000000000000114
 20
8.1369670462568546
 30
-0.0000000000000018
 11
-35.2999999999999687
 21
230.0000000000001137
 31
-0.0000000000000511
210
0.0
220
1.0
230
-0.0000000000000002
  0
LINE
  5
4CE2
  8
0
  6
VERDECKT
 62
     1
 10
35.3000000000000114
 20
8.1369670462568386
 30
-0.0000000000000018
 11
35.3000000000000398
 21
230.0000000000001137
 31
-0.0000000000000511
210
0.0
220
1.0
230
-0.0000000000000002
  0
LINE
  5
4CE3
  8
0
  6
VERDECKT
 62
     1
 10
-34.3092665479436008
 20
0.1488416815070948
 30
0.0
 11
-35.2922778767136691
 21
8.0129323116676421
 31
-0.0000000000000018
210
0.0
220
1.0
230
-0.0000000000000002
  0
LINE
  5
4CE4
  8
0
  6
VERDECKT
 62
     1
 10
34.3092665479436008
 20
0.1488416815070819
 30
0.0
 11
35.2922778767136833
 21
8.0129323116676314
 31
-0.0000000000000018
210
0.0
220
1.0
230
-0.0000000000000002
  0
LINE
  5
4CE5
  8
0
  6
VERDECKT
 62
     1
 10
34.3092665479436008
 20
0.1488416815070821
 30
0.0
 11
35.5
 21
0.0000000000000315
 31
0.0
210
0.0
220
1.0
230
-0.0000000000000002
  0
LINE
  5
4CE6
  8
0
  6
VERDECKT
 62
     1
 10
-34.3092665479436008
 20
0.1488416815070944
 30
0.0
 11
-35.5
 21
0.0000000000000443
 31
0.0
210
0.0
220
1.0
230
-0.0000000000000002
  0
ENDBLK
  5
4CE8
  8
0
  0
BLOCK
  8
0
  2
A$C76025E4A
 70
     0
 10
0.0
 20
0.0
 30
0.0
  3
A$C76025E4A
  1

  0
LINE
  5
4CEC
  8
0
  6
CONTINUOUS
 62
     3
 10
-42.2983424251904907
 20
-57.0000000000001492
 30
0.0000000000000127
 11
0.0016575748095191
 21
-57.0000000000001421
 31
0.0000000000000127
210
-0.0000000000000002
220
1.0
230
-0.0000000000000002
  0
LINE
  5
4CED
  8
0
  6
CONTINUOUS
 62
     3
 10
0.0016575748095288
 20
-57.0000000000001421
 30
0.0000000000000127
 11
42.301657574809532
 21
-57.0000000000001279
 31
0.0000000000000127
210
-0.0000000000000002
220
1.0
230
-0.0000000000000002
  0
LINE
  5
4CEE
  8
0
  6
CONTINUOUS
 62
     3
 10
-40.4983424251904793
 20
-62.4949548389093223
 30
0.0000000000000139
 11
0.0016575748095203
 21
-62.4949548389093081
 31
0.0000000000000139
210
-0.0000000000000002
220
1.0
230
-0.0000000000000002
  0
LINE
  5
4CEF
  8
0
  6
CONTINUOUS
 62
     3
 10
0.0016575748095303
 20
-62.4949548389093081
 30
0.0000000000000139
 11
40.5016575748095278
 21
-62.494954838909301
 31
0.0000000000000139
210
-0.0000000000000002
220
1.0
230
-0.0000000000000002
  0
LINE
  5
4CF0
  8
0
  6
CONTINUOUS
 62
     3
 10
-40.4983424251904793
 20
-63.600000000000108
 30
0.0000000000000141
 11
0.0016575748095206
 21
-63.6000000000001009
 31
0.0000000000000141
210
-0.0000000000000002
220
1.0
230
-0.0000000000000002
  0
LINE
  5
4CF1
  8
0
  6
CONTINUOUS
 62
     3
 10
0.0016575748095306
 20
-63.6000000000001009
 30
0.0000000000000141
 11
40.5016575748095278
 21
-63.6000000000001009
 31
0.0000000000000141
210
-0.0000000000000002
220
1.0
230
-0.0000000000000002
  0
LINE
  5
4CF2
  8
0
  6
CONTINUOUS
 62
     3
 10
-41.8983424251905134
 20
-65.0000000000001563
 30
0.0000000000000144
 11
0.0016575748095209
 21
-65.0000000000001421
 31
0.0000000000000144
210
-0.0000000000000002
220
1.0
230
-0.0000000000000002
  0
LINE
  5
4CF3
  8
0
  6
CONTINUOUS
 62
     3
 10
0.0016575748095289
 20
-65.0000000000001421
 30
0.0000000000000144
 11
41.9016575748095619
 21
-65.0000000000001279
 31
0.0000000000000144
210
-0.0000000000000002
220
1.0
230
-0.0000000000000002
  0
LINE
  5
4CF4
  8
0
  6
CONTINUOUS
 62
     3
 10
-41.8983424251905134
 20
-66.0000000000001563
 30
0.0000000000000147
 11
0.0016575748095211
 21
-66.0000000000001421
 31
0.0000000000000147
210
-0.0000000000000002
220
1.0
230
-0.0000000000000002
  0
LINE
  5
4CF5
  8
0
  6
CONTINUOUS
 62
     3
 10
0.0016575748095292
 20
-66.0000000000001421
 30
0.0000000000000147
 11
41.9016575748095619
 21
-66.0000000000001137
 31
0.0000000000000147
210
-0.0000000000000002
220
1.0
230
-0.0000000000000002
  0
LINE
  5
4CF6
  8
0
  6
CONTINUOUS
 62
     3
 10
-40.4983424251905291
 20
-67.4000000000001336
 30
0.000000000000015
 11
0.0016575748095214
 21
-67.4000000000001194
 31
0.000000000000015
210
-0.0000000000000002
220
1.0
230
-0.0000000000000002
  0
LINE
  5
4CF7
  8
0
  6
CONTINUOUS
 62
     3
 10
0.0016575748095269
 20
-67.4000000000001194
 30
0.000000000000015
 11
40.5016575748095917
 21
-67.4000000000001052
 31
0.000000000000015
210
-0.0000000000000002
220
1.0
230
-0.0000000000000002
  0
LINE
  5
4CF8
  8
0
  6
CONTINUOUS
 62
     3
 10
-40.4983424251905291
 20
-68.0000000000001563
 30
0.0000000000000151
 11
0.0016575748095216
 21
-68.0000000000001421
 31
0.0000000000000151
210
-0.0000000000000002
220
1.0
230
-0.0000000000000002
  0
LINE
  5
4CF9
  8
0
  6
CONTINUOUS
 62
     3
 10
0.0016575748095271
 20
-68.0000000000001421
 30
0.0000000000000151
 11
40.5016575748095917
 21
-68.0000000000001279
 31
0.0000000000000151
210
-0.0000000000000002
220
1.0
230
-0.0000000000000002
  0
LINE
  5
4CFA
  8
0
  6
CONTINUOUS
 62
     3
 10
-42.7983424251904907
 20
-72.0000000000001563
 30
0.000000000000016
 11
0.0016575748095224
 21
-72.0000000000001421
 31
0.000000000000016
210
-0.0000000000000002
220
1.0
230
-0.0000000000000002
  0
LINE
  5
4CFB
  8
0
  6
CONTINUOUS
 62
     3
 10
0.0016575748095341
 20
-72.0000000000001421
 30
0.000000000000016
 11
42.8016575748095391
 21
-72.0000000000001279
 31
0.000000000000016
210
-0.0000000000000002
220
1.0
230
-0.0000000000000002
  0
LINE
  5
4CFC
  8
0
  6
CONTINUOUS
 62
     3
 10
-34.4983424251904793
 20
-74.5000000000001563
 30
0.0000000000000165
 11
0.001657574809523
 21
-74.5000000000001421
 31
0.0000000000000165
210
-0.0000000000000002
220
1.0
230
-0.0000000000000002
  0
LINE
  5
4CFD
  8
0
  6
CONTINUOUS
 62
     3
 10
0.0016575748095302
 20
-74.5000000000001421
 30
0.0000000000000165
 11
34.501657574809542
 21
-74.5000000000001279
 31
0.0000000000000165
210
-0.0000000000000002
220
1.0
230
-0.0000000000000002
  0
ARC
  5
4CFE
  8
0
  6
CONTINUOUS
 62
     3
 10
38.8954039406185217
 20
-53.0000000000001421
 30
0.0
 40
1.0000000000000271
210
0.0
220
-0.0000000000000002
230
-1.0
 50
29.4119136655303812
 51
89.9999999999992042
  0
ARC
  5
4CFF
  8
0
  6
CONTINUOUS
 62
     3
 10
-38.8987190902375701
 20
-53.0000000000001421
 30
0.0
 40
1.000000000000028
210
0.0
220
-0.0000000000000002
230
-1.0
 50
90.0000000000007958
 51
150.5880863344696081
  0
LINE
  5
4D00
  8
0
  6
CONTINUOUS
 62
     3
 10
38.8987190902375914
 20
-52.0000000000000995
 30
0.0000000000000115
 11
-38.8954039406185288
 21
-52.0000000000001208
 31
0.0000000000000115
210
-0.0000000000000002
220
1.0
230
-0.0000000000000002
  0
LINE
  5
4D01
  8
0
  6
CONTINUOUS
 62
     3
 10
39.7698308075868425
 20
-52.5089151031677801
 30
0.0000000000000117
 11
42.3016575748095534
 21
-57.0000000000001279
 31
0.0000000000000127
210
-0.0000000000000002
220
1.0
230
-0.0000000000000002
  0
LINE
  5
4D02
  8
0
  6
CONTINUOUS
 62
     3
 10
-39.766515657967787
 20
-52.5089151031678014
 30
0.0000000000000117
 11
-42.2983424251904907
 21
-57.0000000000001492
 31
0.0000000000000127
210
-0.0000000000000002
220
1.0
230
-0.0000000000000002
  0
ARC
  5
4D03
  8
0
  6
CONTINUOUS
 62
     3
 10
39.2124164285615819
 20
-57.5000000000000782
 30
0.0
 40
0.499999999999993
210
0.0
220
-0.0000000000000002
230
-1.0
 50
90.0000000000016058
 51
200.0
  0
ARC
  5
4D04
  8
0
  6
CONTINUOUS
 62
     3
 10
-39.2157315781806304
 20
-57.5000000000000711
 30
0.0
 40
0.4999999999999988
210
0.0
220
-0.0000000000000002
230
-1.0
 50
339.9999999999998863
 51
89.9999999999983373
  0
LINE
  5
4D05
  8
0
  6
CONTINUOUS
 62
     3
 10
38.7458852677876706
 20
-57.6710100716628986
 30
0.0000000000000128
 11
40.501657574809542
 21
-62.494954838909301
 31
0.0000000000000139
210
-0.0000000000000002
220
1.0
230
-0.0000000000000002
  0
LINE
  5
4D06
  8
0
  6
CONTINUOUS
 62
     3
 10
-38.742570118168608
 20
-57.6710100716629128
 30
0.0000000000000128
 11
-40.4983424251904793
 21
-62.4949548389093223
 31
0.0000000000000139
210
-0.0000000000000002
220
1.0
230
-0.0000000000000002
  0
LINE
  5
4D07
  8
0
  6
CONTINUOUS
 62
     3
 10
40.5016575748095278
 20
-62.494954838909301
 30
0.0000000000000139
 11
40.5016575748095278
 21
-63.6000000000001009
 31
0.0000000000000141
210
-0.0000000000000002
220
1.0
230
-0.0000000000000002
  0
LINE
  5
4D08
  8
0
  6
CONTINUOUS
 62
     3
 10
-40.4983424251904793
 20
-62.4949548389093223
 30
0.0000000000000139
 11
-40.4983424251904793
 21
-63.600000000000108
 31
0.0000000000000141
210
-0.0000000000000002
220
1.0
230
-0.0000000000000002
  0
LINE
  5
4D09
  8
0
  6
CONTINUOUS
 62
     3
 10
40.5016575748095278
 20
-63.6000000000001009
 30
0.0000000000000141
 11
41.901657574809569
 21
-65.0000000000001279
 31
0.0000000000000144
210
-0.0000000000000002
220
1.0
230
-0.0000000000000002
  0
LINE
  5
4D0A
  8
0
  6
CONTINUOUS
 62
     3
 10
-40.4983424251904793
 20
-63.600000000000108
 30
0.0000000000000141
 11
-41.8983424251905134
 21
-65.0000000000001563
 31
0.0000000000000144
210
-0.0000000000000002
220
1.0
230
-0.0000000000000002
  0
LINE
  5
4D0B
  8
0
  6
CONTINUOUS
 62
     3
 10
41.901657574809569
 20
-65.0000000000001279
 30
0.0000000000000144
 11
41.901657574809569
 21
-66.0000000000001137
 31
0.0000000000000147
210
-0.0000000000000002
220
1.0
230
-0.0000000000000002
  0
LINE
  5
4D0C
  8
0
  6
CONTINUOUS
 62
     3
 10
-41.8983424251905134
 20
-65.0000000000001563
 30
0.0000000000000144
 11
-41.8983424251905134
 21
-66.0000000000001563
 31
0.0000000000000147
210
-0.0000000000000002
220
1.0
230
-0.0000000000000002
  0
LINE
  5
4D0D
  8
0
  6
CONTINUOUS
 62
     3
 10
-40.4983424251905291
 20
-67.4000000000001336
 30
0.000000000000015
 11
-41.8983424251905134
 21
-66.0000000000001563
 31
0.0000000000000147
210
-0.0000000000000002
220
1.0
230
-0.0000000000000002
  0
LINE
  5
4D0E
  8
0
  6
CONTINUOUS
 62
     3
 10
40.5016575748095917
 20
-67.4000000000001052
 30
0.000000000000015
 11
41.901657574809569
 21
-66.0000000000001137
 31
0.0000000000000147
210
-0.0000000000000002
220
1.0
230
-0.0000000000000002
  0
LINE
  5
4D0F
  8
0
  6
CONTINUOUS
 62
     3
 10
40.5016575748095917
 20
-67.4000000000001052
 30
0.000000000000015
 11
40.5016575748095917
 21
-68.0000000000001279
 31
0.0000000000000151
210
-0.0000000000000002
220
1.0
230
-0.0000000000000002
  0
LINE
  5
4D10
  8
0
  6
CONTINUOUS
 62
     3
 10
-40.4983424251905291
 20
-67.4000000000001336
 30
0.000000000000015
 11
-40.4983424251905291
 21
-68.0000000000001563
 31
0.0000000000000151
210
-0.0000000000000002
220
1.0
230
-0.0000000000000002
  0
LINE
  5
4D11
  8
0
  6
CONTINUOUS
 62
     3
 10
40.5016575748095917
 20
-68.0000000000001279
 30
0.0000000000000151
 11
42.8016575748095391
 21
-72.0000000000001279
 31
0.000000000000016
210
-0.0000000000000002
220
1.0
230
-0.0000000000000002
  0
LINE
  5
4D12
  8
0
  6
CONTINUOUS
 62
     3
 10
-40.4983424251905291
 20
-68.0000000000001563
 30
0.0000000000000151
 11
-42.7983424251904907
 21
-72.0000000000001563
 31
0.000000000000016
210
-0.0000000000000002
220
1.0
230
-0.0000000000000002
  0
ARC
  5
4D13
  8
0
  6
CONTINUOUS
 62
     3
 10
34.4983424251905078
 20
-70.500000000000199
 30
0.0
 40
3.9999999999999578
210
0.0
220
-0.0000000000000002
230
-1.0
 50
270.0
 51
337.975687162958593
  0
ARC
  5
4D14
  8
0
  6
CONTINUOUS
 62
     3
 10
-34.5016575748095633
 20
-70.5000000000001705
 30
0.0
 40
3.9999999999999551
210
0.0
220
-0.0000000000000002
230
-1.0
 50
202.0243128370416912
 51
270.0000000000003979
  0
LINE
  5
4D15
  8
0
  6
CONTINUOUS
 62
     3
 10
-122.5000000000000995
 20
267.9999999999998863
 30
-0.0000000000000595
 11
122.4999999999999005
 21
267.9999999999998863
 31
-0.0000000000000595
210
-0.0000000000000002
220
1.0
230
-0.0000000000000002
  0
ARC
  5
4D16
  8
0
  6
CONTINUOUS
 62
     3
 10
102.5000000000000995
 20
345.9999999999997726
 30
0.0
 40
20.0000000000000284
210
0.0
220
-0.0000000000000002
230
-1.0
 50
0.0000000000000687
 51
89.9999999999999432
  0
LINE
  5
4D17
  8
0
  6
CONTINUOUS
 62
     3
 10
102.4999999999999005
 20
365.9999999999997726
 30
-0.0000000000000813
 11
-102.5000000000000995
 21
365.9999999999997726
 31
-0.0000000000000813
210
-0.0000000000000002
220
1.0
230
-0.0000000000000002
  0
ARC
  5
4D18
  8
0
  6
CONTINUOUS
 62
     3
 10
-102.4999999999999005
 20
345.9999999999997726
 30
0.0
 40
20.0
210
0.0
220
-0.0000000000000002
230
-1.0
 50
89.9999999999999858
 51
180.0
  0
LINE
  5
4D19
  8
0
  6
CONTINUOUS
 62
     3
 10
-122.5000000000000995
 20
345.9999999999997726
 30
-0.0000000000000768
 11
-122.5
 21
269.2500000000001137
 31
-0.0000000000000598
210
-0.0000000000000002
220
1.0
230
-0.0000000000000002
  0
LINE
  5
4D1A
  8
0
  6
CONTINUOUS
 62
     3
 10
122.4999999999999005
 20
269.2500000000002842
 30
-0.0000000000000598
 11
122.4999999999999005
 21
345.9999999999997726
 31
-0.0000000000000768
210
-0.0000000000000002
220
1.0
230
-0.0000000000000002
  0
CIRCLE
  5
4D1B
  8
0
  6
CONTINUOUS
 62
     3
 10
-102.4999999999999005
 20
345.9999999999998863
 30
0.0
 40
4.0
210
0.0
220
-0.0000000000000002
230
-1.0
  0
CIRCLE
  5
4D1C
  8
0
  6
CONTINUOUS
 62
     3
 10
102.5000000000000995
 20
345.9999999999998863
 30
0.0
 40
4.0
210
0.0
220
-0.0000000000000002
230
-1.0
  0
LINE
  5
4D1D
  8
0
  6
CONTINUOUS
 62
     3
 10
-122.5000000000000995
 20
269.2500000000001137
 30
-0.0000000000000598
 11
-122.5000000000000995
 21
268.0000000000001137
 31
-0.0000000000000595
210
-0.0000000000000002
220
1.0
230
-0.0000000000000002
  0
LINE
  5
4D1E
  8
0
  6
CONTINUOUS
 62
     3
 10
122.5
 20
268.0000000000002274
 30
-0.0000000000000595
 11
122.5
 21
269.2500000000002274
 31
-0.0000000000000598
210
-0.0000000000000002
220
1.0
230
-0.0000000000000002
  0
LINE
  5
4D1F
  8
0
  6
CONTINUOUS
 62
     3
 10
122.4999999999999005
 20
267.9999999999998863
 30
-0.0000000000000595
 11
122.4999999999999005
 21
266.0
 31
-0.0000000000000591
210
-0.0000000000000002
220
1.0
230
-0.0000000000000002
  0
LINE
  5
4D20
  8
0
  6
CONTINUOUS
 62
     3
 10
-122.5000000000000995
 20
268.0
 30
-0.0000000000000595
 11
-122.5000000000000995
 21
266.0000000000001137
 31
-0.0000000000000591
210
-0.0000000000000002
220
1.0
230
-0.0000000000000002
  0
LINE
  5
4D21
  8
0
  6
CONTINUOUS
 62
     3
 10
-122.5000000000000995
 20
266.0
 30
-0.0000000000000591
 11
122.4999999999999005
 21
266.0
 31
-0.0000000000000591
210
-0.0000000000000002
220
1.0
230
-0.0000000000000002
  0
LINE
  5
4D22
  8
0
  6
CONTINUOUS
 62
     3
 10
51.6235332713359014
 20
258.0
 30
-0.0000000000000573
 11
-51.6235332713360791
 21
258.0
 31
-0.0000000000000573
210
-0.0000000000000002
220
1.0
230
-0.0000000000000002
  0
ARC
  5
4D23
  8
0
  6
CONTINUOUS
 62
     3
 10
-55.9999999999999005
 20
264.0
 30
0.0
 40
1.9999999999999429
210
0.0
220
-0.0000000000000002
230
-1.0
 50
20.4845424892794199
 51
90.0000000000010232
  0
ARC
  5
4D24
  8
0
  6
CONTINUOUS
 62
     3
 10
56.0000000000000782
 20
264.0
 30
0.0
 40
1.9999999999999429
210
0.0
220
-0.0000000000000002
230
-1.0
 50
89.9999999999989626
 51
159.5154575107204948
  0
LINE
  5
4D25
  8
0
  6
CONTINUOUS
 62
     3
 10
-51.6235332713360791
 20
258.0
 30
-0.0000000000000573
 11
-54.1264667286641767
 21
264.6999093378411771
 31
-0.0000000000000588
210
-0.0000000000000002
220
1.0
230
-0.0000000000000002
  0
LINE
  5
4D26
  8
0
  6
CONTINUOUS
 62
     3
 10
51.6235332713359014
 20
258.0
 30
-0.0000000000000573
 11
54.126466728663992
 21
264.6999093378411771
 31
-0.0000000000000588
210
-0.0000000000000002
220
1.0
230
-0.0000000000000002
  0
LINE
  5
4D27
  8
0
  6
CONTINUOUS
 62
     3
 10
50.1999999999999886
 20
270.0000000000001137
 30
-0.00000000000006
 11
-50.2000000000000597
 21
270.0000000000001137
 31
-0.00000000000006
210
-0.0000000000000002
220
1.0
230
-0.0000000000000002
  0
LINE
  5
4D28
  8
0
  6
CONTINUOUS
 62
     3
 10
40.4663561740293289
 20
236.5000000000001137
 30
-0.0000000000000525
 11
-40.4663561740293574
 21
236.5000000000001137
 31
-0.0000000000000525
210
-0.0000000000000002
220
1.0
230
-0.0000000000000002
  0
ARC
  5
4D29
  8
0
  6
CONTINUOUS
 62
     3
 10
-40.2000000000108528
 20
261.9999999999948272
 30
0.0
 40
9.9999999999879314
210
0.0
220
-0.0000000000000002
230
-1.0
 50
203.5781784781985948
 51
209.1143386591469948
  0
ARC
  5
4D2A
  8
0
  6
CONTINUOUS
 62
     3
 10
40.2000000000084583
 20
261.999999999996021
 30
0.0
 40
9.9999999999906546
210
0.0
220
-0.0000000000000002
230
-1.0
 50
330.8856613408539147
 51
336.4218215218007231
  0
LINE
  5
4D2B
  8
0
  6
CONTINUOUS
 62
     3
 10
-50.2000000000000668
 20
267.9999999999997726
 30
-0.0000000000000595
 11
-50.2000000000000668
 21
270.0000000000001137
 31
-0.00000000000006
210
-0.0000000000000002
220
1.0
230
-0.0000000000000002
  0
LINE
  5
4D2C
  8
0
  6
CONTINUOUS
 62
     3
 10
50.2000000000000171
 20
267.9999999999997726
 30
-0.0000000000000595
 11
50.2000000000000171
 21
270.0000000000001137
 31
-0.00000000000006
210
-0.0000000000000002
220
1.0
230
-0.0000000000000002
  0
ARC
  5
4D2D
  8
0
  6
CONTINUOUS
 62
     3
 10
-16.3074518232962902
 20
254.2861558683187866
 30
0.0
 40
29.9999999999999289
210
0.0
220
-0.0000000000000002
230
-1.0
 50
191.2917700051418137
 51
216.361070218876705
  0
ARC
  5
4D2E
  8
0
  6
CONTINUOUS
 62
     3
 10
16.30745182329645
 20
254.2861558683187866
 30
0.0
 40
29.9999999999998188
210
0.0
220
-0.0000000000000002
230
-1.0
 50
323.6389297811231245
 51
348.7082299948580726
  0
ARC
  5
4D2F
  8
0
  6
CONTINUOUS
 62
     3
 10
-75.1460194773267034
 20
242.5378386942693112
 30
0.0
 40
29.9999999999997904
210
0.0
220
-0.0000000000000002
230
-1.0
 50
11.2917700051423999
 51
29.1143386591440105
  0
ARC
  5
4D30
  8
0
  6
CONTINUOUS
 62
     3
 10
75.1460194773264192
 20
242.5378386942693965
 30
0.0
 40
29.9999999999994316
210
0.0
220
-0.0000000000000002
230
-1.0
 50
150.8856613408557905
 51
168.7082299948575042
  0
LINE
  5
4D31
  8
0
  6
CONTINUOUS
 62
     3
 10
40.7499999999999787
 20
236.1194316653314047
 30
-0.0000000000000524
 11
-40.7500000000000213
 21
236.1194316653314047
 31
-0.0000000000000524
210
-0.0000000000000002
220
1.0
230
-0.0000000000000002
  0
LINE
  5
4D32
  8
0
  6
CONTINUOUS
 62
     3
 10
35.5000000000000071
 20
0.0000000000000451
 30
0.0
 11
-35.5000000000000071
 21
0.0000000000000294
 31
0.0
210
-0.0000000000000002
220
1.0
230
-0.0000000000000002
  0
ARC
  5
4D33
  8
0
  6
CONTINUOUS
 62
     3
 10
-41.4999999999999289
 20
230.000000000000199
 30
0.0
 40
4.9999999999999512
210
0.0
220
-0.0000000000000002
230
-1.0
 50
359.9999999999996021
 51
47.2065004727365078
  0
ARC
  5
4D34
  8
0
  6
CONTINUOUS
 62
     3
 10
41.4999999999999716
 20
230.000000000000199
 30
0.0
 40
4.9999999999999494
210
0.0
220
-0.0000000000000002
230
-1.0
 50
132.7934995272634922
 51
180.0000000000003126
  0
LINE
  5
4D35
  8
0
  6
CONTINUOUS
 62
     3
 10
-38.1032097258887674
 20
233.6690347277865953
 30
-0.0000000000000519
 11
-40.7500000000000071
 21
236.1194316653314047
 31
-0.0000000000000524
210
-0.0000000000000002
220
1.0
230
-0.0000000000000002
  0
LINE
  5
4D36
  8
0
  6
CONTINUOUS
 62
     3
 10
38.1032097258887177
 20
233.6690347277865953
 30
-0.0000000000000519
 11
40.7499999999999787
 21
236.1194316653314047
 31
-0.0000000000000524
210
-0.0000000000000002
220
1.0
230
-0.0000000000000002
  0
LINE
  5
4D37
  8
0
  6
CONTINUOUS
 62
     3
 10
40.3976700511860471
 20
236.5000000000001137
 30
-0.0000000000000525
 11
40.7499999999999787
 21
236.1194316653314047
 31
-0.0000000000000524
210
-0.0000000000000002
220
1.0
230
-0.0000000000000002
  0
LINE
  5
4D38
  8
0
  6
CONTINUOUS
 62
     3
 10
-40.3976700511860898
 20
236.5000000000001137
 30
-0.0000000000000525
 11
-40.7500000000000071
 21
236.1194316653314047
 31
-0.0000000000000524
210
-0.0000000000000002
220
1.0
230
-0.0000000000000002
  0
ARC
  5
4D39
  8
0
  6
CONTINUOUS
 62
     3
 10
-35.5000000000016129
 20
8.0622577482984656
 30
0.0
 40
0.9999999999983943
210
0.0
220
-0.0000000000000002
230
-1.0
 50
179.9999999999955094
 51
187.1250163489087015
  0
ARC
  5
4D3A
  8
0
  6
CONTINUOUS
 62
     3
 10
35.5000000000016129
 20
8.0622577482984514
 30
0.0
 40
0.9999999999983943
210
0.0
220
-0.0000000000000002
230
-1.0
 50
352.8749836510910995
 51
0.0000000000044515
  0
LINE
  5
4D3B
  8
0
  6
CONTINUOUS
 62
     3
 10
-35.5000000000000213
 20
0.0000000000000285
 30
0.0
 11
-36.492277876713672
 21
7.9382230137093188
 31
-0.0000000000000018
210
-0.0000000000000002
220
1.0
230
-0.0000000000000002
  0
LINE
  5
4D3C
  8
0
  6
CONTINUOUS
 62
     3
 10
35.5000000000000213
 20
0.0000000000000443
 30
0.0
 11
36.492277876713672
 21
7.9382230137093348
 31
-0.0000000000000018
210
-0.0000000000000002
220
1.0
230
-0.0000000000000002
  0
LINE
  5
4D3D
  8
0
  6
CONTINUOUS
 62
     3
 10
-36.5000000000000071
 20
8.062257748298526
 30
-0.0000000000000018
 11
-36.5000000000000568
 21
230.0000000000001137
 31
-0.0000000000000511
210
-0.0000000000000002
220
1.0
230
-0.0000000000000002
  0
LINE
  5
4D3E
  8
0
  6
CONTINUOUS
 62
     3
 10
36.5000000000000071
 20
8.0622577482985438
 30
-0.0000000000000018
 11
36.4999999999999574
 21
230.0000000000001137
 31
-0.0000000000000511
210
-0.0000000000000002
220
1.0
230
-0.0000000000000002
  0
LINE
  5
4D3F
  8
0
  6
VERDECKT
 62
     1
 10
-36.9983424251904935
 20
-58.0000000000001421
 30
0.0000000000000129
 11
0.0016575748095193
 21
-58.0000000000001421
 31
0.0000000000000129
210
-0.0000000000000002
220
1.0
230
-0.0000000000000002
  0
LINE
  5
4D40
  8
0
  6
VERDECKT
 62
     1
 10
0.0016575748095275
 20
-58.0000000000001421
 30
0.0000000000000129
 11
37.001657574809542
 21
-58.0000000000001421
 31
0.0000000000000129
210
-0.0000000000000002
220
1.0
230
-0.0000000000000002
  0
LINE
  5
4D41
  8
0
  6
VERDECKT
 62
     1
 10
-31.9983424251904793
 20
-73.0000000000001421
 30
0.0000000000000162
 11
0.0016575748095227
 21
-73.0000000000001421
 31
0.0000000000000162
210
-0.0000000000000002
220
1.0
230
-0.0000000000000002
  0
LINE
  5
4D42
  8
0
  6
VERDECKT
 62
     1
 10
0.001657574809535
 20
-73.0000000000001421
 30
0.0000000000000162
 11
32.0016575748095278
 21
-73.0000000000001279
 31
0.0000000000000162
210
-0.0000000000000002
220
1.0
230
-0.0000000000000002
  0
LINE
  5
4D43
  8
0
  6
VERDECKT
 62
     1
 10
37.001657574809542
 20
-58.0000000000001421
 30
0.0000000000000129
 11
37.001657574809542
 21
-68.0000000000001279
 31
0.0000000000000151
210
-0.0000000000000002
220
1.0
230
-0.0000000000000002
  0
LINE
  5
4D44
  8
0
  6
VERDECKT
 62
     1
 10
-36.9983424251904793
 20
-58.0000000000001421
 30
0.0000000000000129
 11
-36.9983424251904793
 21
-68.0000000000001563
 31
0.0000000000000151
210
-0.0000000000000002
220
1.0
230
-0.0000000000000002
  0
LINE
  5
4D45
  8
0
  6
VERDECKT
 62
     1
 10
-36.9983424251904793
 20
-58.0000000000001421
 30
0.0000000000000129
 11
-37.9105961876063304
 21
-52.8263518223331801
 31
0.0000000000000117
210
-0.0000000000000002
220
1.0
230
-0.0000000000000002
  0
LINE
  5
4D46
  8
0
  6
VERDECKT
 62
     1
 10
37.001657574809542
 20
-58.0000000000001421
 30
0.0000000000000129
 11
37.9139113372253789
 21
-52.8263518223331729
 31
0.0000000000000117
210
-0.0000000000000002
220
1.0
230
-0.0000000000000002
  0
ARC
  5
4D47
  8
0
  6
VERDECKT
 62
     1
 10
38.8954039406185288
 20
-53.0000000000001279
 30
0.0
 40
1.0000000000000071
210
0.0
220
-0.0000000000000002
230
-1.0
 50
90.0000000000003979
 51
169.9999999999990052
  0
ARC
  5
4D48
  8
0
  6
VERDECKT
 62
     1
 10
-38.8987190902375914
 20
-53.0000000000001066
 30
0.0
 40
1.0000000000000071
210
0.0
220
-0.0000000000000002
230
-1.0
 50
10.0000000000009308
 51
89.9999999999995737
  0
LINE
  5
4D49
  8
0
  6
VERDECKT
 62
     1
 10
40.177323378978592
 20
-70.4725600474013305
 30
0.0000000000000156
 11
41.001657574809542
 21
-72.0000000000001279
 31
0.000000000000016
210
-0.0000000000000002
220
1.0
230
-0.0000000000000002
  0
LINE
  5
4D4A
  8
0
  6
VERDECKT
 62
     1
 10
-40.1740082293595293
 20
-70.4725600474013589
 30
0.0000000000000156
 11
-40.9983424251904722
 21
-72.0000000000001563
 31
0.000000000000016
210
-0.0000000000000002
220
1.0
230
-0.0000000000000002
  0
ARC
  5
4D4B
  8
0
  6
VERDECKT
 62
     1
 10
39.3819886040203784
 20
-70.9000000000001762
 30
0.0
 40
0.900000000000033
210
0.0
220
-0.0000000000000002
230
-1.0
 50
28.3550060284115411
 51
89.9999999999986358
  0
ARC
  5
4D4C
  8
0
  6
VERDECKT
 62
     1
 10
39.381988604020421
 20
-70.9000000000001762
 30
0.0
 40
0.9000000000000342
210
0.0
220
-0.0000000000000002
230
-1.0
 50
90.0000000000013358
 51
175.3175831377299119
  0
ARC
  5
4D4D
  8
0
  6
VERDECKT
 62
     1
 10
-39.3853037536394766
 20
-70.9000000000001336
 30
0.0
 40
0.9000000000000264
210
0.0
220
-0.0000000000000002
230
-1.0
 50
4.6824168622700659
 51
89.9999999999986358
  0
ARC
  5
4D4E
  8
0
  6
VERDECKT
 62
     1
 10
-39.385303753639441
 20
-70.9000000000001336
 30
0.0
 40
0.9000000000000342
210
0.0
220
-0.0000000000000002
230
-1.0
 50
90.0000000000013358
 51
151.6449939715884057
  0
LINE
  5
4D4F
  8
0
  6
VERDECKT
 62
     1
 10
39.3853037536394623
 20
-70.0000000000001137
 30
0.0000000000000155
 11
-39.3819886040203997
 21
-70.0000000000001421
 31
0.0000000000000155
210
-0.0000000000000002
220
1.0
230
-0.0000000000000002
  0
ARC
  5
4D50
  8
0
  6
VERDECKT
 62
     1
 10
34.4983424251906285
 20
-70.5000000000002132
 30
0.0
 40
3.9999999999998379
210
0.0
220
-0.0000000000000002
230
-1.0
 50
337.9756871629576835
 51
355.3175831377308214
  0
ARC
  5
4D51
  8
0
  6
VERDECKT
 62
     1
 10
-34.5016575748096912
 20
-70.5000000000001847
 30
0.0
 40
3.9999999999998379
210
0.0
220
-0.0000000000000002
230
-1.0
 50
184.6824168622690934
 51
202.0243128370422028
  0
LINE
  5
4D52
  8
0
  6
VERDECKT
 62
     1
 10
32.001657574809542
 20
-73.0000000000001279
 30
0.0000000000000162
 11
32.001657574809542
 21
-74.5000000000001279
 31
0.0000000000000165
210
-0.0000000000000002
220
1.0
230
-0.0000000000000002
  0
LINE
  5
4D53
  8
0
  6
VERDECKT
 62
     1
 10
-31.9983424251904793
 20
-73.0000000000001421
 30
0.0000000000000162
 11
-31.9983424251904793
 21
-74.5000000000001421
 31
0.0000000000000165
210
-0.0000000000000002
220
1.0
230
-0.0000000000000002
  0
ARC
  5
4D54
  8
0
  6
VERDECKT
 62
     1
 10
31.9983424251904793
 20
-68.0000000000001421
 30
0.0
 40
5.0
210
0.0
220
-0.0000000000000002
230
-1.0
 50
270.0
 51
359.9999999999998863
  0
ARC
  5
4D55
  8
0
  6
VERDECKT
 62
     1
 10
-32.001657574809542
 20
-68.0000000000001279
 30
0.0
 40
5.0
210
0.0
220
-0.0000000000000002
230
-1.0
 50
180.0
 51
270.0
  0
LINE
  5
4D56
  8
0
  6
VERDECKT
 62
     1
 10
49.7499999999999432
 20
258.6999093378411771
 30
-0.0000000000000574
 11
-49.7500000000001066
 21
258.6999093378411771
 31
-0.0000000000000574
210
-0.0000000000000002
220
1.0
230
-0.0000000000000002
  0
LINE
  5
4D57
  8
0
  6
VERDECKT
 62
     1
 10
49.7499999999999432
 20
258.6999093378412908
 30
-0.0000000000000574
 11
51.6235332713359227
 21
258.0
 31
-0.0000000000000573
210
-0.0000000000000002
220
1.0
230
-0.0000000000000002
  0
LINE
  5
4D58
  8
0
  6
VERDECKT
 62
     1
 10
-49.7500000000001208
 20
258.6999093378412908
 30
-0.0000000000000574
 11
-51.6235332713361075
 21
258.0
 31
-0.0000000000000573
210
-0.0000000000000002
220
1.0
230
-0.0000000000000002
  0
LINE
  5
4D59
  8
0
  6
VERDECKT
 62
     1
 10
-49.7500000000000782
 20
258.6999093378411771
 30
-0.0000000000000574
 11
-52.2529334573282114
 21
265.3998186756822975
 31
-0.0000000000000589
210
-0.0000000000000002
220
1.0
230
-0.0000000000000002
  0
LINE
  5
4D5A
  8
0
  6
VERDECKT
 62
     1
 10
49.7499999999999005
 20
258.6999093378411771
 30
-0.0000000000000574
 11
52.2529334573280266
 21
265.3998186756822975
 31
-0.0000000000000589
210
-0.0000000000000002
220
1.0
230
-0.0000000000000002
  0
ARC
  5
4D5B
  8
0
  6
VERDECKT
 62
     1
 10
-55.9999999999999503
 20
264.0
 30
0.0
 40
4.0000000000000071
210
0.0
220
-0.0000000000000002
230
-1.0
 50
20.4845424892796508
 51
89.999999999999801
  0
ARC
  5
4D5C
  8
0
  6
VERDECKT
 62
     1
 10
56.0000000000001279
 20
264.0
 30
0.0
 40
4.0
210
0.0
220
-0.0000000000000002
230
-1.0
 50
90.0000000000001847
 51
159.5154575107202959
  0
LINE
  5
4D5D
  8
0
  6
VERDECKT
 62
     1
 10
39.5
 20
237.2114462347329038
 30
-0.0000000000000527
 11
-39.5000000000000284
 21
237.2114462347329038
 31
-0.0000000000000527
210
-0.0000000000000002
220
1.0
230
-0.0000000000000002
  0
ARC
  5
4D5E
  8
0
  6
VERDECKT
 62
     1
 10
-40.1999999999999886
 20
262.0000000000001137
 30
0.0
 40
10.0000000000000195
210
0.0
220
-0.0000000000000002
230
-1.0
 50
180.0
 51
203.5781784782018065
  0
ARC
  5
4D5F
  8
0
  6
VERDECKT
 62
     1
 10
40.2000000000000526
 20
262.0000000000001137
 30
0.0
 40
10.0000000000000195
210
0.0
220
-0.0000000000000002
230
-1.0
 50
336.421821521798222
 51
0.0
  0
LINE
  5
4D60
  8
0
  6
VERDECKT
 62
     1
 10
-50.2000000000000668
 20
262.0000000000001137
 30
-0.0000000000000582
 11
-50.2000000000000668
 21
267.9999999999997726
 31
-0.0000000000000595
210
-0.0000000000000002
220
1.0
230
-0.0000000000000002
  0
LINE
  5
4D61
  8
0
  6
VERDECKT
 62
     1
 10
50.2000000000000171
 20
262.0000000000001137
 30
-0.0000000000000582
 11
50.2000000000000171
 21
267.9999999999997726
 31
-0.0000000000000595
210
-0.0000000000000002
220
1.0
230
-0.0000000000000002
  0
LINE
  5
4D62
  8
0
  6
VERDECKT
 62
     1
 10
-49.0000000000000568
 20
262.0000000000001137
 30
-0.0000000000000582
 11
-49.0000000000000568
 21
270.0000000000001137
 31
-0.00000000000006
210
-0.0000000000000002
220
1.0
230
-0.0000000000000002
  0
LINE
  5
4D63
  8
0
  6
VERDECKT
 62
     1
 10
49.0000000000000071
 20
262.0000000000001137
 30
-0.0000000000000582
 11
49.0000000000000071
 21
270.0000000000001137
 31
-0.00000000000006
210
-0.0000000000000002
220
1.0
230
-0.0000000000000002
  0
ARC
  5
4D64
  8
0
  6
VERDECKT
 62
     1
 10
-40.2000000000000171
 20
262.0000000000001137
 30
0.0
 40
8.7999999999999847
210
0.0
220
-0.0000000000000002
230
-1.0
 50
180.0
 51
209.1143386591442095
  0
ARC
  5
4D65
  8
0
  6
VERDECKT
 62
     1
 10
40.200000000000081
 20
262.0000000000001137
 30
0.0
 40
8.7999999999999847
210
0.0
220
-0.0000000000000002
230
-1.0
 50
330.8856613408557905
 51
0.0
  0
ARC
  5
4D66
  8
0
  6
VERDECKT
 62
     1
 10
-75.1460194773271013
 20
242.5378386942691122
 30
0.0
 40
31.2000000000002089
210
0.0
220
-0.0000000000000002
230
-1.0
 50
11.2917700051426202
 51
29.11433865914384
  0
ARC
  5
4D67
  8
0
  6
VERDECKT
 62
     1
 10
75.1460194773268313
 20
242.5378386942691975
 30
0.0
 40
31.1999999999998785
210
0.0
220
-0.0000000000000002
230
-1.0
 50
150.8856613408559895
 51
168.7082299948573905
  0
ARC
  5
4D68
  8
0
  6
VERDECKT
 62
     1
 10
-16.3074518232958603
 20
254.2861558683190992
 30
0.0
 40
28.8000000000003915
210
0.0
220
-0.0000000000000002
230
-1.0
 50
191.291770005141899
 51
216.361070218876506
  0
ARC
  5
4D69
  8
0
  6
VERDECKT
 62
     1
 10
16.3074518232957999
 20
254.2861558683190992
 30
0.0
 40
28.8000000000005016
210
0.0
220
-0.0000000000000002
230
-1.0
 50
323.6389297811235224
 51
348.7082299948580157
  0
LINE
  5
4D6A
  8
0
  6
VERDECKT
 62
     1
 10
39.4999999999999929
 20
237.2114462347329038
 30
-0.0000000000000527
 11
40.4663561740293218
 21
236.5000000000001137
 31
-0.0000000000000525
210
-0.0000000000000002
220
1.0
230
-0.0000000000000002
  0
LINE
  5
4D6B
  8
0
  6
VERDECKT
 62
     1
 10
-39.5000000000000426
 20
237.2114462347329038
 30
-0.0000000000000527
 11
-40.4663561740293574
 21
236.5000000000001137
 31
-0.0000000000000525
210
-0.0000000000000002
220
1.0
230
-0.0000000000000002
  0
LINE
  5
4D6C
  8
0
  6
VERDECKT
 62
     1
 10
39.9347703342132831
 20
237.0000000000001137
 30
-0.0000000000000526
 11
-39.9347703342133329
 21
237.0000000000001137
 31
-0.0000000000000526
210
-0.0000000000000002
220
1.0
230
-0.0000000000000002
  0
LINE
  5
4D6D
  8
0
  6
VERDECKT
 62
     1
 10
34.3092665479436008
 20
0.1488416815070956
 30
0.0
 11
-34.3092665479436008
 21
0.1488416815070804
 31
0.0
210
-0.0000000000000002
220
1.0
230
-0.0000000000000002
  0
LINE
  5
4D6E
  8
0
  6
VERDECKT
 62
     1
 10
39.9347703342132618
 20
237.0000000000001137
 30
-0.0000000000000526
 11
40.3976700511860471
 21
236.5000000000001137
 31
-0.0000000000000525
210
-0.0000000000000002
220
1.0
230
-0.0000000000000002
  0
LINE
  5
4D6F
  8
0
  6
VERDECKT
 62
     1
 10
-39.9347703342132974
 20
237.0000000000001137
 30
-0.0000000000000526
 11
-40.3976700511860898
 21
236.5000000000001137
 31
-0.0000000000000525
210
-0.0000000000000002
220
1.0
230
-0.0000000000000002
  0
LINE
  5
4D70
  8
0
  6
VERDECKT
 62
     1
 10
-37.2879800601020719
 20
234.5496030624553043
 30
-0.0000000000000521
 11
-39.93477033421334
 21
237.0000000000001137
 31
-0.0000000000000526
210
-0.0000000000000002
220
1.0
230
-0.0000000000000002
  0
LINE
  5
4D71
  8
0
  6
VERDECKT
 62
     1
 10
37.2879800601020293
 20
234.5496030624553043
 30
-0.0000000000000521
 11
39.9347703342132974
 21
237.0000000000001137
 31
-0.0000000000000526
210
-0.0000000000000002
220
1.0
230
-0.0000000000000002
  0
ARC
  5
4D72
  8
0
  6
VERDECKT
 62
     1
 10
-41.5000000000000071
 20
230.0000000000001137
 30
0.0
 40
6.200000000000025
210
0.0
220
-0.0000000000000002
230
-1.0
 50
0.0
 51
47.2065004727363231
  0
ARC
  5
4D73
  8
0
  6
VERDECKT
 62
     1
 10
41.5000000000000426
 20
230.0000000000001137
 30
0.0
 40
6.2000000000000179
210
0.0
220
-0.0000000000000002
230
-1.0
 50
132.7934995272636058
 51
180.0
  0
ARC
  5
4D74
  8
0
  6
VERDECKT
 62
     1
 10
-34.3000000000016314
 20
8.1369670462567765
 30
0.0
 40
0.9999999999983872
210
0.0
220
-0.0000000000000002
230
-1.0
 50
179.9999999999955094
 51
187.1250163489087868
  0
ARC
  5
4D75
  8
0
  6
VERDECKT
 62
     1
 10
34.3000000000016314
 20
8.1369670462567623
 30
0.0
 40
0.9999999999983872
210
0.0
220
-0.0000000000000002
230
-1.0
 50
352.8749836510910995
 51
0.0000000000044515
  0
LINE
  5
4D76
  8
0
  6
VERDECKT
 62
     1
 10
-35.3000000000000114
 20
8.1369670462568422
 30
-0.0000000000000018
 11
-35.3000000000000611
 21
230.0000000000001137
 31
-0.0000000000000511
210
-0.0000000000000002
220
1.0
230
-0.0000000000000002
  0
LINE
  5
4D77
  8
0
  6
VERDECKT
 62
     1
 10
35.3000000000000114
 20
8.1369670462568564
 30
-0.0000000000000018
 11
35.2999999999999616
 21
230.0000000000001137
 31
-0.0000000000000511
210
-0.0000000000000002
220
1.0
230
-0.0000000000000002
  0
LINE
  5
4D78
  8
0
  6
VERDECKT
 62
     1
 10
-34.3092665479436079
 20
0.148841681507081
 30
0.0
 11
-35.2922778767136833
 21
8.0129323116676296
 31
-0.0000000000000018
210
-0.0000000000000002
220
1.0
230
-0.0000000000000002
  0
LINE
  5
4D79
  8
0
  6
VERDECKT
 62
     1
 10
34.3092665479436079
 20
0.1488416815070962
 30
0.0
 11
35.2922778767136833
 21
8.0129323116676439
 31
-0.0000000000000018
210
-0.0000000000000002
220
1.0
230
-0.0000000000000002
  0
LINE
  5
4D7A
  8
0
  6
VERDECKT
 62
     1
 10
34.3092665479436079
 20
0.1488416815070959
 30
0.0
 11
35.5000000000000071
 21
0.0000000000000458
 31
0.0
210
-0.0000000000000002
220
1.0
230
-0.0000000000000002
  0
LINE
  5
4D7B
  8
0
  6
VERDECKT
 62
     1
 10
-34.3092665479436079
 20
0.1488416815070807
 30
0.0
 11
-35.5000000000000071
 21
0.00000000000003
 31
0.0
210
-0.0000000000000002
220
1.0
230
-0.0000000000000002
  0
ENDBLK
  5
4D7D
  8
0
  0
ENDSEC
  0
SECTION
  2
ENTITIES
  0
TEXT
  5
3D7
  8
VOLL
 10
78.076754716981128
 20
31.025947764705851
 30
0.0
 40
1.8
  1

  7
GREEKS
  0
INSERT
  5
AD0
  8
ADSK_ASSOC_ENTITY_BACKUPS
  2
*S0
 10
0.0
 20
0.0
 30
0.0
  0
INSERT
  5
4C5E
  8
STEMPEL
  2
A$C17CC5E5A
 10
0.0
 20
-250.0
 30
0.0
  0
INSERT
  5
4CE9
  8
STEMPEL
  2
A$CED5DB3AF
 10
0.0
 20
0.0
 30
0.0
  0
INSERT
  5
4D7E
  8
STEMPEL
  2
A$C76025E4A
 10
250.0
 20
0.0
 30
0.0
  0
VIEWPORT
  5
AAD
 67
     1
  8
0
 10
296.75
 20
209.75
 30
0.0
 40
795.6883637233959234
 41
422.1649484536083037
 68
     1
 69
     1
1001
ACAD
1000
MVIEW
1002
{
1070
    16
1010
0.0
1020
0.0
1030
0.0
1010
0.0
1020
0.0
1030
1.0
1040
0.0
1040
422.1649484536083037
1040
296.75
1040
209.75
1040
50.0
1040
0.0
1040
0.0
1070
     0
1070
  1500
1070
     1
1070
     1
1070
     0
1070
     0
1070
     0
1070
     0
1040
0.0
1040
0.0
1040
0.0
1040
10.0
1040
10.0
1040
10.0
1040
10.0
1070
     0
1002
{
1002
}
1002
}
  0
TEXT
  5
CB0
 67
     1
  8
VOLL
 10
625.5592565604117681
 20
227.4217200880700887
 30
0.0
 40
3.6000000000000001
  1

  7
GREEKS
  0
TEXT
  5
13FD
 67
     1
  8
VOLL
 10
1136.2020779486761057
 20
544.3446897115051115
 30
0.0
 40
1.8
  1

  7
GREEKS
  0
TEXT
  5
13FE
 67
     1
  8
VOLL
 10
1257.6048466178569925
 20
751.6650977567676364
 30
0.0
 40
1.8
  1

  7
GREEKS
  0
TEXT
  5
13FF
 67
     1
  8
VOLL
 10
1587.438057582276997
 20
568.0756737226744235
 30
0.0
 40
1.8
  1

  7
GREEKS
  0
TEXT
  5
1400
 67
     1
  8
VOLL
 10
1583.6057810679399154
 20
556.8718499942134486
 30
0.0
 40
1.8
  1

  7
GREEKS
  0
TEXT
  5
147D
 67
     1
  8
VOLL
 10
541.8878355258799502
 20
83.5838184280439549
 30
0.0
 40
3.6000000000000001
  1

  7
GREEKS
  0
ENDSEC
  0
EOF
