  0
SECTION
  2
HEADER
  9
$ACADVER
  1
AC1009
  9
$INSBASE
 10
0.0
 20
0.0
 30
0.0
  9
$EXTMIN
 10
-149.9999999999998863
 20
-430.9998957656648031
 30
-0.0000000000000375
  9
$EXTMAX
 10
445.0000000000001137
 20
168.999999999999801
 30
0.000000000000018
  9
$LIMMIN
 10
0.0
 20
0.0
  9
$LIMMAX
 10
1681.9999999999990905
 20
1188.0
  9
$ORTHOMODE
 70
     1
  9
$REGENMODE
 70
     1
  9
$FILLMODE
 70
     1
  9
$QTEXTMODE
 70
     0
  9
$MIRRTEXT
 70
     1
  9
$DRAGMODE
 70
     2
  9
$LTSCALE
 40
20.0
  9
$OSMODE
 70
   511
  9
$ATTMODE
 70
     1
  9
$TEXTSIZE
 40
3.5
  9
$TRACEWID
 40
1.0
  9
$TEXTSTYLE
  7
STANDARD
  9
$CLAYER
  8
STEMPEL
  9
$CELTYPE
  6
BYLAYER
  9
$CECOLOR
 62
   256
  9
$DIMSCALE
 40
1.0
  9
$DIMASZ
 40
3.5
  9
$DIMEXO
 40
1.0
  9
$DIMDLI
 40
0.38
  9
$DIMRND
 40
0.0
  9
$DIMDLE
 40
0.0
  9
$DIMEXE
 40
1.0
  9
$DIMTP
 40
0.0
  9
$DIMTM
 40
0.000000001
  9
$DIMTXT
 40
3.5
  9
$DIMCEN
 40
0.09
  9
$DIMTSZ
 40
0.0
  9
$DIMTOL
 70
     0
  9
$DIMLIM
 70
     0
  9
$DIMTIH
 70
     0
  9
$DIMTOH
 70
     0
  9
$DIMSE1
 70
     0
  9
$DIMSE2
 70
     0
  9
$DIMTAD
 70
     1
  9
$DIMZIN
 70
     8
  9
$DIMBLK
  1

  9
$DIMASO
 70
     1
  9
$DIMSHO
 70
     0
  9
$DIMPOST
  1

  9
$DIMAPOST
  1

  9
$DIMALT
 70
     0
  9
$DIMALTD
 70
     2
  9
$DIMALTF
 40
25.3999999999999986
  9
$DIMLFAC
 40
2.0
  9
$DIMTOFL
 70
     1
  9
$DIMTVP
 40
0.0
  9
$DIMTIX
 70
     0
  9
$DIMSOXD
 70
     0
  9
$DIMSAH
 70
     0
  9
$DIMBLK1
  1

  9
$DIMBLK2
  1

  9
$DIMSTYLE
  2
LORO
  9
$DIMCLRD
 70
     0
  9
$DIMCLRE
 70
     0
  9
$DIMCLRT
 70
     1
  9
$DIMTFAC
 40
0.5
  9
$DIMGAP
 40
1.5
  9
$LUNITS
 70
     2
  9
$LUPREC
 70
     2
  9
$SKETCHINC
 40
1.0
  9
$FILLETRAD
 40
16.0
  9
$AUNITS
 70
     0
  9
$AUPREC
 70
     0
  9
$MENU
  1
ACAD
  9
$ELEVATION
 40
0.0
  9
$PELEVATION
 40
0.0
  9
$THICKNESS
 40
0.0
  9
$LIMCHECK
 70
     0
  9
$BLIPMODE
 70
     0
  9
$CHAMFERA
 40
2.0
  9
$CHAMFERB
 40
2.0
  9
$SKPOLY
 70
     0
  9
$TDCREATE
 40
2455397.867048610933125
  9
$TDUPDATE
 40
2459636.6096180560998619
  9
$TDINDWG
 40
3.6224654630000002
  9
$TDUSRTIMER
 40
3.6224654630000002
  9
$USRTIMER
 70
     1
  9
$ANGBASE
 50
0.0
  9
$ANGDIR
 70
     0
  9
$PDMODE
 70
     0
  9
$PDSIZE
 40
0.0
  9
$PLINEWID
 40
0.0
  9
$COORDS
 70
     1
  9
$SPLFRAME
 70
     0
  9
$SPLINETYPE
 70
     6
  9
$SPLINESEGS
 70
     8
  9
$ATTDIA
 70
     1
  9
$ATTREQ
 70
     1
  9
$HANDLING
 70
     1
  9
$HANDSEED
  5
1A245
  9
$SURFTAB1
 70
     6
  9
$SURFTAB2
 70
     6
  9
$SURFTYPE
 70
     6
  9
$SURFU
 70
     6
  9
$SURFV
 70
     6
  9
$UCSNAME
  2

  9
$UCSORG
 10
0.0
 20
0.0
 30
0.0
  9
$UCSXDIR
 10
1.0
 20
0.0
 30
0.0
  9
$UCSYDIR
 10
0.0
 20
1.0
 30
0.0
  9
$PUCSNAME
  2

  9
$PUCSORG
 10
0.0
 20
0.0
 30
0.0
  9
$PUCSXDIR
 10
1.0
 20
0.0
 30
0.0
  9
$PUCSYDIR
 10
0.0
 20
1.0
 30
0.0
  9
$USERI1
 70
     0
  9
$USERI2
 70
     0
  9
$USERI3
 70
     0
  9
$USERI4
 70
     0
  9
$USERI5
 70
     0
  9
$USERR1
 40
0.0
  9
$USERR2
 40
0.0
  9
$USERR3
 40
0.0
  9
$USERR4
 40
0.0
  9
$USERR5
 40
0.0
  9
$WORLDVIEW
 70
     1
  9
$SHADEDGE
 70
     3
  9
$SHADEDIF
 70
    70
  9
$TILEMODE
 70
     1
  9
$MAXACTVP
 70
    16
  9
$PLIMCHECK
 70
     0
  9
$PEXTMIN
 10
1.0000000000000000E+20
 20
1.0000000000000000E+20
 30
1.0000000000000000E+20
  9
$PEXTMAX
 10
-1.0000000000000000E+20
 20
-1.0000000000000000E+20
 30
-1.0000000000000000E+20
  9
$PLIMMIN
 10
-4.2768115771484636
 20
-3.0123733769531489
  9
$PLIMMAX
 10
415.7231884228514787
 20
293.9876266230468218
  9
$UNITMODE
 70
     0
  9
$VISRETAIN
 70
     0
  9
$PLINEGEN
 70
     0
  9
$PSLTSCALE
 70
     0
  0
ENDSEC
  0
SECTION
  2
TABLES
  0
TABLE
  2
VPORT
 70
     1
  0
VPORT
  2
*ACTIVE
 70
     0
 10
0.0
 20
0.0
 11
1.0
 21
1.0
 12
-37.8775279375179821
 22
256.2020594724303919
 13
0.0
 23
0.0
 14
1.0
 24
1.0
 15
10.0
 25
10.0
 16
0.0000000000011937
 26
0.0
 36
4827.8672410452227268
 17
185.3775279375180958
 27
-387.2020073552631061
 37
-0.0000000000000538
 40
603.0689489409364796
 41
1.8720136518771331
 42
50.0
 43
0.0
 44
0.0
 50
0.0
 51
0.0
 71
     0
 72
  1500
 73
     1
 74
     0
 75
     0
 76
     0
 77
     0
 78
     0
  0
ENDTAB
  0
TABLE
  2
LTYPE
 70
     3
  0
LTYPE
  2
CONTINUOUS
 70
     0
  3
Solid line
 72
    65
 73
     0
 40
0.0
  0
LTYPE
  2
STRICHPUNKT
 70
     0
  3
__ . __ . __ . __ . __ . __ . __ . __ . __ . __
 72
    65
 73
     4
 40
1.0
 49
0.5
 49
-0.25
 49
0.0
 49
-0.25
  0
LTYPE
  2
VERDECKT
 70
     0
  3
Verdeckt __ __ __ __ __ __ __ __ __ __ __ __ __
 72
    65
 73
     2
 40
0.375
 49
0.25
 49
-0.125
  0
ENDTAB
  0
TABLE
  2
LAYER
 70
     7
  0
LAYER
  2
0
 70
     0
 62
     7
  6
CONTINUOUS
  0
LAYER
  2
VOLL
 70
     0
 62
     1
  6
CONTINUOUS
  0
LAYER
  2
STEMPEL
 70
     0
 62
     3
  6
CONTINUOUS
  0
LAYER
  2
DEFPOINTS
 70
     0
 62
     7
  6
CONTINUOUS
  0
LAYER
  2
ADSK_ASSOC_ENTITY_BACKUPS
 70
     1
 62
    -7
  6
CONTINUOUS
  0
ENDTAB
  0
TABLE
  2
STYLE
 70
     3
  0
STYLE
  2
STANDARD
 70
     0
 40
0.0
 41
0.8
 50
0.0
 71
     0
 42
3.5
  3
simplex.shx
  4

  0
STYLE
  2
GREEKS
 70
     0
 40
0.0
 41
0.8
 50
0.0
 71
     0
 42
2.5
  3
SIMPLEX.shx
  4

  0
ENDTAB
  0
TABLE
  2
VIEW
 70
     0
  0
ENDTAB
  0
TABLE
  2
UCS
 70
     0
  0
ENDTAB
  0
TABLE
  2
APPID
 70
    30
  0
APPID
  2
ACAD
 70
     0
  0
APPID
  2
ACAD_EXEMPT_FROM_CAD_STANDARDS
 70
     0
  0
APPID
  2
ACAD_NAV_VCDISPLAY
 70
     0
  0
APPID
  2
GRADIENTCOLOR1ACI
 70
     0
  0
APPID
  2
GRADIENTCOLOR2ACI
 70
     0
  0
APPID
  2
ACAUTHENVIRON
 70
     0
  0
APPID
  2
ACDBDYNAMICBLOCKTRUENAME
 70
     0
  0
APPID
  2
ACDBDYNAMICBLOCKGUID
 70
     0
  0
APPID
  2
ACAD_PSEXT
 70
     0
  0
APPID
  2
ACAD_MLEADERVER
 70
     0
  0
APPID
  2
ACAECLAYERSTANDARD
 70
     0
  0
APPID
  2
ACCMTRANSPARENCY
 70
     0
  0
APPID
  2
ACAD_STEPID
 70
     0
  0
APPID
  2
ACSYNERGY
 70
     0
  0
APPID
  2
SYNERGY_BODY_TBR_ID
 70
     0
  0
APPID
  2
ACAD_VIEW_EDGE_ID
 70
     0
  0
APPID
  2
ACAD_DSTYLE_DIMJAG
 70
     0
  0
APPID
  2
ACAD_DSTYLE_DIMBREAK
 70
     0
  0
APPID
  2
ACAD_DSTYLE_DIMTALN
 70
     0
  0
APPID
  2
ACADANNOMONITORALERTICONDI
 70
     0
  0
APPID
  2
ACAD_DIMASSOC_CALC_DIMLFAC
 70
     0
  0
APPID
  2
ACAD_DIMASSOC_DIMLFAC
 70
     0
  0
APPID
  2
ACAD_DIMASSOC_OVERRIDDEN_D
 70
     0
  0
APPID
  2
ACAD_DSTYLE_DIMRADIAL_EXTENSION
 70
     0
  0
APPID
  2
ACADANNOPO
 70
     0
  0
APPID
  2
ACSYNERGYSKETCH
 70
     0
  0
APPID
  2
ACAD_MODELDOC_XFORM
 70
     0
  0
APPID
  2
SYNERGY_EXCLUDED_FROM_SNAPSHOT
 70
     0
  0
APPID
  2
PLOTTRANSPARENCY
 70
     0
  0
APPID
  2
ACAD_TC
 70
     0
  0
ENDTAB
  0
TABLE
  2
DIMSTYLE
 70
     2
  0
DIMSTYLE
  2
STANDARD
 70
     0
  3

  4

  5

  6

  7

 40
1.0
 41
0.18
 42
0.0625
 43
0.38
 44
0.18
 45
0.0
 46
0.0
 47
0.0
 48
0.0
140
0.18
141
0.09
142
0.0
143
25.3999999999999986
144
1.0
145
0.0
146
1.0
147
0.09
 71
     0
 72
     0
 73
     1
 74
     1
 75
     0
 76
     0
 77
     0
 78
     0
170
     0
171
     2
172
     0
173
     0
174
     0
175
     0
176
     0
177
     0
178
     0
  0
DIMSTYLE
  2
LORO
 70
     0
  3

  4

  5

  6

  7

 40
1.0
 41
3.5
 42
1.0
 43
0.38
 44
1.0
 45
0.0
 46
0.0
 47
0.0
 48
0.000000001
140
3.5
141
0.09
142
0.0
143
25.3999999999999986
144
2.0
145
0.0
146
0.5
147
1.5
 71
     0
 72
     0
 73
     0
 74
     0
 75
     0
 76
     0
 77
     1
 78
     8
170
     0
171
     2
172
     1
173
     0
174
     0
175
     0
176
     0
177
     0
178
     1
  0
ENDTAB
  0
ENDSEC
  0
SECTION
  2
BLOCKS
  0
BLOCK
  8
0
  2
$MODEL_SPACE
 70
     0
 10
0.0
 20
0.0
 30
0.0
  3
$MODEL_SPACE
  1

  0
ENDBLK
  5
38
  8
0
  0
BLOCK
 67
     1
  8
0
  2
$PAPER_SPACE
 70
     0
 10
0.0
 20
0.0
 30
0.0
  3
$PAPER_SPACE
  1

  0
ENDBLK
  5
36
 67
     1
  8
0
  0
BLOCK
  8
0
  2
*S0
 70
     1
 10
0.0
 20
0.0
 30
0.0
  3
*S0
  1

  0
ENDBLK
  5
46EF
  8
0
  0
BLOCK
  8
0
  2
A$C99E02D77
 70
     0
 10
0.0
 20
0.0
 30
0.0
  3
A$C99E02D77
  1

  0
LINE
  5
1A0C3
  8
0
  6
CONTINUOUS
 62
     3
 10
-75.4999999999998863
 20
-56.999895765664867
 30
0.0000000000000127
 11
75.5000000000001137
 21
-56.999895765664867
 31
0.0000000000000127
210
0.0
220
1.0
230
-0.0000000000000002
  0
LINE
  5
1A0C4
  8
0
  6
CONTINUOUS
 62
     3
 10
-71.4801488286689164
 20
-59.9998957656648813
 30
0.0000000000000133
 11
71.4801488286691438
 21
-59.9998957656648813
 31
0.0000000000000133
210
0.0
220
1.0
230
-0.0000000000000002
  0
LINE
  5
1A0C5
  8
0
  6
CONTINUOUS
 62
     3
 10
-73.2999999999998835
 20
-64.9998957656648741
 30
0.0000000000000144
 11
73.3000000000001108
 21
-64.9998957656648741
 31
0.0000000000000144
210
0.0
220
1.0
230
-0.0000000000000002
  0
LINE
  5
1A0C6
  8
0
  6
CONTINUOUS
 62
     3
 10
-73.2999999999998835
 20
-68.0998957656648969
 30
0.0000000000000151
 11
73.3000000000001108
 21
-68.0998957656648969
 31
0.0000000000000151
210
0.0
220
1.0
230
-0.0000000000000002
  0
LINE
  5
1A0C7
  8
0
  6
CONTINUOUS
 62
     3
 10
-75.6999999999999318
 20
-70.4998957656648741
 30
0.0000000000000157
 11
75.7000000000001592
 21
-70.4998957656648741
 31
0.0000000000000157
210
0.0
220
1.0
230
-0.0000000000000002
  0
LINE
  5
1A0C8
  8
0
  6
CONTINUOUS
 62
     3
 10
-75.6999999999999318
 20
-71.4998957656648741
 30
0.0000000000000159
 11
75.7000000000001592
 21
-71.4998957656648741
 31
0.0000000000000159
210
0.0
220
1.0
230
-0.0000000000000002
  0
LINE
  5
1A0C9
  8
0
  6
CONTINUOUS
 62
     3
 10
-73.4999999999998863
 20
-73.6998957656649196
 30
0.0000000000000164
 11
73.5000000000001137
 21
-73.6998957656649196
 31
0.0000000000000164
210
0.0
220
1.0
230
-0.0000000000000002
  0
LINE
  5
1A0CA
  8
0
  6
CONTINUOUS
 62
     3
 10
-73.4999999999998863
 20
-76.1893839890133364
 30
0.0000000000000169
 11
73.5000000000001137
 21
-76.1893839890133364
 31
0.0000000000000169
210
0.0
220
1.0
230
-0.0000000000000002
  0
LINE
  5
1A0CB
  8
0
  6
CONTINUOUS
 62
     3
 10
-75.6999999999999318
 20
-79.9998957656648741
 30
0.0000000000000178
 11
75.7000000000001592
 21
-79.9998957656648741
 31
0.0000000000000178
210
0.0
220
1.0
230
-0.0000000000000002
  0
LINE
  5
1A0CC
  8
0
  6
CONTINUOUS
 62
     3
 10
-64.4999999999997726
 20
-80.9998957656648884
 30
0.000000000000018
 11
64.5
 21
-80.9998957656648884
 31
0.000000000000018
210
0.0
220
1.0
230
-0.0000000000000002
  0
LINE
  5
1A0CD
  8
0
  6
CONTINUOUS
 62
     3
 10
-71.4999999999999716
 20
-50.0000000000002913
 30
0.0000000000000111
 11
71.5000000000001847
 21
-50.0000000000002913
 31
0.0000000000000111
210
0.0
220
1.0
230
-0.0000000000000002
  0
ARC
  5
1A0CE
  8
0
  6
CONTINUOUS
 62
     3
 10
70.9999999999998721
 20
-57.9998957656648599
 30
0.0
 40
0.9999999999999857
210
0.0
220
-0.0000000000000002
230
-1.0
 50
89.9999999999992042
 51
180.0000000000007105
  0
ARC
  5
1A0CF
  8
0
  6
CONTINUOUS
 62
     3
 10
-71.0000000000000995
 20
-57.9998957656648599
 30
0.0
 40
0.9999999999999857
210
0.0
220
-0.0000000000000002
230
-1.0
 50
359.9999999999992042
 51
90.00000000000081
  0
LINE
  5
1A0D0
  8
0
  6
CONTINUOUS
 62
     3
 10
70.0000000000001137
 20
-57.999895765664867
 30
0.0000000000000129
 11
70.0000000000001137
 21
-58.999895765664867
 31
0.0000000000000131
210
0.0
220
1.0
230
-0.0000000000000002
  0
LINE
  5
1A0D1
  8
0
  6
CONTINUOUS
 62
     3
 10
-69.9999999999998863
 20
-57.999895765664867
 30
0.0000000000000129
 11
-69.9999999999998863
 21
-58.999895765664867
 31
0.0000000000000131
210
0.0
220
1.0
230
-0.0000000000000002
  0
ARC
  5
1A0D2
  8
0
  6
CONTINUOUS
 62
     3
 10
70.9999999999998721
 20
-58.9998957656648884
 30
0.0
 40
0.9999999999999857
210
0.0
220
-0.0000000000000002
230
-1.0
 50
179.9999999999992042
 51
270.0000000000007958
  0
ARC
  5
1A0D3
  8
0
  6
CONTINUOUS
 62
     3
 10
-71.0000000000000995
 20
-58.9998957656648884
 30
0.0
 40
0.9999999999999857
210
0.0
220
-0.0000000000000002
230
-1.0
 50
270.0
 51
0.0000000000016284
  0
LINE
  5
1A0D4
  8
0
  6
CONTINUOUS
 62
     3
 10
71.4801488286691438
 20
-59.9998957656648813
 30
0.0000000000000133
 11
73.3000000000001251
 21
-64.9998957656648741
 31
0.0000000000000144
210
0.0
220
1.0
230
-0.0000000000000002
  0
LINE
  5
1A0D5
  8
0
  6
CONTINUOUS
 62
     3
 10
-71.4801488286689164
 20
-59.9998957656648813
 30
0.0000000000000133
 11
-73.2999999999998977
 21
-64.9998957656648741
 31
0.0000000000000144
210
0.0
220
1.0
230
-0.0000000000000002
  0
LINE
  5
1A0D6
  8
0
  6
CONTINUOUS
 62
     3
 10
73.3000000000001251
 20
-64.9998957656648741
 30
0.0000000000000144
 11
73.3000000000001251
 21
-68.0998957656648969
 31
0.0000000000000151
210
0.0
220
1.0
230
-0.0000000000000002
  0
LINE
  5
1A0D7
  8
0
  6
CONTINUOUS
 62
     3
 10
-73.2999999999998977
 20
-64.9998957656648741
 30
0.0000000000000144
 11
-73.2999999999998977
 21
-68.0998957656648969
 31
0.0000000000000151
210
0.0
220
1.0
230
-0.0000000000000002
  0
LINE
  5
1A0D8
  8
0
  6
CONTINUOUS
 62
     3
 10
73.3000000000001251
 20
-68.0998957656648969
 30
0.0000000000000151
 11
75.7000000000001592
 21
-70.4998957656648741
 31
0.0000000000000157
210
0.0
220
1.0
230
-0.0000000000000002
  0
LINE
  5
1A0D9
  8
0
  6
CONTINUOUS
 62
     3
 10
-73.2999999999998977
 20
-68.0998957656648969
 30
0.0000000000000151
 11
-75.6999999999999318
 21
-70.4998957656648741
 31
0.0000000000000157
210
0.0
220
1.0
230
-0.0000000000000002
  0
LINE
  5
1A0DA
  8
0
  6
CONTINUOUS
 62
     3
 10
75.7000000000001592
 20
-70.4998957656648741
 30
0.0000000000000157
 11
75.7000000000001592
 21
-71.4998957656648741
 31
0.0000000000000159
210
0.0
220
1.0
230
-0.0000000000000002
  0
LINE
  5
1A0DB
  8
0
  6
CONTINUOUS
 62
     3
 10
-75.6999999999999318
 20
-70.4998957656648741
 30
0.0000000000000157
 11
-75.6999999999999318
 21
-71.4998957656648741
 31
0.0000000000000159
210
0.0
220
1.0
230
-0.0000000000000002
  0
LINE
  5
1A0DC
  8
0
  6
CONTINUOUS
 62
     3
 10
-73.4999999999998863
 20
-73.6998957656649196
 30
0.0000000000000164
 11
-75.6999999999999318
 21
-71.4998957656648741
 31
0.0000000000000159
210
0.0
220
1.0
230
-0.0000000000000002
  0
LINE
  5
1A0DD
  8
0
  6
CONTINUOUS
 62
     3
 10
73.5000000000001137
 20
-73.6998957656649196
 30
0.0000000000000164
 11
75.7000000000001592
 21
-71.4998957656648741
 31
0.0000000000000159
210
0.0
220
1.0
230
-0.0000000000000002
  0
LINE
  5
1A0DE
  8
0
  6
CONTINUOUS
 62
     3
 10
73.5000000000001137
 20
-73.6998957656649196
 30
0.0000000000000164
 11
73.5000000000001137
 21
-76.1893839890133364
 31
0.0000000000000169
210
0.0
220
1.0
230
-0.0000000000000002
  0
LINE
  5
1A0DF
  8
0
  6
CONTINUOUS
 62
     3
 10
-73.4999999999998863
 20
-73.6998957656649196
 30
0.0000000000000164
 11
-73.4999999999998863
 21
-76.1893839890133364
 31
0.0000000000000169
210
0.0
220
1.0
230
-0.0000000000000002
  0
LINE
  5
1A0E0
  8
0
  6
CONTINUOUS
 62
     3
 10
73.5000000000001137
 20
-76.1893839890133364
 30
0.0000000000000169
 11
75.7000000000001592
 21
-79.9998957656648741
 31
0.0000000000000178
210
0.0
220
1.0
230
-0.0000000000000002
  0
LINE
  5
1A0E1
  8
0
  6
CONTINUOUS
 62
     3
 10
-73.4999999999998863
 20
-76.1893839890133364
 30
0.0000000000000169
 11
-75.6999999999999318
 21
-79.9998957656648741
 31
0.0000000000000178
210
0.0
220
1.0
230
-0.0000000000000002
  0
ARC
  5
1A0E2
  8
0
  6
CONTINUOUS
 62
     3
 10
64.4999999999997726
 20
-74.9998957656649736
 30
0.0
 40
5.9999999999998996
210
0.0
220
-0.0000000000000002
230
-1.0
 50
270.0
 51
303.5573097619210898
  0
ARC
  5
1A0E3
  8
0
  6
CONTINUOUS
 62
     3
 10
-64.5
 20
-74.9998957656649736
 30
0.0
 40
5.9999999999999041
210
0.0
220
-0.0000000000000002
230
-1.0
 50
236.4426902380789102
 51
270.0
  0
ARC
  5
1A0E4
  8
0
  6
CONTINUOUS
 62
     3
 10
71.4758400866409431
 20
-52.7998957656648926
 30
0.0
 40
2.8000000000000078
210
0.0
220
-0.0000000000000002
230
-1.0
 50
15.0000000000002895
 51
89.5056149120656244
  0
ARC
  5
1A0E5
  8
0
  6
CONTINUOUS
 62
     3
 10
-71.4758400866411563
 20
-52.7998957656649068
 30
0.0
 40
2.8000000000000211
210
0.0
220
-0.0000000000000002
230
-1.0
 50
90.4943850879346599
 51
164.9999999999996021
  0
LINE
  5
1A0E6
  8
0
  6
CONTINUOUS
 62
     3
 10
74.180432400250524
 20
-52.0752024393778186
 30
0.0000000000000116
 11
75.5000000000001137
 21
-56.999895765664867
 31
0.0000000000000127
210
0.0
220
1.0
230
-0.0000000000000002
  0
LINE
  5
1A0E7
  8
0
  6
CONTINUOUS
 62
     3
 10
-74.1804324002503108
 20
-52.0752024393778186
 30
0.0000000000000116
 11
-75.4999999999998863
 21
-56.999895765664867
 31
0.0000000000000127
210
0.0
220
1.0
230
-0.0000000000000002
  0
LINE
  5
1A0E8
  8
0
  6
CONTINUOUS
 62
     3
 10
-72.1603532929804317
 20
50.9999999999997371
 30
-0.0000000000000113
 11
72.1603532929806448
 21
50.9999999999997371
 31
-0.0000000000000113
210
0.0
220
1.0
230
-0.0000000000000002
  0
LINE
  5
1A0E9
  8
0
  6
CONTINUOUS
 62
     3
 10
95.0000000000001705
 20
168.9999999999996874
 30
-0.0000000000000375
 11
93.0000000000001563
 21
168.9999999999996874
 31
-0.0000000000000375
210
0.0
220
1.0
230
-0.0000000000000002
  0
LINE
  5
1A0EA
  8
0
  6
CONTINUOUS
 62
     3
 10
93.0000000000001563
 20
148.9999999999996874
 30
-0.0000000000000331
 11
93.0000000000001563
 21
72.99999999999973
 31
-0.0000000000000162
210
0.0
220
1.0
230
-0.0000000000000002
  0
LINE
  5
1A0EB
  8
0
  6
CONTINUOUS
 62
     3
 10
93.0000000000001563
 20
148.9999999999996874
 30
-0.0000000000000331
 11
93.0000000000001563
 21
168.9999999999996874
 31
-0.0000000000000375
210
0.0
220
1.0
230
-0.0000000000000002
  0
LINE
  5
1A0EC
  8
0
  6
CONTINUOUS
 62
     3
 10
95.0000000000001421
 20
168.9999999999996874
 30
-0.0000000000000375
 11
95.0000000000001421
 21
148.9999999999996874
 31
-0.0000000000000331
210
0.0
220
1.0
230
-0.0000000000000002
  0
LINE
  5
1A0ED
  8
0
  6
CONTINUOUS
 62
     3
 10
95.0000000000001705
 20
148.9999999999996874
 30
-0.0000000000000331
 11
95.0000000000001705
 21
72.9999999999997442
 31
-0.0000000000000162
210
0.0
220
1.0
230
-0.0000000000000002
  0
ARC
  5
1A0EE
  8
0
  6
CONTINUOUS
 62
     3
 10
91.0000000000001705
 20
72.9999999999997442
 30
-0.0000000000000162
 40
2.0
 50
270.0
 51
0.0
  0
LINE
  5
1A0EF
  8
0
  6
CONTINUOUS
 62
     3
 10
91.0000000000001705
 20
70.9999999999997016
 30
-0.0000000000000158
 11
0.0000000000001137
 21
70.9999999999997016
 31
-0.0000000000000158
210
0.0
220
1.0
230
-0.0000000000000002
  0
LINE
  5
1A0F0
  8
0
  6
CONTINUOUS
 62
     3
 10
0.0000000000001137
 20
68.99999999999973
 30
-0.0000000000000153
 11
91.0000000000001279
 21
68.99999999999973
 31
-0.0000000000000153
210
0.0
220
1.0
230
-0.0000000000000002
  0
ARC
  5
1A0F1
  8
0
  6
CONTINUOUS
 62
     3
 10
-91.0000000000001279
 20
72.9999999999997868
 30
0.0
 40
4.0000000000000142
210
0.0
220
-0.0000000000000002
230
-1.0
 50
180.0000000000001137
 51
269.9999999999997726
  0
LINE
  5
1A0F2
  8
0
  6
CONTINUOUS
 62
     3
 10
-149.9999999999998863
 20
70.9999999999997158
 30
-0.0000000000000158
 11
0.0000000000001137
 21
70.9999999999997158
 31
-0.0000000000000158
210
0.0
220
1.0
230
-0.0000000000000002
  0
LINE
  5
1A0F3
  8
0
  6
CONTINUOUS
 62
     3
 10
-149.9999999999998863
 20
68.9999999999997158
 30
-0.0000000000000153
 11
0.0000000000001137
 21
68.99999999999973
 31
-0.0000000000000153
210
0.0
220
1.0
230
-0.0000000000000002
  0
ARC
  5
1A0F4
  8
0
  6
CONTINUOUS
 62
     3
 10
77.4999999999999005
 20
65.49999999999973
 30
0.0
 40
3.5000000000000129
210
0.0
220
-0.0000000000000002
230
-1.0
 50
90.0000000000002416
 51
192.8280495223827984
  0
ARC
  5
1A0F5
  8
0
  6
CONTINUOUS
 62
     3
 10
-77.5000000000001279
 20
65.49999999999973
 30
0.0
 40
3.5000000000000129
210
0.0
220
-0.0000000000000002
230
-1.0
 50
347.1719504776172016
 51
89.9999999999997584
  0
ARC
  5
1A0F6
  8
0
  6
CONTINUOUS
 62
     3
 10
57.9673251498184712
 20
61.0522281027256426
 30
0.0
 40
16.5326748501814116
210
0.0
220
-0.0000000000000002
230
-1.0
 50
342.7803027270546181
 51
12.8280495223827504
  0
ARC
  5
1A0F7
  8
0
  6
CONTINUOUS
 62
     3
 10
-57.9673251498186772
 20
61.0522281027256426
 30
0.0
 40
16.53267485018144
210
0.0
220
-0.0000000000000002
230
-1.0
 50
167.1719504776172016
 51
197.2196972729452966
  0
LINE
  5
1A0F8
  8
0
  6
CONTINUOUS
 62
     3
 10
-72.1603532929804459
 20
50.9999999999997371
 30
-0.0000000000000113
 11
-73.7589500707289432
 21
56.1579538910472493
 31
-0.0000000000000125
210
0.0
220
1.0
230
-0.0000000000000002
  0
LINE
  5
1A0F9
  8
0
  6
CONTINUOUS
 62
     3
 10
72.1603532929806732
 20
50.9999999999997371
 30
-0.0000000000000113
 11
73.7589500707291705
 21
56.1579538910472493
 31
-0.0000000000000125
210
0.0
220
1.0
230
-0.0000000000000002
  0
LINE
  5
1A0FA
  8
0
  6
CONTINUOUS
 62
     3
 10
-149.9999999999998863
 20
70.9999999999997158
 30
-0.0000000000000158
 11
-149.9999999999998863
 21
68.99999999999973
 31
-0.0000000000000153
210
0.0
220
1.0
230
-0.0000000000000002
  0
LINE
  5
1A0FB
  8
0
  6
CONTINUOUS
 62
     3
 10
-72.0000000000483595
 20
72.99999999999973
 30
-0.0000000000000162
 11
72.0000000000486438
 21
72.99999999999973
 31
-0.0000000000000162
210
0.0
220
1.0
230
-0.0000000000000002
  0
LINE
  5
1A0FC
  8
0
  6
CONTINUOUS
 62
     3
 10
-65.6999999999998465
 20
-0.0000000000002884
 30
0.0
 11
65.7000000000001307
 21
-0.00000000000028
 31
0.0
210
0.0
220
1.0
230
-0.0000000000000002
  0
LINE
  5
1A0FD
  8
0
  6
CONTINUOUS
 62
     3
 10
-68.4246378256497252
 20
48.2017394338644465
 30
-0.0000000000000107
 11
-69.5194308710115934
 21
50.9999999999997371
 31
-0.0000000000000113
210
0.0
220
1.0
230
-0.0000000000000002
  0
LINE
  5
1A0FE
  8
0
  6
CONTINUOUS
 62
     3
 10
68.4246378256500094
 20
48.2017394338644607
 30
-0.0000000000000107
 11
69.5194308710118918
 21
50.99999999999973
 31
-0.0000000000000113
210
0.0
220
1.0
230
-0.0000000000000002
  0
ARC
  5
1A0FF
  8
0
  6
CONTINUOUS
 62
     3
 10
94.5000000000003553
 20
37.9999999999996021
 30
0.0
 40
28.0000000000005116
210
0.0
220
-0.0000000000000002
230
-1.0
 50
158.6325470100906045
 51
179.9999999999996874
  0
ARC
  5
1A100
  8
0
  6
CONTINUOUS
 62
     3
 10
-94.5000000000001847
 20
37.9999999999997229
 30
0.0
 40
28.0000000000000284
210
0.0
220
-0.0000000000000002
230
-1.0
 50
0.0
 51
21.3674529899094985
  0
LINE
  5
1A101
  8
0
  6
CONTINUOUS
 62
     3
 10
72.0000000000486438
 20
72.99999999999973
 30
-0.0000000000000162
 11
72.0000000000486438
 21
70.9999999999997158
 31
-0.0000000000000158
210
0.0
220
1.0
230
-0.0000000000000002
  0
LINE
  5
1A102
  8
0
  6
CONTINUOUS
 62
     3
 10
-72.0000000000483595
 20
72.99999999999973
 30
-0.0000000000000162
 11
-72.0000000000483595
 21
70.9999999999997158
 31
-0.0000000000000158
210
0.0
220
1.0
230
-0.0000000000000002
  0
ARC
  5
1A103
  8
0
  6
CONTINUOUS
 62
     3
 10
65.5000000000047748
 20
8.0498756211203144
 30
0.0
 40
0.999999999995083
210
0.0
220
-0.0000000000000002
230
-1.0
 50
354.2894068624837018
 51
0.0000000000115009
  0
ARC
  5
1A104
  8
0
  6
CONTINUOUS
 62
     3
 10
-65.5000000000050733
 20
8.0498756211203197
 30
0.0
 40
0.9999999999950546
210
0.0
220
-0.0000000000000002
230
-1.0
 50
179.9999999999884039
 51
185.7105931375162129
  0
LINE
  5
1A105
  8
0
  6
CONTINUOUS
 62
     3
 10
66.5000000000001421
 20
37.9999999999997229
 30
-0.0000000000000084
 11
66.5000000000001421
 21
8.0498756211205222
 31
-0.0000000000000018
210
0.0
220
1.0
230
-0.0000000000000002
  0
LINE
  5
1A106
  8
0
  6
CONTINUOUS
 62
     3
 10
-66.4999999999998579
 20
37.9999999999997087
 30
-0.0000000000000084
 11
-66.4999999999998579
 21
8.0498756211205151
 31
-0.0000000000000018
210
0.0
220
1.0
230
-0.0000000000000002
  0
LINE
  5
1A107
  8
0
  6
CONTINUOUS
 62
     3
 10
-65.6999999999998607
 20
-0.0000000000002891
 30
0.0
 11
-66.4950371902098425
 21
7.9503719020995147
 31
-0.0000000000000018
210
0.0
220
1.0
230
-0.0000000000000002
  0
LINE
  5
1A108
  8
0
  6
CONTINUOUS
 62
     3
 10
65.700000000000145
 20
-0.0000000000002847
 30
0.0
 11
66.4950371902101267
 21
7.9503719020995236
 31
-0.0000000000000018
210
0.0
220
1.0
230
-0.0000000000000002
  0
LINE
  5
1A109
  8
0
  6
VERDECKT
 62
     1
 10
-70.6999999999999318
 20
-76.9998957656648741
 30
0.0000000000000171
 11
70.7000000000001592
 21
-76.9998957656648741
 31
0.0000000000000171
210
0.0
220
1.0
230
-0.0000000000000002
  0
LINE
  5
1A10A
  8
0
  6
VERDECKT
 62
     1
 10
-61.4999999999998792
 20
-78.9998957656648741
 30
0.0000000000000175
 11
61.5000000000001066
 21
-78.9998957656648741
 31
0.0000000000000175
210
0.0
220
1.0
230
-0.0000000000000002
  0
LINE
  5
1A10B
  8
0
  6
VERDECKT
 62
     1
 10
70.7000000000001592
 20
-76.9998957656648741
 30
0.0000000000000171
 11
73.7000000000001592
 21
-79.9998957656648741
 31
0.0000000000000178
210
0.0
220
1.0
230
-0.0000000000000002
  0
LINE
  5
1A10C
  8
0
  6
VERDECKT
 62
     1
 10
-70.6999999999999318
 20
-76.9998957656648741
 30
0.0000000000000171
 11
-73.6999999999999318
 21
-79.9998957656648741
 31
0.0000000000000178
210
0.0
220
1.0
230
-0.0000000000000002
  0
ARC
  5
1A10D
  8
0
  6
VERDECKT
 62
     1
 10
64.4999999999997868
 20
-74.9998957656649736
 30
0.0
 40
5.9999999999998836
210
0.0
220
-0.0000000000000002
230
-1.0
 50
303.5573097619209761
 51
340.5287793655102178
  0
ARC
  5
1A10E
  8
0
  6
VERDECKT
 62
     1
 10
-64.4999999999998437
 20
-74.9998957656648599
 30
0.0
 40
6.0000000000000773
210
0.0
220
-0.0000000000000002
230
-1.0
 50
199.4712206344902086
 51
236.4426902380783986
  0
LINE
  5
1A10F
  8
0
  6
VERDECKT
 62
     1
 10
61.5000000000001066
 20
-78.9998957656648741
 30
0.0000000000000175
 11
61.5000000000001066
 21
-80.9998957656648741
 31
0.000000000000018
210
0.0
220
1.0
230
-0.0000000000000002
  0
LINE
  5
1A110
  8
0
  6
VERDECKT
 62
     1
 10
-61.4999999999998792
 20
-78.9998957656648741
 30
0.0000000000000175
 11
-61.4999999999998792
 21
-80.9998957656648741
 31
0.000000000000018
210
0.0
220
1.0
230
-0.0000000000000002
  0
ARC
  5
1A111
  8
0
  6
VERDECKT
 62
     1
 10
61.4999999999999076
 20
-72.9998957656648741
 30
0.0
 40
5.9999999999999849
210
0.0
220
-0.0000000000000002
230
-1.0
 50
270.0
 51
0.0000000000003435
  0
ARC
  5
1A112
  8
0
  6
VERDECKT
 62
     1
 10
-61.5000000000001279
 20
-72.9998957656648741
 30
0.0
 40
5.9999999999999778
210
0.0
220
-0.0000000000000002
230
-1.0
 50
179.999999999999801
 51
270.0000000000002274
  0
LINE
  5
1A113
  8
0
  6
VERDECKT
 62
     1
 10
67.5000000000001137
 20
-56.999895765664867
 30
0.0000000000000127
 11
67.5000000000001137
 21
-72.9998957656648741
 31
0.0000000000000162
210
0.0
220
1.0
230
-0.0000000000000002
  0
LINE
  5
1A114
  8
0
  6
VERDECKT
 62
     1
 10
-67.4999999999998863
 20
-56.999895765664867
 30
0.0000000000000127
 11
-67.4999999999998863
 21
-72.9998957656648741
 31
0.0000000000000162
210
0.0
220
1.0
230
-0.0000000000000002
  0
LINE
  5
1A115
  8
0
  6
VERDECKT
 62
     1
 10
-67.4999999999998863
 20
-56.999895765664867
 30
0.0000000000000127
 11
-68.8195675997493908
 21
-52.075202439377847
 31
0.0000000000000116
210
0.0
220
1.0
230
-0.0000000000000002
  0
LINE
  5
1A116
  8
0
  6
VERDECKT
 62
     1
 10
67.5000000000001137
 20
-56.999895765664867
 30
0.0000000000000127
 11
68.8195675997496039
 21
-52.075202439377847
 31
0.0000000000000116
210
0.0
220
1.0
230
-0.0000000000000002
  0
ARC
  5
1A117
  8
0
  6
VERDECKT
 62
     1
 10
71.5241599133588153
 20
-52.7998957656649068
 30
0.0
 40
2.8000000000000269
210
0.0
220
-0.0000000000000002
230
-1.0
 50
90.4943850879311782
 51
165.0
  0
ARC
  5
1A118
  8
0
  6
VERDECKT
 62
     1
 10
-71.5241599133590427
 20
-52.7998957656649068
 30
0.0
 40
2.800000000000034
210
0.0
220
-0.0000000000000002
230
-1.0
 50
15.0
 51
89.5056149120688076
  0
LINE
  5
1A119
  8
0
  6
VERDECKT
 62
     1
 10
-70.2499999999998863
 20
51.5920728806473434
 30
-0.0000000000000115
 11
70.2500000000001137
 21
51.5920728806473434
 31
-0.0000000000000115
210
0.0
220
1.0
230
-0.0000000000000002
  0
LINE
  5
1A11A
  8
0
  6
VERDECKT
 62
     1
 10
70.2500000000001137
 20
51.5920728806473505
 30
-0.0000000000000115
 11
72.1603532929806732
 21
50.9999999999997513
 31
-0.0000000000000113
210
0.0
220
1.0
230
-0.0000000000000002
  0
LINE
  5
1A11B
  8
0
  6
VERDECKT
 62
     1
 10
-70.2499999999998863
 20
51.5920728806473505
 30
-0.0000000000000115
 11
-72.1603532929804459
 21
50.9999999999997513
 31
-0.0000000000000113
210
0.0
220
1.0
230
-0.0000000000000002
  0
LINE
  5
1A11C
  8
0
  6
VERDECKT
 62
     1
 10
-70.2499999999998863
 20
51.5920728806473434
 30
-0.0000000000000115
 11
-71.8485967777483836
 21
56.7500267716948485
 31
-0.0000000000000126
210
0.0
220
1.0
230
-0.0000000000000002
  0
LINE
  5
1A11D
  8
0
  6
VERDECKT
 62
     1
 10
70.2500000000001137
 20
51.5920728806473434
 30
-0.0000000000000115
 11
71.848596777748611
 21
56.7500267716948485
 31
-0.0000000000000126
210
0.0
220
1.0
230
-0.0000000000000002
  0
ARC
  5
1A11E
  8
0
  6
VERDECKT
 62
     1
 10
57.9673251498186417
 20
61.0522281027256213
 30
0.0
 40
14.5326748501812499
210
0.0
220
-0.0000000000000002
230
-1.0
 50
342.7803027270546181
 51
12.8280495223830204
  0
ARC
  5
1A11F
  8
0
  6
VERDECKT
 62
     1
 10
-57.967325149818862
 20
61.0522281027256213
 30
0.0
 40
14.5326748501812499
210
0.0
220
-0.0000000000000002
230
-1.0
 50
167.171950477616889
 51
197.2196972729454103
  0
ARC
  5
1A120
  8
0
  6
VERDECKT
 62
     1
 10
77.4999999999999005
 20
65.49999999999973
 30
0.0
 40
5.5000000000000284
210
0.0
220
-0.0000000000000002
230
-1.0
 50
90.0000000000001705
 51
192.8280495223827131
  0
ARC
  5
1A121
  8
0
  6
VERDECKT
 62
     1
 10
-77.5000000000001279
 20
65.49999999999973
 30
0.0
 40
5.5000000000000249
210
0.0
220
-0.0000000000000002
230
-1.0
 50
347.1719504776173153
 51
89.9999999999998437
  0
LINE
  5
1A122
  8
0
  6
VERDECKT
 62
     1
 10
95.0000000000001421
 20
144.9999999999996874
 30
-0.0000000000000322
 11
93.0000000000001563
 21
144.9999999999996874
 31
-0.0000000000000322
210
0.0
220
1.0
230
-0.0000000000000002
  0
LINE
  5
1A123
  8
0
  6
VERDECKT
 62
     1
 10
95.0000000000001421
 20
152.9999999999996874
 30
-0.000000000000034
 11
93.0000000000001563
 21
152.9999999999996874
 31
-0.000000000000034
210
0.0
220
1.0
230
-0.0000000000000002
  0
LINE
  5
1A124
  8
0
  6
VERDECKT
 62
     1
 10
-63.7099256195316173
 20
0.1990074380465372
 30
0.0
 11
63.7099256195318873
 21
0.1990074380465453
 31
0.0
210
0.0
220
1.0
230
-0.0000000000000002
  0
ARC
  5
1A125
  8
0
  6
VERDECKT
 62
     1
 10
41.9999999999994529
 20
62.9999999999998082
 30
0.0
 40
30.0000000000004086
210
0.0
220
-0.0000000000000002
230
-1.0
 50
338.6325470100906045
 51
359.9999999999997726
  0
ARC
  5
1A126
  8
0
  6
VERDECKT
 62
     1
 10
-42.0000000000001776
 20
62.9999999999997087
 30
0.0
 40
29.9999999999999503
210
0.0
220
-0.0000000000000002
230
-1.0
 50
179.9999999999998863
 51
201.3674529899095091
  0
LINE
  5
1A127
  8
0
  6
VERDECKT
 62
     1
 10
-69.5194308710115934
 20
50.9999999999997371
 30
-0.0000000000000113
 11
-69.9378880439464155
 21
52.0695648922875165
 31
-0.0000000000000116
210
0.0
220
1.0
230
-0.0000000000000002
  0
LINE
  5
1A128
  8
0
  6
VERDECKT
 62
     1
 10
69.5194308710118918
 20
50.99999999999973
 30
-0.0000000000000113
 11
69.9378880439466855
 21
52.0695648922875307
 31
-0.0000000000000116
210
0.0
220
1.0
230
-0.0000000000000002
  0
ARC
  5
1A129
  8
0
  6
VERDECKT
 62
     1
 10
94.5000000000001279
 20
37.9999999999997371
 30
0.0
 40
30.0000000000002593
210
0.0
220
-0.0000000000000002
230
-1.0
 50
158.6325470100906045
 51
180.0
  0
ARC
  5
1A12A
  8
0
  6
VERDECKT
 62
     1
 10
-94.4999999999994458
 20
37.9999999999999218
 30
0.0
 40
29.9999999999993108
210
0.0
220
-0.0000000000000002
230
-1.0
 50
0.0
 51
21.3674529899101309
  0
LINE
  5
1A12B
  8
0
  6
VERDECKT
 62
     1
 10
-66.5621119560533003
 20
48.9304351077119719
 30
-0.0000000000000109
 11
-68.0753621743499906
 21
52.7982605661350206
 31
-0.0000000000000117
210
0.0
220
1.0
230
-0.0000000000000002
  0
LINE
  5
1A12C
  8
0
  6
VERDECKT
 62
     1
 10
66.5621119560535845
 20
48.9304351077119932
 30
-0.0000000000000109
 11
68.0753621743502606
 21
52.7982605661350206
 31
-0.0000000000000117
210
0.0
220
1.0
230
-0.0000000000000002
  0
ARC
  5
1A12D
  8
0
  6
VERDECKT
 62
     1
 10
42.0000000000001634
 20
62.9999999999997016
 30
0.0
 40
27.9999999999997016
210
0.0
220
-0.0000000000000002
230
-1.0
 50
338.6325470100903203
 51
0.0000000000000763
  0
ARC
  5
1A12E
  8
0
  6
VERDECKT
 62
     1
 10
-42.0000000000000711
 20
62.9999999999997513
 30
0.0
 40
28.0000000000000604
210
0.0
220
-0.0000000000000002
230
-1.0
 50
180.0
 51
201.3674529899093955
  0
LINE
  5
1A12F
  8
0
  6
VERDECKT
 62
     1
 10
70.0000000000001421
 20
72.9999999999997442
 30
-0.0000000000000162
 11
70.0000000000001421
 21
62.9999999999997371
 31
-0.000000000000014
210
0.0
220
1.0
230
-0.0000000000000002
  0
LINE
  5
1A130
  8
0
  6
VERDECKT
 62
     1
 10
-69.9999999999998437
 20
72.99999999999973
 30
-0.0000000000000162
 11
-69.9999999999998437
 21
62.9999999999997371
 31
-0.000000000000014
210
0.0
220
1.0
230
-0.0000000000000002
  0
LINE
  5
1A131
  8
0
  6
VERDECKT
 62
     1
 10
72.0000000000486438
 20
70.9999999999997158
 30
-0.0000000000000158
 11
72.0000000000486438
 21
62.99999999999973
 31
-0.000000000000014
210
0.0
220
1.0
230
-0.0000000000000002
  0
LINE
  5
1A132
  8
0
  6
VERDECKT
 62
     1
 10
-72.0000000000483595
 20
70.9999999999997158
 30
-0.0000000000000158
 11
-72.0000000000483595
 21
62.99999999999973
 31
-0.000000000000014
210
0.0
220
1.0
230
-0.0000000000000002
  0
ARC
  5
1A133
  8
0
  6
VERDECKT
 62
     1
 10
63.4999999999805169
 20
8.1496268636070202
 30
0.0
 40
0.9999999999950759
210
0.0
220
-0.0000000000000002
230
-1.0
 50
354.2894068624837018
 51
0.0000000000115136
  0
ARC
  5
1A134
  8
0
  6
VERDECKT
 62
     1
 10
-63.4999999999808367
 20
8.1496268636070308
 30
0.0
 40
0.9999999999950404
210
0.0
220
-0.0000000000000002
230
-1.0
 50
179.9999999999886029
 51
185.7105931375164118
  0
LINE
  5
1A135
  8
0
  6
VERDECKT
 62
     1
 10
-63.7099256195316173
 20
0.1990074380465359
 30
0.0
 11
-64.4950371901855846
 21
8.0501231445862231
 31
-0.0000000000000018
210
0.0
220
1.0
230
-0.0000000000000002
  0
LINE
  5
1A136
  8
0
  6
VERDECKT
 62
     1
 10
63.7099256195319015
 20
0.1990074380465395
 30
0.0
 11
64.4950371901858546
 21
8.0501231445862338
 31
-0.0000000000000018
210
0.0
220
1.0
230
-0.0000000000000002
  0
LINE
  5
1A137
  8
0
  6
VERDECKT
 62
     1
 10
64.4999999999758842
 20
37.9999999999997371
 30
-0.0000000000000084
 11
64.4999999999758842
 21
8.1496268636072298
 31
-0.0000000000000018
210
0.0
220
1.0
230
-0.0000000000000002
  0
LINE
  5
1A138
  8
0
  6
VERDECKT
 62
     1
 10
-64.4999999999756
 20
37.99999999999973
 30
-0.0000000000000084
 11
-64.4999999999756
 21
8.1496268636072227
 31
-0.0000000000000018
210
0.0
220
1.0
230
-0.0000000000000002
  0
LINE
  5
1A139
  8
0
  6
VERDECKT
 62
     1
 10
63.7099256195319015
 20
0.199007438046541
 30
0.0
 11
65.700000000000145
 21
-0.0000000000002832
 31
0.0
210
0.0
220
1.0
230
-0.0000000000000002
  0
LINE
  5
1A13A
  8
0
  6
VERDECKT
 62
     1
 10
-63.7099256195316173
 20
0.199007438046533
 30
0.0
 11
-65.6999999999998607
 21
-0.0000000000002915
 31
0.0
210
0.0
220
1.0
230
-0.0000000000000002
  0
ENDBLK
  5
1A13C
  8
0
  0
BLOCK
  8
0
  2
A$C87714CDB
 70
     0
 10
0.0
 20
0.0
 30
0.0
  3
A$C87714CDB
  1

  0
LINE
  5
1A140
  8
0
  6
CONTINUOUS
 62
     3
 10
-75.5
 20
-56.9998957656649026
 30
0.0000000000000127
 11
-0.0000000000000016
 21
-56.9998957656648884
 31
0.0000000000000127
210
-0.0000000000000002
220
1.0
230
-0.0000000000000002
  0
LINE
  5
1A141
  8
0
  6
CONTINUOUS
 62
     3
 10
0.0000000000000243
 20
-56.9998957656648884
 30
0.0000000000000127
 11
75.5000000000000142
 21
-56.999895765664867
 31
0.0000000000000127
210
-0.0000000000000002
220
1.0
230
-0.0000000000000002
  0
LINE
  5
1A142
  8
0
  6
CONTINUOUS
 62
     3
 10
-71.4801488286690443
 20
-59.9998957656649097
 30
0.0000000000000133
 11
-0.0000000000000009
 21
-59.9998957656648884
 31
0.0000000000000133
210
-0.0000000000000002
220
1.0
230
-0.0000000000000002
  0
LINE
  5
1A143
  8
0
  6
CONTINUOUS
 62
     3
 10
0.0000000000000167
 20
-59.9998957656648884
 30
0.0000000000000133
 11
71.4801488286690585
 21
-59.999895765664867
 31
0.0000000000000133
210
-0.0000000000000002
220
1.0
230
-0.0000000000000002
  0
LINE
  5
1A144
  8
0
  6
CONTINUOUS
 62
     3
 10
-73.3000000000000114
 20
-64.9998957656649026
 30
0.0000000000000144
 11
0.0000000000000002
 21
-64.9998957656648884
 31
0.0000000000000144
210
-0.0000000000000002
220
1.0
230
-0.0000000000000002
  0
LINE
  5
1A145
  8
0
  6
CONTINUOUS
 62
     3
 10
0.0000000000000142
 20
-64.9998957656648884
 30
0.0000000000000144
 11
73.3000000000000256
 21
-64.9998957656648741
 31
0.0000000000000144
210
-0.0000000000000002
220
1.0
230
-0.0000000000000002
  0
LINE
  5
1A146
  8
0
  6
CONTINUOUS
 62
     3
 10
-73.3000000000000114
 20
-68.0998957656649253
 30
0.0000000000000151
 11
0.0000000000000009
 21
-68.0998957656649111
 31
0.0000000000000151
210
-0.0000000000000002
220
1.0
230
-0.0000000000000002
  0
LINE
  5
1A147
  8
0
  6
CONTINUOUS
 62
     3
 10
0.0000000000000151
 20
-68.0998957656649111
 30
0.0000000000000151
 11
73.3000000000000256
 21
-68.0998957656648969
 31
0.0000000000000151
210
-0.0000000000000002
220
1.0
230
-0.0000000000000002
  0
LINE
  5
1A148
  8
0
  6
CONTINUOUS
 62
     3
 10
-75.7000000000000455
 20
-70.4998957656649026
 30
0.0000000000000157
 11
0.0000000000000014
 21
-70.4998957656648741
 31
0.0000000000000157
210
-0.0000000000000002
220
1.0
230
-0.0000000000000002
  0
LINE
  5
1A149
  8
0
  6
CONTINUOUS
 62
     3
 10
0.0000000000000261
 20
-70.4998957656648741
 30
0.0000000000000157
 11
75.7000000000000739
 21
-70.4998957656648741
 31
0.0000000000000157
210
-0.0000000000000002
220
1.0
230
-0.0000000000000002
  0
LINE
  5
1A14A
  8
0
  6
CONTINUOUS
 62
     3
 10
-75.7000000000000455
 20
-71.4998957656649026
 30
0.0000000000000159
 11
0.0000000000000017
 21
-71.4998957656648884
 31
0.0000000000000159
210
-0.0000000000000002
220
1.0
230
-0.0000000000000002
  0
LINE
  5
1A14B
  8
0
  6
CONTINUOUS
 62
     3
 10
0.0000000000000264
 20
-71.4998957656648884
 30
0.0000000000000159
 11
75.7000000000000739
 21
-71.4998957656648741
 31
0.0000000000000159
210
-0.0000000000000002
220
1.0
230
-0.0000000000000002
  0
LINE
  5
1A14C
  8
0
  6
CONTINUOUS
 62
     3
 10
-73.5
 20
-73.699895765664948
 30
0.0000000000000164
 11
0.0000000000000022
 21
-73.6998957656649338
 31
0.0000000000000164
210
-0.0000000000000002
220
1.0
230
-0.0000000000000002
  0
LINE
  5
1A14D
  8
0
  6
CONTINUOUS
 62
     3
 10
0.0000000000000244
 20
-73.6998957656649338
 30
0.0000000000000164
 11
73.5000000000000284
 21
-73.6998957656649196
 31
0.0000000000000164
210
-0.0000000000000002
220
1.0
230
-0.0000000000000002
  0
LINE
  5
1A14E
  8
0
  6
CONTINUOUS
 62
     3
 10
-73.5
 20
-76.1893839890133648
 30
0.0000000000000169
 11
0.0000000000000027
 21
-76.1893839890133506
 31
0.0000000000000169
210
-0.0000000000000002
220
1.0
230
-0.0000000000000002
  0
LINE
  5
1A14F
  8
0
  6
CONTINUOUS
 62
     3
 10
0.0000000000000251
 20
-76.1893839890133506
 30
0.0000000000000169
 11
73.5000000000000284
 21
-76.1893839890133364
 31
0.0000000000000169
210
-0.0000000000000002
220
1.0
230
-0.0000000000000002
  0
LINE
  5
1A150
  8
0
  6
CONTINUOUS
 62
     3
 10
-75.7000000000000455
 20
-79.9998957656649026
 30
0.0000000000000178
 11
0.0000000000000036
 21
-79.9998957656648884
 31
0.0000000000000178
210
-0.0000000000000002
220
1.0
230
-0.0000000000000002
  0
LINE
  5
1A151
  8
0
  6
CONTINUOUS
 62
     3
 10
0.0000000000000288
 20
-79.9998957656648884
 30
0.0000000000000178
 11
75.7000000000000739
 21
-79.9998957656648741
 31
0.0000000000000178
210
-0.0000000000000002
220
1.0
230
-0.0000000000000002
  0
LINE
  5
1A152
  8
0
  6
CONTINUOUS
 62
     3
 10
-64.4999999999998863
 20
-80.999895765664931
 30
0.000000000000018
 11
0.0000000000000038
 21
-80.9998957656649168
 31
0.000000000000018
210
-0.0000000000000002
220
1.0
230
-0.0000000000000002
  0
LINE
  5
1A153
  8
0
  6
CONTINUOUS
 62
     3
 10
0.000000000000031
 20
-80.9998957656649168
 30
0.000000000000018
 11
64.4999999999999147
 21
-80.9998957656649168
 31
0.000000000000018
210
-0.0000000000000002
220
1.0
230
-0.0000000000000002
  0
LINE
  5
1A154
  8
0
  6
CONTINUOUS
 62
     3
 10
-71.5000000000000711
 20
-50.0000000000003126
 30
0.0000000000000111
 11
-0.0000000000000031
 21
-50.0000000000002984
 31
0.0000000000000111
210
-0.0000000000000002
220
1.0
230
-0.0000000000000002
  0
LINE
  5
1A155
  8
0
  6
CONTINUOUS
 62
     3
 10
0.0000000000000117
 20
-50.0000000000002984
 30
0.0000000000000111
 11
71.5000000000000995
 21
-50.0000000000002771
 31
0.0000000000000111
210
-0.0000000000000002
220
1.0
230
-0.0000000000000002
  0
ARC
  5
1A156
  8
0
  6
CONTINUOUS
 62
     3
 10
70.9999999999999858
 20
-57.9998957656649026
 30
0.0
 40
0.999999999999993
210
0.0
220
-0.0000000000000002
230
-1.0
 50
89.9999999999991758
 51
180.0000000000003979
  0
ARC
  5
1A157
  8
0
  6
CONTINUOUS
 62
     3
 10
-71.0000000000000142
 20
-57.9998957656648599
 30
0.0
 40
0.9999999999999859
210
0.0
220
-0.0000000000000002
230
-1.0
 50
359.9999999999996021
 51
90.0000000000007958
  0
LINE
  5
1A158
  8
0
  6
CONTINUOUS
 62
     3
 10
70.0000000000000284
 20
-57.999895765664867
 30
0.0000000000000129
 11
70.0000000000000284
 21
-58.9998957656648599
 31
0.0000000000000131
210
-0.0000000000000002
220
1.0
230
-0.0000000000000002
  0
LINE
  5
1A159
  8
0
  6
CONTINUOUS
 62
     3
 10
-70.0
 20
-57.9998957656649097
 30
0.0000000000000129
 11
-70.0
 21
-58.9998957656649097
 31
0.0000000000000131
210
-0.0000000000000002
220
1.0
230
-0.0000000000000002
  0
ARC
  5
1A15A
  8
0
  6
CONTINUOUS
 62
     3
 10
70.9999999999999858
 20
-58.9998957656649168
 30
0.0
 40
0.9999999999999859
210
0.0
220
-0.0000000000000002
230
-1.0
 50
179.9999999999996021
 51
270.0000000000007958
  0
ARC
  5
1A15B
  8
0
  6
CONTINUOUS
 62
     3
 10
-71.0000000000000142
 20
-58.999895765664867
 30
0.0
 40
0.999999999999993
210
0.0
220
-0.0000000000000002
230
-1.0
 50
270.0
 51
0.0000000000012086
  0
LINE
  5
1A15C
  8
0
  6
CONTINUOUS
 62
     3
 10
71.4801488286690585
 20
-59.999895765664867
 30
0.0000000000000133
 11
73.3000000000000398
 21
-64.9998957656648741
 31
0.0000000000000144
210
-0.0000000000000002
220
1.0
230
-0.0000000000000002
  0
LINE
  5
1A15D
  8
0
  6
CONTINUOUS
 62
     3
 10
-71.4801488286690301
 20
-59.9998957656649097
 30
0.0000000000000133
 11
-73.3000000000000114
 21
-64.9998957656649026
 31
0.0000000000000144
210
-0.0000000000000002
220
1.0
230
-0.0000000000000002
  0
LINE
  5
1A15E
  8
0
  6
CONTINUOUS
 62
     3
 10
73.3000000000000398
 20
-64.9998957656648741
 30
0.0000000000000144
 11
73.3000000000000398
 21
-68.0998957656648969
 31
0.0000000000000151
210
-0.0000000000000002
220
1.0
230
-0.0000000000000002
  0
LINE
  5
1A15F
  8
0
  6
CONTINUOUS
 62
     3
 10
-73.3000000000000114
 20
-64.9998957656649026
 30
0.0000000000000144
 11
-73.3000000000000114
 21
-68.0998957656649253
 31
0.0000000000000151
210
-0.0000000000000002
220
1.0
230
-0.0000000000000002
  0
LINE
  5
1A160
  8
0
  6
CONTINUOUS
 62
     3
 10
73.3000000000000398
 20
-68.0998957656648969
 30
0.0000000000000151
 11
75.7000000000000739
 21
-70.4998957656648741
 31
0.0000000000000157
210
-0.0000000000000002
220
1.0
230
-0.0000000000000002
  0
LINE
  5
1A161
  8
0
  6
CONTINUOUS
 62
     3
 10
-73.3000000000000114
 20
-68.0998957656649253
 30
0.0000000000000151
 11
-75.7000000000000455
 21
-70.4998957656649026
 31
0.0000000000000157
210
-0.0000000000000002
220
1.0
230
-0.0000000000000002
  0
LINE
  5
1A162
  8
0
  6
CONTINUOUS
 62
     3
 10
75.7000000000000739
 20
-70.4998957656648741
 30
0.0000000000000157
 11
75.7000000000000739
 21
-71.4998957656648741
 31
0.0000000000000159
210
-0.0000000000000002
220
1.0
230
-0.0000000000000002
  0
LINE
  5
1A163
  8
0
  6
CONTINUOUS
 62
     3
 10
-75.7000000000000455
 20
-70.4998957656649026
 30
0.0000000000000157
 11
-75.7000000000000455
 21
-71.4998957656649026
 31
0.0000000000000159
210
-0.0000000000000002
220
1.0
230
-0.0000000000000002
  0
LINE
  5
1A164
  8
0
  6
CONTINUOUS
 62
     3
 10
-73.5
 20
-73.699895765664948
 30
0.0000000000000164
 11
-75.7000000000000455
 21
-71.4998957656649026
 31
0.0000000000000159
210
-0.0000000000000002
220
1.0
230
-0.0000000000000002
  0
LINE
  5
1A165
  8
0
  6
CONTINUOUS
 62
     3
 10
73.5000000000000284
 20
-73.6998957656649196
 30
0.0000000000000164
 11
75.7000000000000739
 21
-71.4998957656648741
 31
0.0000000000000159
210
-0.0000000000000002
220
1.0
230
-0.0000000000000002
  0
LINE
  5
1A166
  8
0
  6
CONTINUOUS
 62
     3
 10
73.5000000000000284
 20
-73.6998957656649196
 30
0.0000000000000164
 11
73.5000000000000284
 21
-76.1893839890133364
 31
0.0000000000000169
210
-0.0000000000000002
220
1.0
230
-0.0000000000000002
  0
LINE
  5
1A167
  8
0
  6
CONTINUOUS
 62
     3
 10
-73.5
 20
-73.699895765664948
 30
0.0000000000000164
 11
-73.5
 21
-76.1893839890133648
 31
0.0000000000000169
210
-0.0000000000000002
220
1.0
230
-0.0000000000000002
  0
LINE
  5
1A168
  8
0
  6
CONTINUOUS
 62
     3
 10
73.5000000000000284
 20
-76.1893839890133364
 30
0.0000000000000169
 11
75.7000000000000739
 21
-79.9998957656648741
 31
0.0000000000000178
210
-0.0000000000000002
220
1.0
230
-0.0000000000000002
  0
LINE
  5
1A169
  8
0
  6
CONTINUOUS
 62
     3
 10
-73.5
 20
-76.1893839890133648
 30
0.0000000000000169
 11
-75.7000000000000455
 21
-79.9998957656649026
 31
0.0000000000000178
210
-0.0000000000000002
220
1.0
230
-0.0000000000000002
  0
ARC
  5
1A16A
  8
0
  6
CONTINUOUS
 62
     3
 10
64.4999999999998863
 20
-74.999895765665002
 30
0.0
 40
5.9999999999999014
210
0.0
220
-0.0000000000000002
230
-1.0
 50
270.0
 51
303.5573097619209761
  0
ARC
  5
1A16B
  8
0
  6
CONTINUOUS
 62
     3
 10
-64.4999999999999147
 20
-74.9998957656649736
 30
0.0
 40
5.9999999999999041
210
0.0
220
-0.0000000000000002
230
-1.0
 50
236.4426902380789102
 51
270.0
  0
ARC
  5
1A16C
  8
0
  6
CONTINUOUS
 62
     3
 10
71.4758400866410426
 20
-52.7998957656649281
 30
0.0
 40
2.8000000000000238
210
0.0
220
-0.0000000000000002
230
-1.0
 50
15.0000000000003393
 51
89.5056149120653259
  0
ARC
  5
1A16D
  8
0
  6
CONTINUOUS
 62
     3
 10
-71.475840086641071
 20
-52.7998957656648926
 30
0.0
 40
2.8000000000000211
210
0.0
220
-0.0000000000000002
230
-1.0
 50
90.4943850879346172
 51
164.9999999999996021
  0
LINE
  5
1A16E
  8
0
  6
CONTINUOUS
 62
     3
 10
74.1804324002504529
 20
-52.0752024393777972
 30
0.0000000000000116
 11
75.5000000000000284
 21
-56.999895765664867
 31
0.0000000000000127
210
-0.0000000000000002
220
1.0
230
-0.0000000000000002
  0
LINE
  5
1A16F
  8
0
  6
CONTINUOUS
 62
     3
 10
-74.1804324002504245
 20
-52.075202439377847
 30
0.0000000000000116
 11
-75.5
 21
-56.9998957656649026
 31
0.0000000000000127
210
-0.0000000000000002
220
1.0
230
-0.0000000000000002
  0
LINE
  5
1A170
  8
0
  6
CONTINUOUS
 62
     3
 10
-72.1603532929806022
 20
50.9999999999997229
 30
-0.0000000000000113
 11
72.1603532929805169
 21
50.9999999999997726
 31
-0.0000000000000113
210
-0.0000000000000002
220
1.0
230
-0.0000000000000002
  0
CIRCLE
  5
1A171
  8
0
  6
CONTINUOUS
 62
     3
 10
130.0
 20
148.9999999999996874
 30
0.0
 40
4.0
210
0.0
220
-0.0000000000000002
230
-1.0
  0
CIRCLE
  5
1A172
  8
0
  6
CONTINUOUS
 62
     3
 10
-130.0
 20
148.9999999999996874
 30
0.0
 40
4.0
210
0.0
220
-0.0000000000000002
230
-1.0
  0
ARC
  5
1A173
  8
0
  6
CONTINUOUS
 62
     3
 10
130.0
 20
148.9999999999996874
 30
0.0
 40
20.0
210
0.0
220
-0.0000000000000002
230
-1.0
 50
0.0
 51
89.9999999999999858
  0
LINE
  5
1A174
  8
0
  6
CONTINUOUS
 62
     3
 10
130.0
 20
168.999999999999801
 30
-0.0000000000000375
 11
-130.0
 21
168.9999999999996874
 31
-0.0000000000000375
210
-0.0000000000000002
220
1.0
230
-0.0000000000000002
  0
LINE
  5
1A175
  8
0
  6
CONTINUOUS
 62
     3
 10
-150.0
 20
148.9999999999996874
 30
-0.0000000000000331
 11
-150.0
 21
72.9999999999997158
 31
-0.0000000000000162
210
-0.0000000000000002
220
1.0
230
-0.0000000000000002
  0
LINE
  5
1A176
  8
0
  6
CONTINUOUS
 62
     3
 10
150.0
 20
148.999999999999801
 30
-0.0000000000000331
 11
150.0
 21
72.9999999999997726
 31
-0.0000000000000162
210
-0.0000000000000002
220
1.0
230
-0.0000000000000002
  0
ARC
  5
1A177
  8
0
  6
CONTINUOUS
 62
     3
 10
-130.0
 20
148.999999999999801
 30
0.0
 40
20.0
210
0.0
220
-0.0000000000000002
230
-1.0
 50
89.9999999999999858
 51
180.0
  0
LINE
  5
1A178
  8
0
  6
CONTINUOUS
 62
     3
 10
150.0
 20
70.9999999999997868
 30
-0.0000000000000158
 11
150.0
 21
72.9999999999997868
 31
-0.0000000000000162
210
-0.0000000000000002
220
1.0
230
-0.0000000000000002
  0
LINE
  5
1A179
  8
0
  6
CONTINUOUS
 62
     3
 10
150.0
 20
70.9999999999997726
 30
-0.0000000000000158
 11
150.0
 21
68.9999999999997726
 31
-0.0000000000000153
210
-0.0000000000000002
220
1.0
230
-0.0000000000000002
  0
LINE
  5
1A17A
  8
0
  6
CONTINUOUS
 62
     3
 10
-150.0
 20
72.9999999999997016
 30
-0.0000000000000162
 11
-150.0
 21
70.9999999999997016
 31
-0.0000000000000158
210
-0.0000000000000002
220
1.0
230
-0.0000000000000002
  0
LINE
  5
1A17B
  8
0
  6
CONTINUOUS
 62
     3
 10
-150.0000000000001137
 20
70.9999999999996874
 30
-0.0000000000000158
 11
150.0
 21
70.9999999999997726
 31
-0.0000000000000158
210
-0.0000000000000002
220
1.0
230
-0.0000000000000002
  0
LINE
  5
1A17C
  8
0
  6
CONTINUOUS
 62
     3
 10
-150.0
 20
70.9999999999996874
 30
-0.0000000000000158
 11
-150.0
 21
68.9999999999996874
 31
-0.0000000000000153
210
-0.0000000000000002
220
1.0
230
-0.0000000000000002
  0
LINE
  5
1A17D
  8
0
  6
CONTINUOUS
 62
     3
 10
-150.0000000000001137
 20
68.9999999999996874
 30
-0.0000000000000153
 11
150.0
 21
68.9999999999997726
 31
-0.0000000000000153
210
-0.0000000000000002
220
1.0
230
-0.0000000000000002
  0
ARC
  5
1A17E
  8
0
  6
CONTINUOUS
 62
     3
 10
77.5000000000000711
 20
65.49999999999973
 30
0.0
 40
3.5000000000000142
210
0.0
220
-0.0000000000000002
230
-1.0
 50
90.0000000000002132
 51
192.8280495223827131
  0
ARC
  5
1A17F
  8
0
  6
CONTINUOUS
 62
     3
 10
-77.4999999999999858
 20
65.4999999999997442
 30
0.0
 40
3.5000000000000142
210
0.0
220
-0.0000000000000002
230
-1.0
 50
347.1719504776172016
 51
89.9999999999997584
  0
ARC
  5
1A180
  8
0
  6
CONTINUOUS
 62
     3
 10
57.9673251498186204
 20
61.0522281027256426
 30
0.0
 40
16.53267485018144
210
0.0
220
-0.0000000000000002
230
-1.0
 50
342.780302727054675
 51
12.8280495223827504
  0
ARC
  5
1A181
  8
0
  6
CONTINUOUS
 62
     3
 10
-57.9673251498189899
 20
61.0522281027256568
 30
0.0
 40
16.5326748501809888
210
0.0
220
-0.0000000000000002
230
-1.0
 50
167.1719504776168037
 51
197.2196972729456945
  0
LINE
  5
1A182
  8
0
  6
CONTINUOUS
 62
     3
 10
-72.1603532929806164
 20
50.9999999999997229
 30
-0.0000000000000113
 11
-73.7589500707291137
 21
56.1579538910472493
 31
-0.0000000000000125
210
-0.0000000000000002
220
1.0
230
-0.0000000000000002
  0
LINE
  5
1A183
  8
0
  6
CONTINUOUS
 62
     3
 10
72.1603532929805311
 20
50.9999999999997726
 30
-0.0000000000000113
 11
73.7589500707290284
 21
56.157953891047292
 31
-0.0000000000000125
210
-0.0000000000000002
220
1.0
230
-0.0000000000000002
  0
LINE
  5
1A184
  8
0
  6
CONTINUOUS
 62
     3
 10
-72.0000000000485159
 20
72.99999999999973
 30
-0.0000000000000162
 11
72.0000000000484732
 21
72.9999999999997442
 31
-0.0000000000000162
210
-0.0000000000000002
220
1.0
230
-0.0000000000000002
  0
LINE
  5
1A185
  8
0
  6
CONTINUOUS
 62
     3
 10
-65.7000000000000028
 20
-0.0000000000003028
 30
0.0
 11
65.7000000000000028
 21
-0.0000000000002656
 31
0.0
210
-0.0000000000000002
220
1.0
230
-0.0000000000000002
  0
LINE
  5
1A186
  8
0
  6
CONTINUOUS
 62
     3
 10
-68.4246378256498957
 20
48.2017394338644465
 30
-0.0000000000000107
 11
-69.5194308710117639
 21
50.99999999999973
 31
-0.0000000000000113
210
-0.0000000000000002
220
1.0
230
-0.0000000000000002
  0
LINE
  5
1A187
  8
0
  6
CONTINUOUS
 62
     3
 10
68.4246378256498673
 20
48.2017394338644891
 30
-0.0000000000000107
 11
69.5194308710117497
 21
50.9999999999997584
 31
-0.0000000000000113
210
-0.0000000000000002
220
1.0
230
-0.0000000000000002
  0
ARC
  5
1A188
  8
0
  6
CONTINUOUS
 62
     3
 10
94.50000000000054
 20
37.9999999999995879
 30
0.0
 40
28.0000000000005187
210
0.0
220
-0.0000000000000002
230
-1.0
 50
158.6325470100904909
 51
179.9999999999996874
  0
ARC
  5
1A189
  8
0
  6
CONTINUOUS
 62
     3
 10
-94.5000000000001137
 20
37.9999999999997513
 30
0.0
 40
28.0000000000001101
210
0.0
220
-0.0000000000000002
230
-1.0
 50
0.0
 51
21.3674529899094594
  0
LINE
  5
1A18A
  8
0
  6
CONTINUOUS
 62
     3
 10
72.0000000000485016
 20
72.9999999999997442
 30
-0.0000000000000162
 11
72.0000000000485016
 21
70.9999999999997442
 31
-0.0000000000000158
210
-0.0000000000000002
220
1.0
230
-0.0000000000000002
  0
LINE
  5
1A18B
  8
0
  6
CONTINUOUS
 62
     3
 10
-72.0000000000485301
 20
72.99999999999973
 30
-0.0000000000000162
 11
-72.0000000000485301
 21
70.9999999999997158
 31
-0.0000000000000158
210
-0.0000000000000002
220
1.0
230
-0.0000000000000002
  0
ARC
  5
1A18C
  8
0
  6
CONTINUOUS
 62
     3
 10
65.5000000000049312
 20
8.0498756211203002
 30
0.0
 40
0.9999999999950832
210
0.0
220
-0.0000000000000002
230
-1.0
 50
354.2894068624837018
 51
0.0000000000114882
  0
ARC
  5
1A18D
  8
0
  6
CONTINUOUS
 62
     3
 10
-65.5000000000049596
 20
8.0498756211203357
 30
0.0
 40
0.9999999999950548
210
0.0
220
-0.0000000000000002
230
-1.0
 50
179.9999999999884039
 51
185.7105931375162129
  0
LINE
  5
1A18E
  8
0
  6
CONTINUOUS
 62
     3
 10
66.5
 20
37.9999999999997371
 30
-0.0000000000000084
 11
66.5000000000000142
 21
8.0498756211205382
 31
-0.0000000000000018
210
-0.0000000000000002
220
1.0
230
-0.0000000000000002
  0
LINE
  5
1A18F
  8
0
  6
CONTINUOUS
 62
     3
 10
-66.5000000000000284
 20
37.9999999999997016
 30
-0.0000000000000084
 11
-66.5000000000000142
 21
8.0498756211205027
 31
-0.0000000000000018
210
-0.0000000000000002
220
1.0
230
-0.0000000000000002
  0
LINE
  5
1A190
  8
0
  6
CONTINUOUS
 62
     3
 10
-65.7000000000000171
 20
-0.0000000000003037
 30
0.0
 11
-66.4950371902099988
 21
7.9503719020995023
 31
-0.0000000000000018
210
-0.0000000000000002
220
1.0
230
-0.0000000000000002
  0
LINE
  5
1A191
  8
0
  6
CONTINUOUS
 62
     3
 10
65.7000000000000171
 20
-0.0000000000002665
 30
0.0
 11
66.4950371902099988
 21
7.9503719020995414
 31
-0.0000000000000018
210
-0.0000000000000002
220
1.0
230
-0.0000000000000002
  0
LINE
  5
1A192
  8
0
  6
VERDECKT
 62
     1
 10
-70.7000000000000455
 20
-76.9998957656649026
 30
0.0000000000000171
 11
0.0000000000000029
 21
-76.9998957656648884
 31
0.0000000000000171
210
-0.0000000000000002
220
1.0
230
-0.0000000000000002
  0
LINE
  5
1A193
  8
0
  6
VERDECKT
 62
     1
 10
0.0000000000000246
 20
-76.9998957656648884
 30
0.0000000000000171
 11
70.7000000000000739
 21
-76.9998957656648741
 31
0.0000000000000171
210
-0.0000000000000002
220
1.0
230
-0.0000000000000002
  0
LINE
  5
1A194
  8
0
  6
VERDECKT
 62
     1
 10
-61.4999999999999929
 20
-78.9998957656649026
 30
0.0000000000000175
 11
0.0000000000000104
 21
-78.9998957656648884
 31
0.0000000000000175
210
-0.0000000000000002
220
1.0
230
-0.0000000000000002
  0
LINE
  5
1A195
  8
0
  6
VERDECKT
 62
     1
 10
0.0000000000000267
 20
-78.9998957656648884
 30
0.0000000000000175
 11
61.5000000000000284
 21
-78.9998957656648741
 31
0.0000000000000175
210
-0.0000000000000002
220
1.0
230
-0.0000000000000002
  0
LINE
  5
1A196
  8
0
  6
VERDECKT
 62
     1
 10
70.7000000000000739
 20
-76.9998957656648741
 30
0.0000000000000171
 11
73.7000000000000739
 21
-79.9998957656648741
 31
0.0000000000000178
210
-0.0000000000000002
220
1.0
230
-0.0000000000000002
  0
LINE
  5
1A197
  8
0
  6
VERDECKT
 62
     1
 10
-70.7000000000000455
 20
-76.9998957656649026
 30
0.0000000000000171
 11
-73.7000000000000455
 21
-79.9998957656649026
 31
0.0000000000000178
210
-0.0000000000000002
220
1.0
230
-0.0000000000000002
  0
ARC
  5
1A198
  8
0
  6
VERDECKT
 62
     1
 10
64.4999999999997442
 20
-74.9998957656648884
 30
0.0
 40
6.000000000000079
210
0.0
220
-0.0000000000000002
230
-1.0
 50
303.5573097619216014
 51
340.5287793655097062
  0
ARC
  5
1A199
  8
0
  6
VERDECKT
 62
     1
 10
-64.4999999999997726
 20
-74.9998957656648599
 30
0.0
 40
6.000000000000079
210
0.0
220
-0.0000000000000002
230
-1.0
 50
199.4712206344902086
 51
236.4426902380783986
  0
LINE
  5
1A19A
  8
0
  6
VERDECKT
 62
     1
 10
61.5000000000000284
 20
-78.9998957656648741
 30
0.0000000000000175
 11
61.5000000000000284
 21
-80.9998957656648884
 31
0.000000000000018
210
-0.0000000000000002
220
1.0
230
-0.0000000000000002
  0
LINE
  5
1A19B
  8
0
  6
VERDECKT
 62
     1
 10
-61.5
 20
-78.9998957656649026
 30
0.0000000000000175
 11
-61.4999999999999929
 21
-80.9998957656649168
 31
0.000000000000018
210
-0.0000000000000002
220
1.0
230
-0.0000000000000002
  0
ARC
  5
1A19C
  8
0
  6
VERDECKT
 62
     1
 10
61.5000000000000213
 20
-72.9998957656649168
 30
0.0
 40
5.9999999999999858
210
0.0
220
-0.0000000000000002
230
-1.0
 50
270.0
 51
0.0000000000003308
  0
ARC
  5
1A19D
  8
0
  6
VERDECKT
 62
     1
 10
-61.5000000000000497
 20
-72.9998957656648741
 30
0.0
 40
5.9999999999999787
210
0.0
220
-0.0000000000000002
230
-1.0
 50
179.999999999999801
 51
270.0000000000002274
  0
LINE
  5
1A19E
  8
0
  6
VERDECKT
 62
     1
 10
67.5000000000000284
 20
-56.999895765664867
 30
0.0000000000000127
 11
67.5000000000000284
 21
-72.9998957656648741
 31
0.0000000000000162
210
-0.0000000000000002
220
1.0
230
-0.0000000000000002
  0
LINE
  5
1A19F
  8
0
  6
VERDECKT
 62
     1
 10
-67.5
 20
-56.9998957656649026
 30
0.0000000000000127
 11
-67.5
 21
-72.9998957656649026
 31
0.0000000000000162
210
-0.0000000000000002
220
1.0
230
-0.0000000000000002
  0
LINE
  5
1A1A0
  8
0
  6
VERDECKT
 62
     1
 10
-67.5
 20
-56.9998957656649026
 30
0.0000000000000127
 11
-68.8195675997495044
 21
-52.0752024393778683
 31
0.0000000000000116
210
-0.0000000000000002
220
1.0
230
-0.0000000000000002
  0
LINE
  5
1A1A1
  8
0
  6
VERDECKT
 62
     1
 10
67.5000000000000284
 20
-56.999895765664867
 30
0.0000000000000127
 11
68.8195675997495329
 21
-52.0752024393778328
 31
0.0000000000000116
210
-0.0000000000000002
220
1.0
230
-0.0000000000000002
  0
ARC
  5
1A1A2
  8
0
  6
VERDECKT
 62
     1
 10
71.5241599133589148
 20
-52.7998957656649424
 30
0.0
 40
2.8000000000000269
210
0.0
220
-0.0000000000000002
230
-1.0
 50
90.494385087931164
 51
165.0
  0
ARC
  5
1A1A3
  8
0
  6
VERDECKT
 62
     1
 10
-71.5241599133589574
 20
-52.7998957656648997
 30
0.0
 40
2.800000000000034
210
0.0
220
-0.0000000000000002
230
-1.0
 50
14.9999999999999893
 51
89.5056149120688076
  0
LINE
  5
1A1A4
  8
0
  6
VERDECKT
 62
     1
 10
-70.2500000000000711
 20
51.5920728806473221
 30
-0.0000000000000115
 11
70.2499999999999432
 21
51.5920728806473576
 31
-0.0000000000000115
210
-0.0000000000000002
220
1.0
230
-0.0000000000000002
  0
LINE
  5
1A1A5
  8
0
  6
VERDECKT
 62
     1
 10
70.2499999999999716
 20
51.5920728806473718
 30
-0.0000000000000115
 11
72.1603532929805311
 21
50.9999999999997797
 31
-0.0000000000000113
210
-0.0000000000000002
220
1.0
230
-0.0000000000000002
  0
LINE
  5
1A1A6
  8
0
  6
VERDECKT
 62
     1
 10
-70.2500000000000568
 20
51.5920728806473292
 30
-0.0000000000000115
 11
-72.1603532929806164
 21
50.99999999999973
 31
-0.0000000000000113
210
-0.0000000000000002
220
1.0
230
-0.0000000000000002
  0
LINE
  5
1A1A7
  8
0
  6
VERDECKT
 62
     1
 10
-70.2500000000000568
 20
51.5920728806473221
 30
-0.0000000000000115
 11
-71.8485967777485541
 21
56.7500267716948414
 31
-0.0000000000000126
210
-0.0000000000000002
220
1.0
230
-0.0000000000000002
  0
LINE
  5
1A1A8
  8
0
  6
VERDECKT
 62
     1
 10
70.2499999999999716
 20
51.5920728806473576
 30
-0.0000000000000115
 11
71.8485967777484689
 21
56.750026771694877
 31
-0.0000000000000126
210
-0.0000000000000002
220
1.0
230
-0.0000000000000002
  0
ARC
  5
1A1A9
  8
0
  6
VERDECKT
 62
     1
 10
57.9673251498189899
 20
61.0522281027256426
 30
0.0
 40
14.5326748501810901
210
0.0
220
-0.0000000000000002
230
-1.0
 50
342.7803027270542202
 51
12.8280495223830897
  0
ARC
  5
1A1AA
  8
0
  6
VERDECKT
 62
     1
 10
-57.967325149818933
 20
61.052228102725671
 30
0.0
 40
14.5326748501810492
210
0.0
220
-0.0000000000000002
230
-1.0
 50
167.1719504776168037
 51
197.2196972729456945
  0
ARC
  5
1A1AB
  8
0
  6
VERDECKT
 62
     1
 10
77.5000000000000711
 20
65.49999999999973
 30
0.0
 40
5.5000000000000293
210
0.0
220
-0.0000000000000002
230
-1.0
 50
90.0000000000001421
 51
192.8280495223827131
  0
ARC
  5
1A1AC
  8
0
  6
VERDECKT
 62
     1
 10
-77.4999999999999858
 20
65.4999999999997442
 30
0.0
 40
5.5000000000000258
210
0.0
220
-0.0000000000000002
230
-1.0
 50
347.1719504776173153
 51
89.9999999999998437
  0
LINE
  5
1A1AD
  8
0
  6
VERDECKT
 62
     1
 10
-63.7099256195317807
 20
0.1990074380465232
 30
0.0
 11
63.7099256195317594
 21
0.1990074380465594
 31
0.0
210
-0.0000000000000002
220
1.0
230
-0.0000000000000002
  0
ARC
  5
1A1AE
  8
0
  6
VERDECKT
 62
     1
 10
41.9999999999996092
 20
62.9999999999998224
 30
0.0
 40
30.0000000000004192
210
0.0
220
-0.0000000000000002
230
-1.0
 50
338.6325470100906045
 51
359.9999999999997726
  0
ARC
  5
1A1AF
  8
0
  6
VERDECKT
 62
     1
 10
-42.0000000000000497
 20
62.9999999999997229
 30
0.0
 40
29.9999999999999289
210
0.0
220
-0.0000000000000002
230
-1.0
 50
179.9999999999998863
 51
201.3674529899093955
  0
LINE
  5
1A1B0
  8
0
  6
VERDECKT
 62
     1
 10
-69.5194308710117639
 20
50.99999999999973
 30
-0.0000000000000113
 11
-69.937888043946586
 21
52.0695648922875094
 31
-0.0000000000000116
210
-0.0000000000000002
220
1.0
230
-0.0000000000000002
  0
LINE
  5
1A1B1
  8
0
  6
VERDECKT
 62
     1
 10
69.5194308710117497
 20
50.9999999999997584
 30
-0.0000000000000113
 11
69.9378880439465576
 21
52.0695648922875591
 31
-0.0000000000000116
210
-0.0000000000000002
220
1.0
230
-0.0000000000000002
  0
ARC
  5
1A1B2
  8
0
  6
VERDECKT
 62
     1
 10
94.5000000000002842
 20
37.99999999999973
 30
0.0
 40
30.00000000000027
210
0.0
220
-0.0000000000000002
230
-1.0
 50
158.6325470100904909
 51
180.0
  0
ARC
  5
1A1B3
  8
0
  6
VERDECKT
 62
     1
 10
-94.4999999999993037
 20
37.9999999999999503
 30
0.0
 40
29.9999999999993108
210
0.0
220
-0.0000000000000002
230
-1.0
 50
0.0
 51
21.3674529899101202
  0
LINE
  5
1A1B4
  8
0
  6
VERDECKT
 62
     1
 10
-66.5621119560534709
 20
48.9304351077119577
 30
-0.0000000000000109
 11
-68.0753621743501611
 21
52.7982605661350135
 31
-0.0000000000000117
210
-0.0000000000000002
220
1.0
230
-0.0000000000000002
  0
LINE
  5
1A1B5
  8
0
  6
VERDECKT
 62
     1
 10
66.5621119560534424
 20
48.9304351077120003
 30
-0.0000000000000109
 11
68.0753621743501327
 21
52.798260566135049
 31
-0.0000000000000117
210
-0.0000000000000002
220
1.0
230
-0.0000000000000002
  0
ARC
  5
1A1B6
  8
0
  6
VERDECKT
 62
     1
 10
42.0000000000003197
 20
62.9999999999997087
 30
0.0
 40
27.9999999999997087
210
0.0
220
-0.0000000000000002
230
-1.0
 50
338.6325470100903203
 51
0.0000000000000636
  0
ARC
  5
1A1B7
  8
0
  6
VERDECKT
 62
     1
 10
-41.9999999999999432
 20
62.9999999999997584
 30
0.0
 40
28.0000000000000391
210
0.0
220
-0.0000000000000002
230
-1.0
 50
180.0
 51
201.3674529899095091
  0
LINE
  5
1A1B8
  8
0
  6
VERDECKT
 62
     1
 10
70.0
 20
72.9999999999997442
 30
-0.0000000000000162
 11
70.0
 21
62.9999999999997797
 31
-0.000000000000014
210
-0.0000000000000002
220
1.0
230
-0.0000000000000002
  0
LINE
  5
1A1B9
  8
0
  6
VERDECKT
 62
     1
 10
-70.0000000000000284
 20
72.99999999999973
 30
-0.0000000000000162
 11
-70.0000000000000284
 21
62.9999999999997371
 31
-0.000000000000014
210
-0.0000000000000002
220
1.0
230
-0.0000000000000002
  0
LINE
  5
1A1BA
  8
0
  6
VERDECKT
 62
     1
 10
72.0000000000485016
 20
70.9999999999997442
 30
-0.0000000000000158
 11
72.0000000000485016
 21
62.9999999999997726
 31
-0.000000000000014
210
-0.0000000000000002
220
1.0
230
-0.0000000000000002
  0
LINE
  5
1A1BB
  8
0
  6
VERDECKT
 62
     1
 10
-72.0000000000485301
 20
70.9999999999997158
 30
-0.0000000000000158
 11
-72.0000000000485301
 21
62.99999999999973
 31
-0.000000000000014
210
-0.0000000000000002
220
1.0
230
-0.0000000000000002
  0
ARC
  5
1A1BC
  8
0
  6
VERDECKT
 62
     1
 10
63.4999999999806803
 20
8.1496268636070095
 30
0.0
 40
0.999999999995076
210
0.0
220
-0.0000000000000002
230
-1.0
 50
354.2894068624837018
 51
0.0000000000115009
  0
ARC
  5
1A1BD
  8
0
  6
VERDECKT
 62
     1
 10
-63.499999999980723
 20
8.1496268636070468
 30
0.0
 40
0.9999999999950405
210
0.0
220
-0.0000000000000002
230
-1.0
 50
179.9999999999886029
 51
185.7105931375164118
  0
LINE
  5
1A1BE
  8
0
  6
VERDECKT
 62
     1
 10
-63.7099256195317807
 20
0.1990074380465218
 30
0.0
 11
-64.4950371901857409
 21
8.0501231445862107
 31
-0.0000000000000018
210
-0.0000000000000002
220
1.0
230
-0.0000000000000002
  0
LINE
  5
1A1BF
  8
0
  6
VERDECKT
 62
     1
 10
63.7099256195317807
 20
0.1990074380465581
 30
0.0
 11
64.4950371901857409
 21
8.0501231445862498
 31
-0.0000000000000018
210
-0.0000000000000002
220
1.0
230
-0.0000000000000002
  0
LINE
  5
1A1C0
  8
0
  6
VERDECKT
 62
     1
 10
64.4999999999757421
 20
37.9999999999997726
 30
-0.0000000000000084
 11
64.4999999999757563
 21
8.1496268636072458
 31
-0.0000000000000018
210
-0.0000000000000002
220
1.0
230
-0.0000000000000002
  0
LINE
  5
1A1C1
  8
0
  6
VERDECKT
 62
     1
 10
-64.4999999999757705
 20
37.9999999999997229
 30
-0.0000000000000084
 11
-64.4999999999757563
 21
8.1496268636072102
 31
-0.0000000000000018
210
-0.0000000000000002
220
1.0
230
-0.0000000000000002
  0
LINE
  5
1A1C2
  8
0
  6
VERDECKT
 62
     1
 10
63.7099256195317665
 20
0.1990074380465551
 30
0.0
 11
65.7000000000000171
 21
-0.0000000000002687
 31
0.0
210
-0.0000000000000002
220
1.0
230
-0.0000000000000002
  0
LINE
  5
1A1C3
  8
0
  6
VERDECKT
 62
     1
 10
-63.7099256195317665
 20
0.199007438046519
 30
0.0
 11
-65.7000000000000171
 21
-0.0000000000003059
 31
0.0
210
-0.0000000000000002
220
1.0
230
-0.0000000000000002
  0
ENDBLK
  5
1A1C5
  8
0
  0
BLOCK
  8
0
  2
A$C004237B5
 70
     0
 10
0.0
 20
0.0
 30
0.0
  3
A$C004237B5
  1

  0
CIRCLE
  5
1A1C9
  8
0
  6
CONTINUOUS
 62
     3
 10
0.0000000000001137
 20
0.0000000000000018
 30
0.0
 40
61.5
  0
LINE
  5
1A1CA
  8
0
  6
CONTINUOUS
 62
     3
 10
95.0000000000001421
 20
150.0
 30
0.0
 11
95.0000000000001421
 21
130.0
 31
0.0
  0
LINE
  5
1A1CB
  8
0
  6
CONTINUOUS
 62
     3
 10
95.0000000000001563
 20
150.0
 30
0.0
 11
93.0000000000001563
 21
150.0
 31
0.0
  0
LINE
  5
1A1CC
  8
0
  6
CONTINUOUS
 62
     3
 10
93.0000000000001563
 20
130.0
 30
0.0
 11
93.0000000000001563
 21
150.0
 31
0.0
  0
LINE
  5
1A1CD
  8
0
  6
CONTINUOUS
 62
     3
 10
93.0000000000001563
 20
-130.0
 30
0.0
 11
93.0000000000001563
 21
130.0
 31
0.0
  0
LINE
  5
1A1CE
  8
0
  6
CONTINUOUS
 62
     3
 10
95.0000000000001705
 20
130.0
 30
0.0
 11
95.0000000000001705
 21
-130.0
 31
0.0
  0
LINE
  5
1A1CF
  8
0
  6
CONTINUOUS
 62
     3
 10
93.0000000000001563
 20
-150.0
 30
0.0
 11
93.0000000000001563
 21
-130.0
 31
0.0
  0
LINE
  5
1A1D0
  8
0
  6
CONTINUOUS
 62
     3
 10
93.0000000000001563
 20
-150.0
 30
0.0
 11
95.0000000000001705
 21
-150.0
 31
0.0
  0
LINE
  5
1A1D1
  8
0
  6
CONTINUOUS
 62
     3
 10
95.0000000000001421
 20
-130.0
 30
0.0
 11
95.0000000000001421
 21
-150.0
 31
0.0
  0
LINE
  5
1A1D2
  8
0
  6
CONTINUOUS
 62
     3
 10
91.0000000000001705
 20
-150.0
 30
0.0
 11
93.0000000000001563
 21
-150.0
 31
0.0
  0
LINE
  5
1A1D3
  8
0
  6
CONTINUOUS
 62
     3
 10
91.0000000000001705
 20
-150.0
 30
0.0
 11
0.0000000000001137
 21
-150.0
 31
0.0
  0
LINE
  5
1A1D4
  8
0
  6
CONTINUOUS
 62
     3
 10
93.0000000000001563
 20
150.0
 30
0.0
 11
91.0000000000001705
 21
150.0
 31
0.0
  0
LINE
  5
1A1D5
  8
0
  6
CONTINUOUS
 62
     3
 10
0.0000000000001137
 20
150.0
 30
0.0
 11
91.0000000000001705
 21
150.0
 31
0.0
  0
ARC
  5
1A1D6
  8
0
  6
CONTINUOUS
 62
     3
 10
0.0000000000001137
 20
0.0000000000000184
 30
0.0
 40
150.0
 50
90.0
 51
270.0
  0
CIRCLE
  5
1A1D7
  8
0
  6
CONTINUOUS
 62
     3
 10
0.0000000000001399
 20
0.0000000000000021
 30
0.0
 40
64.5
  0
CIRCLE
  5
1A1D8
  8
0
  6
CONTINUOUS
 62
     3
 10
0.0000000000001377
 20
0.0000000000000043
 30
0.0
 40
69.9999999999999858
  0
CIRCLE
  5
1A1D9
  8
0
  6
CONTINUOUS
 62
     3
 10
0.0000000000001377
 20
0.0000000000000043
 30
0.0
 40
72.0000000000485016
  0
CIRCLE
  5
1A1DA
  8
0
  6
CONTINUOUS
 62
     3
 10
0.0000000000001421
 20
0.0
 30
0.0
 40
63.7099256195317594
  0
CIRCLE
  5
1A1DB
  8
0
  6
VERDECKT
 62
     1
 10
0.0000000000001137
 20
0.0000000000000031
 30
0.0
 40
75.5
  0
CIRCLE
  5
1A1DC
  8
0
  6
VERDECKT
 62
     1
 10
0.0000000000001137
 20
0.0000000000000029
 30
0.0
 40
71.4801488286690301
  0
CIRCLE
  5
1A1DD
  8
0
  6
VERDECKT
 62
     1
 10
0.0000000000001137
 20
0.0000000000000026
 30
0.0
 40
73.3000000000000114
  0
CIRCLE
  5
1A1DE
  8
0
  6
VERDECKT
 62
     1
 10
0.0000000000001137
 20
0.0000000000000023
 30
0.0
 40
75.7000000000000455
  0
CIRCLE
  5
1A1DF
  8
0
  6
VERDECKT
 62
     1
 10
0.0000000000001137
 20
0.0000000000000021
 30
0.0
 40
73.5
  0
CIRCLE
  5
1A1E0
  8
0
  6
VERDECKT
 62
     1
 10
0.0000000000001137
 20
0.0000000000000017
 30
0.0
 40
73.7000000000000455
  0
CIRCLE
  5
1A1E1
  8
0
  6
VERDECKT
 62
     1
 10
0.0000000000001137
 20
0.0000000000000019
 30
0.0
 40
70.7000000000000455
  0
CIRCLE
  5
1A1E2
  8
0
  6
VERDECKT
 62
     1
 10
0.0000000000001137
 20
0.0000000000000019
 30
0.0
 40
70.1568542494921985
  0
CIRCLE
  5
1A1E3
  8
0
  6
VERDECKT
 62
     1
 10
0.0000000000001137
 20
0.0000000000000031
 30
0.0
 40
67.5
  0
CIRCLE
  5
1A1E4
  8
0
  6
VERDECKT
 62
     1
 10
0.0000000000001137
 20
0.0000000000000314
 30
0.0
 40
72.1603532929805596
  0
CIRCLE
  5
1A1E5
  8
0
  6
VERDECKT
 62
     1
 10
0.0000000000001137
 20
0.0000000000000314
 30
0.0
 40
70.25
  0
CIRCLE
  5
1A1E6
  8
0
  6
VERDECKT
 62
     1
 10
0.0000000000001137
 20
0.0000000000000322
 30
0.0
 40
74.0
  0
CIRCLE
  5
1A1E7
  8
0
  6
VERDECKT
 62
     1
 10
0.0000000000001137
 20
0.000000000000032
 30
0.0
 40
74.5
  0
CIRCLE
  5
1A1E8
  8
0
  6
VERDECKT
 62
     1
 10
0.0000000000001137
 20
0.000000000000032
 30
0.0
 40
72.5
  0
LINE
  5
1A1E9
  8
0
  6
VERDECKT
 62
     1
 10
95.0000000000001421
 20
126.0
 30
0.0
 11
93.0000000000001563
 21
126.0
 31
0.0
  0
LINE
  5
1A1EA
  8
0
  6
VERDECKT
 62
     1
 10
95.0000000000001421
 20
134.0
 30
0.0
 11
93.0000000000001563
 21
134.0
 31
0.0
  0
LINE
  5
1A1EB
  8
0
  6
VERDECKT
 62
     1
 10
95.0000000000001421
 20
-134.0
 30
0.0
 11
93.0000000000001563
 21
-134.0
 31
0.0
  0
LINE
  5
1A1EC
  8
0
  6
VERDECKT
 62
     1
 10
95.0000000000001421
 20
-126.0
 30
0.0
 11
93.0000000000001563
 21
-126.0
 31
0.0
  0
CIRCLE
  5
1A1ED
  8
0
  6
VERDECKT
 62
     1
 10
0.0000000000001399
 20
0.0000000000000021
 30
0.0
 40
66.5
  0
CIRCLE
  5
1A1EE
  8
0
  6
VERDECKT
 62
     1
 10
0.0000000000001421
 20
0.0
 30
0.0
 40
65.7000000000000028
  0
ENDBLK
  5
1A1F0
  8
0
  0
ENDSEC
  0
SECTION
  2
ENTITIES
  0
TEXT
  5
416B
  8
VOLL
 10
441.2467849443549994
 20
195.2108867802037935
 30
0.0
 40
1.8
  1

  7
GREEKS
  0
INSERT
  5
46F1
  8
ADSK_ASSOC_ENTITY_BACKUPS
  2
*S0
 10
0.0
 20
0.0
 30
0.0
  0
INSERT
  5
1A13D
  8
STEMPEL
  2
A$C99E02D77
 10
0.0
 20
0.0
 30
0.0
  0
INSERT
  5
1A1C6
  8
STEMPEL
  2
A$C87714CDB
 10
295.0000000000002274
 20
0.0
 30
0.0
  0
INSERT
  5
1A1F1
  8
STEMPEL
  2
A$C004237B5
 10
0.0
 20
-280.9998957656649168
 30
0.000000000000018
  0
VIEWPORT
  5
46D0
 67
     1
  8
0
 10
205.7231884228515071
 20
145.4876266230467934
 30
0.0
 40
558.8319832755773859
 41
298.5191815856776998
 68
     1
 69
     1
1001
ACAD
1000
MVIEW
1002
{
1070
    16
1010
0.0
1020
0.0
1030
0.0
1010
0.0
1020
0.0
1030
1.0
1040
0.0
1040
298.5191815856776998
1040
205.7231884228515071
1040
145.4876266230467934
1040
50.0
1040
0.0
1040
0.0
1070
     0
1070
  1500
1070
     1
1070
     1
1070
     0
1070
     0
1070
     0
1070
     0
1040
0.0
1040
0.0
1040
0.0
1040
10.0
1040
10.0
1040
10.0
1040
10.0
1070
     0
1002
{
1002
}
1002
}
  0
ENDSEC
  0
EOF
