  0
SECTION
  2
HEADER
  9
$ACADVER
  1
AC1009
  9
$INSBASE
 10
0.0
 20
0.0
 30
0.0
  9
$EXTMIN
 10
-122.5165545230460964
 20
-422.0292726672827825
 30
-0.0016991708913565
  9
$EXTMAX
 10
440.0076688279017958
 20
166.0526211041174065
 30
0.0169010091768769
  9
$LIMMIN
 10
0.0
 20
0.0
  9
$LIMMAX
 10
419.9999999999998863
 20
594.0
  9
$ORTHOMODE
 70
     1
  9
$REGENMODE
 70
     1
  9
$FILLMODE
 70
     1
  9
$QTEXTMODE
 70
     0
  9
$MIRRTEXT
 70
     1
  9
$DRAGMODE
 70
     2
  9
$LTSCALE
 40
10.0
  9
$OSMODE
 70
   511
  9
$ATTMODE
 70
     1
  9
$TEXTSIZE
 40
3.5
  9
$TRACEWID
 40
1.0
  9
$TEXTSTYLE
  7
STANDARD
  9
$CLAYER
  8
STEMPEL
  9
$CELTYPE
  6
BYLAYER
  9
$CECOLOR
 62
   256
  9
$DIMSCALE
 40
1.0
  9
$DIMASZ
 40
3.5
  9
$DIMEXO
 40
1.0
  9
$DIMDLI
 40
0.38
  9
$DIMRND
 40
0.0
  9
$DIMDLE
 40
0.0
  9
$DIMEXE
 40
1.0
  9
$DIMTP
 40
0.0
  9
$DIMTM
 40
0.000000001
  9
$DIMTXT
 40
3.5
  9
$DIMCEN
 40
0.09
  9
$DIMTSZ
 40
0.0
  9
$DIMTOL
 70
     0
  9
$DIMLIM
 70
     0
  9
$DIMTIH
 70
     0
  9
$DIMTOH
 70
     0
  9
$DIMSE1
 70
     0
  9
$DIMSE2
 70
     0
  9
$DIMTAD
 70
     1
  9
$DIMZIN
 70
     8
  9
$DIMBLK
  1

  9
$DIMASO
 70
     1
  9
$DIMSHO
 70
     0
  9
$DIMPOST
  1

  9
$DIMAPOST
  1

  9
$DIMALT
 70
     0
  9
$DIMALTD
 70
     2
  9
$DIMALTF
 40
25.3999999999999986
  9
$DIMLFAC
 40
2.0
  9
$DIMTOFL
 70
     1
  9
$DIMTVP
 40
0.0
  9
$DIMTIX
 70
     0
  9
$DIMSOXD
 70
     0
  9
$DIMSAH
 70
     0
  9
$DIMBLK1
  1

  9
$DIMBLK2
  1

  9
$DIMSTYLE
  2
LORO
  9
$DIMCLRD
 70
     0
  9
$DIMCLRE
 70
     0
  9
$DIMCLRT
 70
     1
  9
$DIMTFAC
 40
0.5
  9
$DIMGAP
 40
1.5
  9
$LUNITS
 70
     2
  9
$LUPREC
 70
     2
  9
$SKETCHINC
 40
1.0
  9
$FILLETRAD
 40
2.0
  9
$AUNITS
 70
     0
  9
$AUPREC
 70
     0
  9
$MENU
  1
ACAD
  9
$ELEVATION
 40
0.0
  9
$PELEVATION
 40
0.0
  9
$THICKNESS
 40
0.0
  9
$LIMCHECK
 70
     0
  9
$BLIPMODE
 70
     0
  9
$CHAMFERA
 40
0.0
  9
$CHAMFERB
 40
0.0
  9
$SKPOLY
 70
     0
  9
$TDCREATE
 40
2455397.867048610933125
  9
$TDUPDATE
 40
2459710.6225115740671754
  9
$TDINDWG
 40
0.5145077894
  9
$TDUSRTIMER
 40
0.5145077894
  9
$USRTIMER
 70
     1
  9
$ANGBASE
 50
0.0
  9
$ANGDIR
 70
     0
  9
$PDMODE
 70
     0
  9
$PDSIZE
 40
0.0
  9
$PLINEWID
 40
0.0
  9
$COORDS
 70
     1
  9
$SPLFRAME
 70
     0
  9
$SPLINETYPE
 70
     6
  9
$SPLINESEGS
 70
     8
  9
$ATTDIA
 70
     1
  9
$ATTREQ
 70
     1
  9
$HANDLING
 70
     1
  9
$HANDSEED
  5
5F2F
  9
$SURFTAB1
 70
     6
  9
$SURFTAB2
 70
     6
  9
$SURFTYPE
 70
     6
  9
$SURFU
 70
     6
  9
$SURFV
 70
     6
  9
$UCSNAME
  2

  9
$UCSORG
 10
0.0
 20
0.0
 30
0.0
  9
$UCSXDIR
 10
1.0
 20
0.0
 30
0.0
  9
$UCSYDIR
 10
0.0
 20
1.0
 30
0.0
  9
$PUCSNAME
  2

  9
$PUCSORG
 10
0.0
 20
0.0
 30
0.0
  9
$PUCSXDIR
 10
1.0
 20
0.0
 30
0.0
  9
$PUCSYDIR
 10
0.0
 20
1.0
 30
0.0
  9
$USERI1
 70
     0
  9
$USERI2
 70
     0
  9
$USERI3
 70
     0
  9
$USERI4
 70
     0
  9
$USERI5
 70
     0
  9
$USERR1
 40
0.0
  9
$USERR2
 40
0.0
  9
$USERR3
 40
0.0
  9
$USERR4
 40
0.0
  9
$USERR5
 40
0.0
  9
$WORLDVIEW
 70
     1
  9
$SHADEDGE
 70
     3
  9
$SHADEDIF
 70
    70
  9
$TILEMODE
 70
     1
  9
$MAXACTVP
 70
    16
  9
$PLIMCHECK
 70
     0
  9
$PEXTMIN
 10
1.0000000000000000E+20
 20
1.0000000000000000E+20
 30
1.0000000000000000E+20
  9
$PEXTMAX
 10
-1.0000000000000000E+20
 20
-1.0000000000000000E+20
 30
-1.0000000000000000E+20
  9
$PLIMMIN
 10
-2.9601215226222339
 20
-2.0980251112416379
  9
$PLIMMAX
 10
596.979878477377838
 20
422.1019748887583773
  9
$UNITMODE
 70
     0
  9
$VISRETAIN
 70
     0
  9
$PLINEGEN
 70
     0
  9
$PSLTSCALE
 70
     0
  0
ENDSEC
  0
SECTION
  2
TABLES
  0
TABLE
  2
VPORT
 70
     1
  0
VPORT
  2
*ACTIVE
 70
     0
 10
0.0
 20
0.0
 11
1.0
 21
1.0
 12
158.7455571524278071
 22
-149.738325781582688
 13
0.0
 23
0.0
 14
1.0
 24
1.0
 15
10.0
 25
10.0
 16
-0.0000000000002165
 26
0.0
 36
974.8564970599580874
 17
0.0
 27
21.75
 37
-0.0000000000000099
 40
591.0899852996426489
 41
1.872013651877132
 42
50.0
 43
0.0
 44
0.0
 50
0.0
 51
0.0
 71
     0
 72
  1500
 73
     1
 74
     0
 75
     0
 76
     0
 77
     0
 78
     0
  0
ENDTAB
  0
TABLE
  2
LTYPE
 70
     3
  0
LTYPE
  2
CONTINUOUS
 70
     0
  3
Solid line
 72
    65
 73
     0
 40
0.0
  0
LTYPE
  2
STRICHPUNKT
 70
     0
  3
__ . __ . __ . __ . __ . __ . __ . __ . __ . __
 72
    65
 73
     4
 40
1.0
 49
0.5
 49
-0.25
 49
0.0
 49
-0.25
  0
LTYPE
  2
VERDECKT
 70
     0
  3
Verdeckt __ __ __ __ __ __ __ __ __ __ __ __ __
 72
    65
 73
     2
 40
0.375
 49
0.25
 49
-0.125
  0
ENDTAB
  0
TABLE
  2
LAYER
 70
     8
  0
LAYER
  2
0
 70
     0
 62
     7
  6
CONTINUOUS
  0
LAYER
  2
VOLL
 70
     0
 62
     1
  6
CONTINUOUS
  0
LAYER
  2
BEM
 70
     0
 62
     7
  6
CONTINUOUS
  0
LAYER
  2
STEMPEL
 70
     0
 62
     3
  6
CONTINUOUS
  0
LAYER
  2
DEFPOINTS
 70
     0
 62
     7
  6
CONTINUOUS
  0
LAYER
  2
ADSK_ASSOC_ENTITY_BACKUPS
 70
     1
 62
    -7
  6
CONTINUOUS
  0
ENDTAB
  0
TABLE
  2
STYLE
 70
     3
  0
STYLE
  2
STANDARD
 70
     0
 40
0.0
 41
0.8
 50
0.0
 71
     0
 42
3.5
  3
simplex.shx
  4

  0
STYLE
  2
GREEKS
 70
     0
 40
0.0
 41
0.8
 50
0.0
 71
     0
 42
2.5
  3
SIMPLEX.shx
  4

  0
ENDTAB
  0
TABLE
  2
VIEW
 70
     0
  0
ENDTAB
  0
TABLE
  2
UCS
 70
     0
  0
ENDTAB
  0
TABLE
  2
APPID
 70
    27
  0
APPID
  2
ACAD
 70
     0
  0
APPID
  2
ACAECLAYERSTANDARD
 70
     0
  0
APPID
  2
ACCMTRANSPARENCY
 70
     0
  0
APPID
  2
ACAD_NAV_VCDISPLAY
 70
     0
  0
APPID
  2
ACAD_PSEXT
 70
     0
  0
APPID
  2
ACAD_EXEMPT_FROM_CAD_STANDARDS
 70
     0
  0
APPID
  2
ACSYNERGY
 70
     0
  0
APPID
  2
SYNERGY_BODY_TBR_ID
 70
     0
  0
APPID
  2
ACAD_VIEW_EDGE_ID
 70
     0
  0
APPID
  2
ACSYNERGYSKETCH
 70
     0
  0
APPID
  2
ACAD_MODELDOC_XFORM
 70
     0
  0
APPID
  2
ACAD_MLEADERVER
 70
     0
  0
APPID
  2
ACADANNOMONITORALERTICONDI
 70
     0
  0
APPID
  2
ACAD_DSTYLE_DIMJAG
 70
     0
  0
APPID
  2
ACAD_DSTYLE_DIMTALN
 70
     0
  0
APPID
  2
ACAD_STEPID
 70
     0
  0
APPID
  2
ACDBDYNAMICBLOCKGUID
 70
     0
  0
APPID
  2
ACADANNOAV
 70
     0
  0
APPID
  2
ACADANNOPO
 70
     0
  0
APPID
  2
ACAD_DIMASSOC_CALC_DIMLFAC
 70
     0
  0
APPID
  2
ACAD_DIMASSOC_DIMLFAC
 70
     0
  0
APPID
  2
ACAD_DIMASSOC_OVERRIDDEN_D
 70
     0
  0
APPID
  2
ACAD_DSTYLE_DIMRADIAL_EXTENSION
 70
     0
  0
APPID
  2
GRADIENTCOLOR1ACI
 70
     0
  0
APPID
  2
GRADIENTCOLOR2ACI
 70
     0
  0
APPID
  2
ACAD_TC
 70
     0
  0
APPID
  2
ACAD_DSTYLE_DIMBREAK
 70
     0
  0
ENDTAB
  0
TABLE
  2
DIMSTYLE
 70
     2
  0
DIMSTYLE
  2
STANDARD
 70
     0
  3

  4

  5

  6

  7

 40
1.0
 41
0.18
 42
0.0625
 43
0.38
 44
0.18
 45
0.0
 46
0.0
 47
0.0
 48
0.0
140
0.18
141
0.09
142
0.0
143
25.3999999999999986
144
1.0
145
0.0
146
1.0
147
0.09
 71
     0
 72
     0
 73
     1
 74
     1
 75
     0
 76
     0
 77
     0
 78
     0
170
     0
171
     2
172
     0
173
     0
174
     0
175
     0
176
     0
177
     0
178
     0
  0
DIMSTYLE
  2
LORO
 70
     0
  3

  4

  5

  6

  7

 40
1.0
 41
3.5
 42
1.0
 43
0.38
 44
1.0
 45
0.0
 46
0.0
 47
0.0
 48
0.000000001
140
3.5
141
0.09
142
0.0
143
25.3999999999999986
144
2.0
145
0.0
146
0.5
147
1.5
 71
     0
 72
     0
 73
     0
 74
     0
 75
     0
 76
     0
 77
     1
 78
     8
170
     0
171
     2
172
     1
173
     0
174
     0
175
     0
176
     0
177
     0
178
     1
  0
ENDTAB
  0
ENDSEC
  0
SECTION
  2
BLOCKS
  0
BLOCK
  8
0
  2
$MODEL_SPACE
 70
     0
 10
0.0
 20
0.0
 30
0.0
  3
$MODEL_SPACE
  1

  0
ENDBLK
  5
38
  8
0
  0
BLOCK
 67
     1
  8
0
  2
$PAPER_SPACE
 70
     0
 10
0.0
 20
0.0
 30
0.0
  3
$PAPER_SPACE
  1

  0
ENDBLK
  5
36
 67
     1
  8
0
  0
BLOCK
  8
0
  2
*S0
 70
     1
 10
0.0
 20
0.0
 30
0.0
  3
*S0
  1

  0
ENDBLK
  5
ACE
  8
0
  0
BLOCK
  8
0
  2
_NONE
 70
     0
 10
0.0
 20
0.0
 30
0.0
  3
_NONE
  1

  0
ENDBLK
  5
1773
  8
0
  0
BLOCK
  8
0
  2
A$C4469C6BD
 70
     0
 10
0.0
 20
0.0
 30
0.0
  3
A$C4469C6BD
  1

  0
LINE
  5
5DCC
  8
0
  6
CONTINUOUS
 62
     3
 10
-55.6090464708852323
 20
-49.9999999999999005
 30
0.0000000000000111
 11
55.6090464708852323
 21
-49.9999999999999005
 31
0.0000000000000111
210
0.0
220
1.0
230
-0.0000000000000002
  0
LINE
  5
5DCD
  8
0
  6
CONTINUOUS
 62
     3
 10
-57.75
 20
-65.9999999999999858
 30
0.0000000000000147
 11
57.75
 21
-65.9999999999999858
 31
0.0000000000000147
210
0.0
220
1.0
230
-0.0000000000000002
  0
LINE
  5
5DCE
  8
0
  6
CONTINUOUS
 62
     3
 10
-59.5
 20
-67.5000000000000426
 30
0.000000000000015
 11
59.5
 21
-67.5000000000000426
 31
0.000000000000015
210
0.0
220
1.0
230
-0.0000000000000002
  0
LINE
  5
5DCF
  8
0
  6
CONTINUOUS
 62
     3
 10
-59.5
 20
-68.5000000000000142
 30
0.0000000000000152
 11
59.5
 21
-68.5000000000000142
 31
0.0000000000000152
210
0.0
220
1.0
230
-0.0000000000000002
  0
LINE
  5
5DD0
  8
0
  6
CONTINUOUS
 62
     3
 10
-57.1171444324796624
 20
-70.882855567520366
 30
0.0000000000000157
 11
57.1171444324796624
 21
-70.882855567520366
 31
0.0000000000000157
210
0.0
220
1.0
230
-0.0000000000000002
  0
LINE
  5
5DD1
  8
0
  6
CONTINUOUS
 62
     3
 10
-60.0
 20
-74.9999999999999574
 30
0.0000000000000167
 11
60.0
 21
-74.9999999999999574
 31
0.0000000000000167
210
0.0
220
1.0
230
-0.0000000000000002
  0
LINE
  5
5DD2
  8
0
  6
CONTINUOUS
 62
     3
 10
-49.5
 20
-76.9999999999999858
 30
0.0000000000000171
 11
49.5
 21
-76.9999999999999858
 31
0.0000000000000171
210
0.0
220
1.0
230
-0.0000000000000002
  0
LINE
  5
5DD3
  8
0
  6
CONTINUOUS
 62
     3
 10
-59.5
 20
-57.0000000000000071
 30
0.0000000000000127
 11
59.5
 21
-57.0000000000000071
 31
0.0000000000000127
210
0.0
220
1.0
230
-0.0000000000000002
  0
ARC
  5
5DD4
  8
0
  6
CONTINUOUS
 62
     3
 10
55.6394515204002005
 20
-57.8000000000000398
 30
0.0
 40
0.8000000000000042
210
0.0
220
-0.0000000000000002
230
-1.0
 50
89.9999999999959357
 51
199.8552143693231073
  0
ARC
  5
5DD5
  8
0
  6
CONTINUOUS
 62
     3
 10
-55.6394515204002005
 20
-57.8000000000000398
 30
0.0
 40
0.8000000000000133
210
0.0
220
-0.0000000000000002
230
-1.0
 50
340.144785630676779
 51
90.0000000000040643
  0
LINE
  5
5DD6
  8
0
  6
CONTINUOUS
 62
     3
 10
54.887008400646863
 20
-58.0717155710221107
 30
0.0000000000000129
 11
57.7500000000000284
 21
-65.9999999999999716
 31
0.0000000000000147
210
0.0
220
1.0
230
-0.0000000000000002
  0
LINE
  5
5DD7
  8
0
  6
CONTINUOUS
 62
     3
 10
-54.887008400646863
 20
-58.0717155710221107
 30
0.0000000000000129
 11
-57.7500000000000284
 21
-65.9999999999999716
 31
0.0000000000000147
210
0.0
220
1.0
230
-0.0000000000000002
  0
LINE
  5
5DD8
  8
0
  6
CONTINUOUS
 62
     3
 10
57.75
 20
-65.9999999999999858
 30
0.0000000000000147
 11
59.5
 21
-67.5000000000000426
 31
0.000000000000015
210
0.0
220
1.0
230
-0.0000000000000002
  0
LINE
  5
5DD9
  8
0
  6
CONTINUOUS
 62
     3
 10
-57.75
 20
-65.9999999999999858
 30
0.0000000000000147
 11
-59.5
 21
-67.5000000000000426
 31
0.000000000000015
210
0.0
220
1.0
230
-0.0000000000000002
  0
LINE
  5
5DDA
  8
0
  6
CONTINUOUS
 62
     3
 10
59.5
 20
-67.5000000000000426
 30
0.000000000000015
 11
59.5
 21
-68.5000000000000142
 31
0.0000000000000152
210
0.0
220
1.0
230
-0.0000000000000002
  0
LINE
  5
5DDB
  8
0
  6
CONTINUOUS
 62
     3
 10
-59.5
 20
-67.5000000000000426
 30
0.000000000000015
 11
-59.5
 21
-68.5000000000000142
 31
0.0000000000000152
210
0.0
220
1.0
230
-0.0000000000000002
  0
LINE
  5
5DDC
  8
0
  6
CONTINUOUS
 62
     3
 10
-57.1171444324796624
 20
-70.882855567520366
 30
0.0000000000000157
 11
-59.4999999999999929
 21
-68.5000000000000142
 31
0.0000000000000152
210
0.0
220
1.0
230
-0.0000000000000002
  0
LINE
  5
5DDD
  8
0
  6
CONTINUOUS
 62
     3
 10
57.1171444324796624
 20
-70.882855567520366
 30
0.0000000000000157
 11
59.4999999999999929
 21
-68.5000000000000142
 31
0.0000000000000152
210
0.0
220
1.0
230
-0.0000000000000002
  0
LINE
  5
5DDE
  8
0
  6
CONTINUOUS
 62
     3
 10
57.1171444324796624
 20
-70.882855567520366
 30
0.0000000000000157
 11
60.0
 21
-74.9999999999999574
 31
0.0000000000000167
210
0.0
220
1.0
230
-0.0000000000000002
  0
LINE
  5
5DDF
  8
0
  6
CONTINUOUS
 62
     3
 10
-57.1171444324796624
 20
-70.882855567520366
 30
0.0000000000000157
 11
-60.0
 21
-74.9999999999999574
 31
0.0000000000000167
210
0.0
220
1.0
230
-0.0000000000000002
  0
ARC
  5
5DE0
  8
0
  6
CONTINUOUS
 62
     3
 10
49.4999999999999503
 20
-71.9999999999999147
 30
0.0
 40
5.0000000000000853
210
0.0
220
-0.0000000000000002
230
-1.0
 50
270.0
 51
323.1301023541556106
  0
ARC
  5
5DE1
  8
0
  6
CONTINUOUS
 62
     3
 10
-49.4999999999999503
 20
-71.9999999999999147
 30
0.0
 40
5.000000000000087
210
0.0
220
-0.0000000000000002
230
-1.0
 50
216.8698976458439063
 51
269.9999999999994884
  0
ARC
  5
5DE2
  8
0
  6
CONTINUOUS
 62
     3
 10
55.6090464708852323
 20
-51.4999999999998508
 30
0.0
 40
1.4999999999999469
210
0.0
220
-0.0000000000000002
230
-1.0
 50
25.8941133784704611
 51
90.0
  0
ARC
  5
5DE3
  8
0
  6
CONTINUOUS
 62
     3
 10
-55.6090464708852323
 20
-51.4999999999998508
 30
0.0
 40
1.49999999999995
210
0.0
220
-0.0000000000000002
230
-1.0
 50
90.0
 51
154.1058866215294927
  0
LINE
  5
5DE4
  8
0
  6
CONTINUOUS
 62
     3
 10
56.9584504483275325
 20
-50.8449359530069813
 30
0.0000000000000113
 11
59.0984106065128501
 21
-55.2531625413520899
 31
0.0000000000000123
210
0.0
220
1.0
230
-0.0000000000000002
  0
LINE
  5
5DE5
  8
0
  6
CONTINUOUS
 62
     3
 10
-56.9584504483275325
 20
-50.8449359530069813
 30
0.0000000000000113
 11
-59.0984106065128501
 21
-55.2531625413520899
 31
0.0000000000000123
210
0.0
220
1.0
230
-0.0000000000000002
  0
ARC
  5
5DE6
  8
0
  6
CONTINUOUS
 62
     3
 10
55.4999999999989626
 20
-57.0000000000003268
 30
0.0
 40
4.0000000000010374
210
0.0
220
-0.0000000000000002
230
-1.0
 50
0.0000000000044782
 51
25.8941133784711894
  0
ARC
  5
5DE7
  8
0
  6
CONTINUOUS
 62
     3
 10
-55.4999999999989626
 20
-57.0000000000003268
 30
0.0
 40
4.0000000000010374
210
0.0
220
-0.0000000000000002
230
-1.0
 50
154.1058866215288106
 51
179.9999999999955094
  0
LINE
  5
5DE8
  8
0
  6
CONTINUOUS
 62
     3
 10
-50.6999999999999815
 20
-0.0000000000000103
 30
0.0
 11
50.7000000000000028
 21
-0.0000000000000039
 31
0.0
210
0.0
220
1.0
230
-0.0000000000000002
  0
LINE
  5
5DE9
  8
0
  6
CONTINUOUS
 62
     3
 10
-60.5000000000000284
 20
70.0000000000000142
 30
-0.0000000000000155
 11
60.5
 21
70.0000000000000142
 31
-0.0000000000000155
210
0.0
220
1.0
230
-0.0000000000000002
  0
ARC
  5
5DEA
  8
0
  6
CONTINUOUS
 62
     3
 10
50.4999999999963904
 20
8.0498756211210178
 30
0.0
 40
1.0000000000036089
210
0.0
220
-0.0000000000000002
230
-1.0
 50
354.2894068625121804
 51
359.9999999999910756
  0
ARC
  5
5DEB
  8
0
  6
CONTINUOUS
 62
     3
 10
-50.4999999999964331
 20
8.0498756211210232
 30
0.0
 40
1.000000000003566
210
0.0
220
-0.0000000000000002
230
-1.0
 50
180.000000000008697
 51
185.7105931374879049
  0
LINE
  5
5DEC
  8
0
  6
CONTINUOUS
 62
     3
 10
51.5
 20
40.0
 30
-0.0000000000000089
 11
51.5
 21
8.0498756211208704
 31
-0.0000000000000018
210
0.0
220
1.0
230
-0.0000000000000002
  0
LINE
  5
5DED
  8
0
  6
CONTINUOUS
 62
     3
 10
-51.5
 20
40.0
 30
-0.0000000000000089
 11
-51.5
 21
8.0498756211208633
 31
-0.0000000000000018
210
0.0
220
1.0
230
-0.0000000000000002
  0
LINE
  5
5DEE
  8
0
  6
CONTINUOUS
 62
     3
 10
-50.7000000000000028
 20
-0.0000000000000102
 30
0.0
 11
-51.4950371902099917
 21
7.9503719020998647
 31
-0.0000000000000018
210
0.0
220
1.0
230
-0.0000000000000002
  0
LINE
  5
5DEF
  8
0
  6
CONTINUOUS
 62
     3
 10
50.7000000000000028
 20
-0.0000000000000075
 30
0.0
 11
51.4950371902099917
 21
7.9503719020998718
 31
-0.0000000000000018
210
0.0
220
1.0
230
-0.0000000000000002
  0
LINE
  5
5DF0
  8
0
  6
CONTINUOUS
 62
     3
 10
-52.8415189189038799
 20
45.0030695945889505
 30
-0.00000000000001
 11
-58.6179753299171793
 21
55.0000000000002416
 31
-0.0000000000000122
210
0.0
220
1.0
230
-0.0000000000000002
  0
LINE
  5
5DF1
  8
0
  6
CONTINUOUS
 62
     3
 10
52.8415189189038799
 20
45.0030695945889505
 30
-0.00000000000001
 11
58.6179753299171722
 21
55.0000000000002416
 31
-0.0000000000000122
210
0.0
220
1.0
230
-0.0000000000000002
  0
ARC
  5
5DF2
  8
0
  6
CONTINUOUS
 62
     3
 10
61.4999999999999574
 20
40.0
 30
0.0
 40
9.9999999999999645
210
0.0
220
-0.0000000000000002
230
-1.0
 50
149.9796896468805869
 51
179.9999999999998863
  0
ARC
  5
5DF3
  8
0
  6
CONTINUOUS
 62
     3
 10
-61.5000000000001705
 20
39.9999999999999574
 30
0.0
 40
10.0000000000001705
210
0.0
220
-0.0000000000000002
230
-1.0
 50
0.0000000000002036
 51
30.0203103531188908
  0
LINE
  5
5DF4
  8
0
  6
CONTINUOUS
 62
     3
 10
60.5
 20
70.0000000000000142
 30
-0.0000000000000155
 11
60.5
 21
68.0000000000003837
 31
-0.0000000000000151
210
0.0
220
1.0
230
-0.0000000000000002
  0
LINE
  5
5DF5
  8
0
  6
CONTINUOUS
 62
     3
 10
-60.5000000000000071
 20
70.0000000000000142
 30
-0.0000000000000155
 11
-60.5000000000000071
 21
68.0000000000001847
 31
-0.0000000000000151
210
0.0
220
1.0
230
-0.0000000000000002
  0
LINE
  5
5DF6
  8
0
  6
CONTINUOUS
 62
     3
 10
-122.5
 20
65.9999999999999858
 30
-0.0000000000000147
 11
-0.0000000000000284
 21
65.9999999999999858
 31
-0.0000000000000147
210
0.0
220
1.0
230
-0.0000000000000002
  0
LINE
  5
5DF7
  8
0
  6
CONTINUOUS
 62
     3
 10
-122.5
 20
68.0000000000001847
 30
-0.0000000000000151
 11
-0.0000000000000284
 21
68.0000000000001847
 31
-0.0000000000000151
210
0.0
220
1.0
230
-0.0000000000000002
  0
LINE
  5
5DF8
  8
0
  6
CONTINUOUS
 62
     3
 10
61.0
 20
55.0000000000002416
 30
-0.0000000000000122
 11
-61.0
 21
55.0000000000002416
 31
-0.0000000000000122
210
0.0
220
1.0
230
-0.0000000000000002
  0
LINE
  5
5DF9
  8
0
  6
CONTINUOUS
 62
     3
 10
0.0000000000000284
 20
68.0000000000003837
 30
-0.0000000000000151
 11
91.7500000000000142
 21
68.0000000000003837
 31
-0.0000000000000151
210
0.0
220
1.0
230
-0.0000000000000002
  0
LINE
  5
5DFA
  8
0
  6
CONTINUOUS
 62
     3
 10
91.7500000000000142
 20
65.9999999999999858
 30
-0.0000000000000147
 11
0.0000000000000284
 21
65.9999999999999858
 31
-0.0000000000000147
210
0.0
220
1.0
230
-0.0000000000000002
  0
ARC
  5
5DFB
  8
0
  6
CONTINUOUS
 62
     3
 10
-91.75
 20
69.2500000000001279
 30
0.0
 40
3.2499999999999929
210
0.0
220
-0.0000000000000002
230
-1.0
 50
180.0
 51
270.0000000000001137
  0
LINE
  5
5DFC
  8
0
  6
CONTINUOUS
 62
     3
 10
95.0
 20
69.2500000000001279
 30
-0.0000000000000154
 11
95.0
 21
145.999999999999801
 31
-0.0000000000000324
210
0.0
220
1.0
230
-0.0000000000000002
  0
LINE
  5
5DFD
  8
0
  6
CONTINUOUS
 62
     3
 10
93.0000000000000142
 20
69.2500000000004121
 30
-0.0000000000000154
 11
93.0000000000000142
 21
145.999999999999801
 31
-0.0000000000000324
210
0.0
220
1.0
230
-0.0000000000000002
  0
ARC
  5
5DFE
  8
0
  6
CONTINUOUS
 62
     3
 10
91.7499999999999858
 20
69.2500000000003126
 30
-0.0000000000000154
 40
1.250000000000014
 50
270.0000000000006821
 51
359.9999999999994884
  0
LINE
  5
5DFF
  8
0
  6
CONTINUOUS
 62
     3
 10
93.0
 20
145.999999999999801
 30
-0.0000000000000324
 11
93.0
 21
165.999999999999801
 31
-0.0000000000000369
210
0.0
220
1.0
230
-0.0000000000000002
  0
LINE
  5
5E00
  8
0
  6
CONTINUOUS
 62
     3
 10
95.0
 20
165.999999999999801
 30
-0.0000000000000369
 11
95.0
 21
145.999999999999801
 31
-0.0000000000000324
210
0.0
220
1.0
230
-0.0000000000000002
  0
LINE
  5
5E01
  8
0
  6
CONTINUOUS
 62
     3
 10
94.9999999999999858
 20
165.999999999999801
 30
-0.0000000000000369
 11
93.0000000000000142
 21
165.999999999999801
 31
-0.0000000000000369
210
0.0
220
1.0
230
-0.0000000000000002
  0
LINE
  5
5E02
  8
0
  6
CONTINUOUS
 62
     3
 10
-122.5
 20
68.0000000000001847
 30
-0.0000000000000151
 11
-122.5
 21
65.9999999999999858
 31
-0.0000000000000147
210
0.0
220
1.0
230
-0.0000000000000002
  0
ARC
  5
5E03
  8
0
  6
CONTINUOUS
 62
     3
 10
-70.2862577672367621
 20
64.0000000000003553
 30
0.0
 40
1.999999999999835
210
0.0
220
-0.0000000000000002
230
-1.0
 50
36.9999999999959996
 51
89.9999999999995879
  0
ARC
  5
5E04
  8
0
  6
CONTINUOUS
 62
     3
 10
70.2862577672367621
 20
64.0000000000003553
 30
0.0
 40
1.999999999999829
210
0.0
220
-0.0000000000000002
230
-1.0
 50
90.0000000000003979
 51
143.0000000000040075
  0
LINE
  5
5E05
  8
0
  6
CONTINUOUS
 62
     3
 10
-60.9999999999999929
 20
55.0000000000002416
 30
-0.0000000000000122
 11
-68.6889867471422235
 21
65.2036300463042409
 31
-0.0000000000000145
210
0.0
220
1.0
230
-0.0000000000000002
  0
LINE
  5
5E06
  8
0
  6
CONTINUOUS
 62
     3
 10
60.9999999999999929
 20
55.0000000000002416
 30
-0.0000000000000122
 11
68.6889867471422235
 21
65.2036300463042409
 31
-0.0000000000000145
210
0.0
220
1.0
230
-0.0000000000000002
  0
LINE
  5
5E07
  8
0
  6
VERDECKT
 62
     1
 10
-51.7999999999999616
 20
-59.9132265073572086
 30
0.0000000000000133
 11
51.8000000000000611
 21
-59.9132265073572086
 31
0.0000000000000133
210
0.0
220
1.0
230
-0.0000000000000002
  0
LINE
  5
5E08
  8
0
  6
VERDECKT
 62
     1
 10
47.5000000000000568
 20
-75.4439840251518063
 30
0.0000000000000168
 11
-47.4999999999999432
 21
-75.4439840251518063
 31
0.0000000000000168
210
0.0
220
1.0
230
-0.0000000000000002
  0
LINE
  5
5E09
  8
0
  6
VERDECKT
 62
     1
 10
-56.5995849235806077
 20
-72.9999999999999289
 30
0.0000000000000162
 11
56.5995849235806077
 21
-72.9999999999999289
 31
0.0000000000000162
210
0.0
220
1.0
230
-0.0000000000000002
  0
ARC
  5
5E0A
  8
0
  6
VERDECKT
 62
     1
 10
55.6090464708851684
 20
-51.4932265073571287
 30
0.0
 40
1.499999999999968
210
0.0
220
-0.0000000000000002
230
-1.0
 50
95.4470566892314451
 51
165.0000000000017906
  0
ARC
  5
5E0B
  8
0
  6
VERDECKT
 62
     1
 10
-55.6090464708852892
 20
-51.4932265073571287
 30
0.0
 40
1.499999999999968
210
0.0
220
-0.0000000000000002
230
-1.0
 50
14.9999999999981704
 51
84.5529433107685549
  0
LINE
  5
5E0C
  8
0
  6
VERDECKT
 62
     1
 10
-51.7999999999999474
 20
-59.9132265073572086
 30
0.0000000000000133
 11
-54.1601577314515907
 21
-51.1049979397034022
 31
0.0000000000000113
210
0.0
220
1.0
230
-0.0000000000000002
  0
LINE
  5
5E0D
  8
0
  6
VERDECKT
 62
     1
 10
51.8000000000000611
 20
-59.9132265073572086
 30
0.0000000000000133
 11
54.1601577314516973
 21
-51.1049979397034022
 31
0.0000000000000113
210
0.0
220
1.0
230
-0.0000000000000002
  0
LINE
  5
5E0E
  8
0
  6
VERDECKT
 62
     1
 10
51.8000000000000611
 20
-59.9132265073572086
 30
0.0000000000000133
 11
51.8000000000000611
 21
-70.4932265073571926
 31
0.0000000000000157
210
0.0
220
1.0
230
-0.0000000000000002
  0
LINE
  5
5E0F
  8
0
  6
VERDECKT
 62
     1
 10
-51.7999999999999616
 20
-59.9132265073572086
 30
0.0000000000000133
 11
-51.7999999999999616
 21
-70.4932265073571926
 31
0.0000000000000157
210
0.0
220
1.0
230
-0.0000000000000002
  0
ARC
  5
5E10
  8
0
  6
VERDECKT
 62
     1
 10
46.7999999999999119
 20
-70.4932265073571358
 30
0.0
 40
5.0000000000000488
210
0.0
220
-0.0000000000000002
230
-1.0
 50
278.0478462473117816
 51
359.9999999999993179
  0
ARC
  5
5E11
  8
0
  6
VERDECKT
 62
     1
 10
-46.8000000000000185
 20
-70.4932265073571358
 30
0.0
 40
5.0000000000000417
210
0.0
220
-0.0000000000000002
230
-1.0
 50
180.0000000000005969
 51
261.9521537526882184
  0
LINE
  5
5E12
  8
0
  6
VERDECKT
 62
     1
 10
-47.4999999999999432
 20
-76.9999999999999858
 30
0.0000000000000171
 11
-47.4999999999999432
 21
-75.4439840251518063
 31
0.0000000000000168
210
0.0
220
1.0
230
-0.0000000000000002
  0
LINE
  5
5E13
  8
0
  6
VERDECKT
 62
     1
 10
47.5000000000000568
 20
-76.9999999999999858
 30
0.0000000000000171
 11
47.5000000000000568
 21
-75.4439840251518063
 31
0.0000000000000168
210
0.0
220
1.0
230
-0.0000000000000002
  0
LINE
  5
5E14
  8
0
  6
VERDECKT
 62
     1
 10
56.5995849235805721
 20
-72.9999999999999432
 30
0.0000000000000162
 11
57.9999999999999716
 21
-74.9999999999999716
 31
0.0000000000000167
210
0.0
220
1.0
230
-0.0000000000000002
  0
LINE
  5
5E15
  8
0
  6
VERDECKT
 62
     1
 10
-56.5995849235805721
 20
-72.9999999999999432
 30
0.0000000000000162
 11
-57.9999999999999716
 21
-74.9999999999999716
 31
0.0000000000000167
210
0.0
220
1.0
230
-0.0000000000000002
  0
ARC
  5
5E16
  8
0
  6
VERDECKT
 62
     1
 10
49.5000000000000924
 20
-72.0000000000000142
 30
0.0
 40
4.9999999999999121
210
0.0
220
-0.0000000000000002
230
-1.0
 50
323.130102354156179
 51
348.4630409671851226
  0
ARC
  5
5E17
  8
0
  6
VERDECKT
 62
     1
 10
-49.5000000000000924
 20
-72.0000000000000142
 30
0.0
 40
4.9999999999999103
210
0.0
220
-0.0000000000000002
230
-1.0
 50
191.5369590328147922
 51
216.8698976458437926
  0
LINE
  5
5E18
  8
0
  6
VERDECKT
 62
     1
 10
-49.207444214685033
 20
0.1492555785314918
 30
0.0
 11
49.2074442146850117
 21
0.149255578531498
 31
0.0
210
0.0
220
1.0
230
-0.0000000000000002
  0
ARC
  5
5E19
  8
0
  6
VERDECKT
 62
     1
 10
48.9999999999963194
 20
8.1246890528024078
 30
0.0
 40
1.0000000000036731
210
0.0
220
-0.0000000000000002
230
-1.0
 50
354.2894068625122941
 51
359.9999999999909051
  0
ARC
  5
5E1A
  8
0
  6
VERDECKT
 62
     1
 10
-48.9999999999963194
 20
8.1246890528024132
 30
0.0
 40
1.0000000000036731
210
0.0
220
-0.0000000000000002
230
-1.0
 50
180.0000000000090097
 51
185.7105931374877059
  0
LINE
  5
5E1B
  8
0
  6
VERDECKT
 62
     1
 10
-49.2074442146850117
 20
0.1492555785314922
 30
0.0
 11
-49.9950371902099917
 21
8.0251853337812502
 31
-0.0000000000000018
210
0.0
220
1.0
230
-0.0000000000000002
  0
LINE
  5
5E1C
  8
0
  6
VERDECKT
 62
     1
 10
49.2074442146850117
 20
0.1492555785314918
 30
0.0
 11
49.9950371902099917
 21
8.0251853337812573
 31
-0.0000000000000018
210
0.0
220
1.0
230
-0.0000000000000002
  0
LINE
  5
5E1D
  8
0
  6
VERDECKT
 62
     1
 10
50.0
 20
40.0000000000000071
 30
-0.0000000000000089
 11
50.0
 21
8.1246890528022551
 31
-0.0000000000000018
210
0.0
220
1.0
230
-0.0000000000000002
  0
LINE
  5
5E1E
  8
0
  6
VERDECKT
 62
     1
 10
-50.0
 20
40.0000000000000071
 30
-0.0000000000000089
 11
-50.0
 21
8.1246890528022515
 31
-0.0000000000000018
210
0.0
220
1.0
230
-0.0000000000000002
  0
ARC
  5
5E1F
  8
0
  6
VERDECKT
 62
     1
 10
54.0000000000000213
 20
60.0
 30
0.0
 40
6.499999999999992
210
0.0
220
-0.0000000000000002
230
-1.0
 50
329.9796896468806722
 51
359.9999999999998863
  0
ARC
  5
5E20
  8
0
  6
VERDECKT
 62
     1
 10
-53.9999999999998721
 20
60.0000000000000284
 30
0.0
 40
6.5000000000001128
210
0.0
220
-0.0000000000000002
230
-1.0
 50
180.000000000000199
 51
210.0203103531187878
  0
LINE
  5
5E21
  8
0
  6
VERDECKT
 62
     1
 10
-58.6179753299171793
 20
55.0000000000002416
 30
-0.0000000000000122
 11
-59.6280127027124891
 21
56.74800476351718
 31
-0.0000000000000126
210
0.0
220
1.0
230
-0.0000000000000002
  0
LINE
  5
5E22
  8
0
  6
VERDECKT
 62
     1
 10
58.6179753299171722
 20
55.0000000000002416
 30
-0.0000000000000122
 11
59.6280127027124891
 21
56.7480047635171871
 31
-0.0000000000000126
210
0.0
220
1.0
230
-0.0000000000000002
  0
LINE
  5
5E23
  8
0
  6
VERDECKT
 62
     1
 10
49.2074442146850117
 20
0.1492555785314966
 30
0.0
 11
50.7000000000000028
 21
-0.0000000000000019
 31
0.0
210
0.0
220
1.0
230
-0.0000000000000002
  0
LINE
  5
5E24
  8
0
  6
VERDECKT
 62
     1
 10
-49.2074442146850117
 20
0.1492555785314905
 30
0.0
 11
-50.7000000000000028
 21
-0.0000000000000084
 31
0.0
210
0.0
220
1.0
230
-0.0000000000000002
  0
ARC
  5
5E25
  8
0
  6
VERDECKT
 62
     1
 10
61.5000000000000924
 20
40.0
 30
0.0
 40
11.5000000000000799
210
0.0
220
-0.0000000000000002
230
-1.0
 50
149.9796896468808995
 51
179.999999999999801
  0
ARC
  5
5E26
  8
0
  6
VERDECKT
 62
     1
 10
-61.5000000000000284
 20
40.0000000000000071
 30
0.0
 40
11.5000000000000302
210
0.0
220
-0.0000000000000002
230
-1.0
 50
360.0
 51
30.0203103531190401
  0
LINE
  5
5E27
  8
0
  6
VERDECKT
 62
     1
 10
-51.5427467567394615
 20
45.7535300337772881
 30
-0.0000000000000102
 11
-58.3292405405480707
 21
57.4984652027055319
 31
-0.0000000000000128
210
0.0
220
1.0
230
-0.0000000000000002
  0
LINE
  5
5E28
  8
0
  6
VERDECKT
 62
     1
 10
51.5427467567394615
 20
45.7535300337772881
 30
-0.0000000000000102
 11
58.3292405405480707
 21
57.4984652027055319
 31
-0.0000000000000128
210
0.0
220
1.0
230
-0.0000000000000002
  0
ARC
  5
5E29
  8
0
  6
VERDECKT
 62
     1
 10
54.0000000000000426
 20
60.0
 30
0.0
 40
4.9999999999999662
210
0.0
220
-0.0000000000000002
230
-1.0
 50
329.9796896468806722
 51
0.0000000000004071
  0
ARC
  5
5E2A
  8
0
  6
VERDECKT
 62
     1
 10
-54.0000000000001066
 20
60.0
 30
0.0
 40
4.9999999999998854
210
0.0
220
-0.0000000000000002
230
-1.0
 50
179.9999999999994884
 51
210.0203103531194984
  0
LINE
  5
5E2B
  8
0
  6
VERDECKT
 62
     1
 10
58.9999999999999929
 20
70.0000000000000142
 30
-0.0000000000000155
 11
58.9999999999999929
 21
60.0000000000000284
 31
-0.0000000000000133
210
0.0
220
1.0
230
-0.0000000000000002
  0
LINE
  5
5E2C
  8
0
  6
VERDECKT
 62
     1
 10
-59.0000000000000071
 20
70.0000000000000142
 30
-0.0000000000000155
 11
-59.0000000000000071
 21
60.0000000000000284
 31
-0.0000000000000133
210
0.0
220
1.0
230
-0.0000000000000002
  0
LINE
  5
5E2D
  8
0
  6
VERDECKT
 62
     1
 10
60.5
 20
68.0000000000003837
 30
-0.0000000000000151
 11
60.5
 21
60.0
 31
-0.0000000000000133
210
0.0
220
1.0
230
-0.0000000000000002
  0
LINE
  5
5E2E
  8
0
  6
VERDECKT
 62
     1
 10
-60.5000000000000071
 20
68.0000000000001847
 30
-0.0000000000000151
 11
-60.5000000000000071
 21
60.0
 31
-0.0000000000000133
210
0.0
220
1.0
230
-0.0000000000000002
  0
LINE
  5
5E2F
  8
0
  6
VERDECKT
 62
     1
 10
59.4027289799050706
 20
56.2036300463042977
 30
-0.0000000000000125
 11
-59.4027289799050706
 21
56.2036300463042977
 31
-0.0000000000000125
210
0.0
220
1.0
230
-0.0000000000000002
  0
LINE
  5
5E30
  8
0
  6
VERDECKT
 62
     1
 10
-59.4027289799050777
 20
56.2036300463042906
 30
-0.0000000000000125
 11
-67.0917157270475144
 21
66.4072600926081833
 31
-0.0000000000000147
210
0.0
220
1.0
230
-0.0000000000000002
  0
LINE
  5
5E31
  8
0
  6
VERDECKT
 62
     1
 10
59.4027289799050777
 20
56.2036300463042906
 30
-0.0000000000000125
 11
67.0917157270475144
 21
66.4072600926081833
 31
-0.0000000000000147
210
0.0
220
1.0
230
-0.0000000000000002
  0
ARC
  5
5E32
  8
0
  6
VERDECKT
 62
     1
 10
-70.2862577672367621
 20
64.0000000000003411
 30
0.0
 40
3.999999999999861
210
0.0
220
-0.0000000000000002
230
-1.0
 50
36.9999999999952109
 51
89.999999999999801
  0
ARC
  5
5E33
  8
0
  6
VERDECKT
 62
     1
 10
70.2862577672367621
 20
64.0000000000003411
 30
0.0
 40
3.999999999999857
210
0.0
220
-0.0000000000000002
230
-1.0
 50
90.0000000000001847
 51
143.0000000000048033
  0
LINE
  5
5E34
  8
0
  6
VERDECKT
 62
     1
 10
59.4027289799050706
 20
56.2036300463042977
 30
-0.0000000000000125
 11
61.0
 21
55.0000000000002416
 31
-0.0000000000000122
210
0.0
220
1.0
230
-0.0000000000000002
  0
LINE
  5
5E35
  8
0
  6
VERDECKT
 62
     1
 10
-59.4027289799050706
 20
56.2036300463042977
 30
-0.0000000000000125
 11
-61.0
 21
55.0000000000002416
 31
-0.0000000000000122
210
0.0
220
1.0
230
-0.0000000000000002
  0
LINE
  5
5E36
  8
0
  6
VERDECKT
 62
     1
 10
93.0
 20
150.0
 30
-0.0000000000000333
 11
94.9999999999999858
 21
150.0
 31
-0.0000000000000333
210
0.0
220
1.0
230
-0.0000000000000002
  0
LINE
  5
5E37
  8
0
  6
VERDECKT
 62
     1
 10
92.9999999999999716
 20
141.9999999999998863
 30
-0.0000000000000315
 11
94.9999999999999858
 21
141.9999999999998863
 31
-0.0000000000000315
210
0.0
220
1.0
230
-0.0000000000000002
  0
ENDBLK
  5
5E39
  8
0
  0
BLOCK
  8
0
  2
A$C6D694C5B
 70
     0
 10
0.0
 20
0.0
 30
0.0
  3
A$C6D694C5B
  1

  0
LINE
  5
5E3D
  8
0
  6
CONTINUOUS
 62
     3
 10
-55.6090464708852679
 20
-49.9999999999999218
 30
0.0000000000000111
 11
0.000000000000004
 21
-49.9999999999999076
 31
0.0000000000000111
210
-0.0000000000000002
220
1.0
230
-0.0000000000000002
  0
LINE
  5
5E3E
  8
0
  6
CONTINUOUS
 62
     3
 10
0.0000000000000224
 20
-49.9999999999999076
 30
0.0000000000000111
 11
55.6090464708852608
 21
-49.9999999999998934
 31
0.0000000000000111
210
-0.0000000000000002
220
1.0
230
-0.0000000000000002
  0
LINE
  5
5E3F
  8
0
  6
CONTINUOUS
 62
     3
 10
-57.7499999999999787
 20
-66.0000000000000142
 30
0.0000000000000147
 11
0.0000000000000075
 21
-66.0
 31
0.0000000000000147
210
-0.0000000000000002
220
1.0
230
-0.0000000000000002
  0
LINE
  5
5E40
  8
0
  6
CONTINUOUS
 62
     3
 10
0.0000000000000274
 20
-66.0
 30
0.0000000000000147
 11
57.7500000000000213
 21
-65.9999999999999858
 31
0.0000000000000147
210
-0.0000000000000002
220
1.0
230
-0.0000000000000002
  0
LINE
  5
5E41
  8
0
  6
CONTINUOUS
 62
     3
 10
-59.4999999999999503
 20
-67.5000000000000711
 30
0.000000000000015
 11
0.0000000000000079
 21
-67.5000000000000568
 31
0.000000000000015
210
-0.0000000000000002
220
1.0
230
-0.0000000000000002
  0
LINE
  5
5E42
  8
0
  6
CONTINUOUS
 62
     3
 10
0.0000000000000207
 20
-67.5000000000000568
 30
0.000000000000015
 11
59.5000000000000213
 21
-67.5000000000000426
 31
0.000000000000015
210
-0.0000000000000002
220
1.0
230
-0.0000000000000002
  0
LINE
  5
5E43
  8
0
  6
CONTINUOUS
 62
     3
 10
-59.4999999999999503
 20
-68.5000000000000426
 30
0.0000000000000152
 11
0.0000000000000081
 21
-68.5000000000000284
 31
0.0000000000000152
210
-0.0000000000000002
220
1.0
230
-0.0000000000000002
  0
LINE
  5
5E44
  8
0
  6
CONTINUOUS
 62
     3
 10
0.000000000000021
 20
-68.5000000000000284
 30
0.0000000000000152
 11
59.5000000000000213
 21
-68.5000000000000142
 31
0.0000000000000152
210
-0.0000000000000002
220
1.0
230
-0.0000000000000002
  0
LINE
  5
5E45
  8
0
  6
CONTINUOUS
 62
     3
 10
-57.1171444324796624
 20
-70.8828555675203944
 30
0.0000000000000157
 11
0.0000000000000086
 21
-70.8828555675203802
 31
0.0000000000000157
210
-0.0000000000000002
220
1.0
230
-0.0000000000000002
  0
LINE
  5
5E46
  8
0
  6
CONTINUOUS
 62
     3
 10
0.0000000000000201
 20
-70.8828555675203802
 30
0.0000000000000157
 11
57.117144432479698
 21
-70.882855567520366
 31
0.0000000000000157
210
-0.0000000000000002
220
1.0
230
-0.0000000000000002
  0
LINE
  5
5E47
  8
0
  6
CONTINUOUS
 62
     3
 10
-60.0
 20
-74.9999999999999858
 30
0.0000000000000167
 11
0.0000000000000095
 21
-74.9999999999999716
 31
0.0000000000000167
210
-0.0000000000000002
220
1.0
230
-0.0000000000000002
  0
LINE
  5
5E48
  8
0
  6
CONTINUOUS
 62
     3
 10
0.000000000000025
 20
-74.9999999999999716
 30
0.0000000000000167
 11
60.0000000000000284
 21
-74.9999999999999574
 31
0.0000000000000167
210
-0.0000000000000002
220
1.0
230
-0.0000000000000002
  0
LINE
  5
5E49
  8
0
  6
CONTINUOUS
 62
     3
 10
-49.5000000000000071
 20
-77.0000000000000142
 30
0.0000000000000171
 11
0.00000000000001
 21
-77.0
 31
0.0000000000000171
210
-0.0000000000000002
220
1.0
230
-0.0000000000000002
  0
LINE
  5
5E4A
  8
0
  6
CONTINUOUS
 62
     3
 10
0.0000000000000285
 20
-77.0
 30
0.0000000000000171
 11
49.5000000000000213
 21
-76.9999999999999858
 31
0.0000000000000171
210
-0.0000000000000002
220
1.0
230
-0.0000000000000002
  0
LINE
  5
5E4B
  8
0
  6
CONTINUOUS
 62
     3
 10
-59.4999999999999503
 20
-57.0000000000000497
 30
0.0000000000000127
 11
0.0000000000000056
 21
-57.0000000000000213
 31
0.0000000000000127
210
-0.0000000000000002
220
1.0
230
-0.0000000000000002
  0
LINE
  5
5E4C
  8
0
  6
CONTINUOUS
 62
     3
 10
0.0000000000000177
 20
-57.0000000000000213
 30
0.0000000000000127
 11
59.5000000000000213
 21
-57.0000000000000071
 31
0.0000000000000127
210
-0.0000000000000002
220
1.0
230
-0.0000000000000002
  0
ARC
  5
5E4D
  8
0
  6
CONTINUOUS
 62
     3
 10
55.6394515204002005
 20
-57.8000000000000824
 30
0.0
 40
0.8000000000000044
210
0.0
220
-0.0000000000000002
230
-1.0
 50
89.9999999999959357
 51
199.8552143693231073
  0
ARC
  5
5E4E
  8
0
  6
CONTINUOUS
 62
     3
 10
-55.6394515204002289
 20
-57.8000000000000398
 30
0.0
 40
0.8000000000000135
210
0.0
220
-0.0000000000000002
230
-1.0
 50
340.144785630676779
 51
90.0000000000040643
  0
LINE
  5
5E4F
  8
0
  6
CONTINUOUS
 62
     3
 10
54.8870084006468915
 20
-58.0717155710221107
 30
0.0000000000000129
 11
57.7500000000000497
 21
-65.9999999999999716
 31
0.0000000000000147
210
-0.0000000000000002
220
1.0
230
-0.0000000000000002
  0
LINE
  5
5E50
  8
0
  6
CONTINUOUS
 62
     3
 10
-54.887008400646863
 20
-58.0717155710221533
 30
0.0000000000000129
 11
-57.7500000000000213
 21
-66.0
 31
0.0000000000000147
210
-0.0000000000000002
220
1.0
230
-0.0000000000000002
  0
LINE
  5
5E51
  8
0
  6
CONTINUOUS
 62
     3
 10
57.7500000000000284
 20
-65.9999999999999858
 30
0.0000000000000147
 11
59.5000000000000213
 21
-67.5000000000000426
 31
0.000000000000015
210
-0.0000000000000002
220
1.0
230
-0.0000000000000002
  0
LINE
  5
5E52
  8
0
  6
CONTINUOUS
 62
     3
 10
-57.75
 20
-66.0000000000000142
 30
0.0000000000000147
 11
-59.5
 21
-67.5000000000000711
 31
0.000000000000015
210
-0.0000000000000002
220
1.0
230
-0.0000000000000002
  0
LINE
  5
5E53
  8
0
  6
CONTINUOUS
 62
     3
 10
59.5000000000000213
 20
-67.5000000000000426
 30
0.000000000000015
 11
59.5000000000000213
 21
-68.5000000000000142
 31
0.0000000000000152
210
-0.0000000000000002
220
1.0
230
-0.0000000000000002
  0
LINE
  5
5E54
  8
0
  6
CONTINUOUS
 62
     3
 10
-59.5
 20
-67.5000000000000711
 30
0.000000000000015
 11
-59.5
 21
-68.5000000000000426
 31
0.0000000000000152
210
-0.0000000000000002
220
1.0
230
-0.0000000000000002
  0
LINE
  5
5E55
  8
0
  6
CONTINUOUS
 62
     3
 10
-57.1171444324796624
 20
-70.8828555675203944
 30
0.0000000000000157
 11
-59.4999999999999929
 21
-68.5000000000000426
 31
0.0000000000000152
210
-0.0000000000000002
220
1.0
230
-0.0000000000000002
  0
LINE
  5
5E56
  8
0
  6
CONTINUOUS
 62
     3
 10
57.117144432479698
 20
-70.882855567520366
 30
0.0000000000000157
 11
59.5000000000000213
 21
-68.5000000000000142
 31
0.0000000000000152
210
-0.0000000000000002
220
1.0
230
-0.0000000000000002
  0
LINE
  5
5E57
  8
0
  6
CONTINUOUS
 62
     3
 10
57.117144432479698
 20
-70.882855567520366
 30
0.0000000000000157
 11
60.0000000000000213
 21
-74.9999999999999574
 31
0.0000000000000167
210
-0.0000000000000002
220
1.0
230
-0.0000000000000002
  0
LINE
  5
5E58
  8
0
  6
CONTINUOUS
 62
     3
 10
-57.1171444324796624
 20
-70.8828555675203944
 30
0.0000000000000157
 11
-60.0
 21
-74.9999999999999858
 31
0.0000000000000167
210
-0.0000000000000002
220
1.0
230
-0.0000000000000002
  0
ARC
  5
5E59
  8
0
  6
CONTINUOUS
 62
     3
 10
49.4999999999999503
 20
-71.9999999999999432
 30
0.0
 40
5.0000000000000862
210
0.0
220
-0.0000000000000002
230
-1.0
 50
270.0
 51
323.1301023541556106
  0
ARC
  5
5E5A
  8
0
  6
CONTINUOUS
 62
     3
 10
-49.4999999999999929
 20
-71.9999999999999147
 30
0.0
 40
5.0000000000000879
210
0.0
220
-0.0000000000000002
230
-1.0
 50
216.8698976458437926
 51
269.9999999999994884
  0
ARC
  5
5E5B
  8
0
  6
CONTINUOUS
 62
     3
 10
55.6090464708852323
 20
-51.4999999999998721
 30
0.0
 40
1.4999999999999469
210
0.0
220
-0.0000000000000002
230
-1.0
 50
25.8941133784704505
 51
89.9999999999999858
  0
ARC
  5
5E5C
  8
0
  6
CONTINUOUS
 62
     3
 10
-55.6090464708852608
 20
-51.4999999999998366
 30
0.0
 40
1.49999999999995
210
0.0
220
-0.0000000000000002
230
-1.0
 50
89.9999999999999858
 51
154.1058866215294927
  0
LINE
  5
5E5D
  8
0
  6
CONTINUOUS
 62
     3
 10
56.958450448327568
 20
-50.8449359530069671
 30
0.0000000000000113
 11
59.0984106065128785
 21
-55.2531625413520828
 31
0.0000000000000123
210
-0.0000000000000002
220
1.0
230
-0.0000000000000002
  0
LINE
  5
5E5E
  8
0
  6
CONTINUOUS
 62
     3
 10
-56.9584504483275325
 20
-50.8449359530070097
 30
0.0000000000000113
 11
-59.0984106065128501
 21
-55.2531625413521184
 31
0.0000000000000123
210
-0.0000000000000002
220
1.0
230
-0.0000000000000002
  0
ARC
  5
5E5F
  8
0
  6
CONTINUOUS
 62
     3
 10
55.4999999999992824
 20
-57.0000000000002913
 30
0.0
 40
4.0000000000007176
210
0.0
220
-0.0000000000000002
230
-1.0
 50
0.0000000000034477
 51
25.8941133784722588
  0
ARC
  5
5E60
  8
0
  6
CONTINUOUS
 62
     3
 10
-55.499999999998991
 20
-57.0000000000003197
 30
0.0
 40
4.0000000000010383
210
0.0
220
-0.0000000000000002
230
-1.0
 50
154.1058866215288106
 51
179.9999999999955094
  0
LINE
  5
5E61
  8
0
  6
CONTINUOUS
 62
     3
 10
-50.6999999999999034
 20
-0.0000000000000215
 30
0.0
 11
50.7000000000001307
 21
0.0000000000000073
 31
0.0
210
-0.0000000000000002
220
1.0
230
-0.0000000000000002
  0
LINE
  5
5E62
  8
0
  6
CONTINUOUS
 62
     3
 10
-60.4999999999999218
 20
70.0000000000000142
 30
-0.0000000000000155
 11
60.5000000000001066
 21
70.0000000000000426
 31
-0.0000000000000155
210
-0.0000000000000002
220
1.0
230
-0.0000000000000002
  0
ARC
  5
5E63
  8
0
  6
CONTINUOUS
 62
     3
 10
50.4999999999963194
 20
8.0498756211210107
 30
0.0
 40
1.0000000000035809
210
0.0
220
-0.0000000000000002
230
-1.0
 50
354.2894068625120099
 51
359.9999999999910187
  0
ARC
  5
5E64
  8
0
  6
CONTINUOUS
 62
     3
 10
-50.4999999999964828
 20
8.0498756211210374
 30
0.0
 40
1.000000000003638
210
0.0
220
-0.0000000000000002
230
-1.0
 50
180.0000000000088107
 51
185.7105931374875922
  0
LINE
  5
5E65
  8
0
  6
CONTINUOUS
 62
     3
 10
51.5000000000001208
 20
40.0000000000000071
 30
-0.0000000000000089
 11
51.5000000000001208
 21
8.0498756211208828
 31
-0.0000000000000018
210
-0.0000000000000002
220
1.0
230
-0.0000000000000002
  0
LINE
  5
5E66
  8
0
  6
CONTINUOUS
 62
     3
 10
-51.4999999999999076
 20
39.9999999999999929
 30
-0.0000000000000089
 11
-51.4999999999999005
 21
8.0498756211208544
 31
-0.0000000000000018
210
-0.0000000000000002
220
1.0
230
-0.0000000000000002
  0
LINE
  5
5E67
  8
0
  6
CONTINUOUS
 62
     3
 10
-50.6999999999999034
 20
-0.0000000000000215
 30
0.0
 11
-51.4950371902098922
 21
7.9503719020998567
 31
-0.0000000000000018
210
-0.0000000000000002
220
1.0
230
-0.0000000000000002
  0
LINE
  5
5E68
  8
0
  6
CONTINUOUS
 62
     3
 10
50.7000000000001307
 20
0.0000000000000073
 30
0.0
 11
51.4950371902101196
 21
7.9503719020998851
 31
-0.0000000000000018
210
-0.0000000000000002
220
1.0
230
-0.0000000000000002
  0
LINE
  5
5E69
  8
0
  6
CONTINUOUS
 62
     3
 10
-52.8415189189037875
 20
45.0030695945889505
 30
-0.00000000000001
 11
-58.6179753299170869
 21
55.0000000000002274
 31
-0.0000000000000122
210
-0.0000000000000002
220
1.0
230
-0.0000000000000002
  0
LINE
  5
5E6A
  8
0
  6
CONTINUOUS
 62
     3
 10
52.8415189189040078
 20
45.0030695945889789
 30
-0.00000000000001
 11
58.6179753299173001
 21
55.0000000000002629
 31
-0.0000000000000122
210
-0.0000000000000002
220
1.0
230
-0.0000000000000002
  0
ARC
  5
5E6B
  8
0
  6
CONTINUOUS
 62
     3
 10
61.4999999999998721
 20
39.9999999999999929
 30
0.0
 40
9.9999999999999662
210
0.0
220
-0.0000000000000002
230
-1.0
 50
149.9796896468805869
 51
179.9999999999998863
  0
ARC
  5
5E6C
  8
0
  6
CONTINUOUS
 62
     3
 10
-61.5000000000000995
 20
40.0000000000000213
 30
0.0
 40
9.9999999999999805
210
0.0
220
-0.0000000000000002
230
-1.0
 50
0.0
 51
30.0203103531193882
  0
LINE
  5
5E6D
  8
0
  6
CONTINUOUS
 62
     3
 10
60.5000000000001066
 20
70.0000000000000426
 30
-0.0000000000000155
 11
60.5000000000001066
 21
68.0000000000002132
 31
-0.0000000000000151
210
-0.0000000000000002
220
1.0
230
-0.0000000000000002
  0
LINE
  5
5E6E
  8
0
  6
CONTINUOUS
 62
     3
 10
-60.4999999999999289
 20
70.0000000000000142
 30
-0.0000000000000155
 11
-60.4999999999999289
 21
68.0000000000001847
 31
-0.0000000000000151
210
-0.0000000000000002
220
1.0
230
-0.0000000000000002
  0
LINE
  5
5E6F
  8
0
  6
CONTINUOUS
 62
     3
 10
-122.5
 20
68.0000000000001705
 30
-0.0000000000000151
 11
-122.5
 21
65.9999999999999716
 31
-0.0000000000000147
210
-0.0000000000000002
220
1.0
230
-0.0000000000000002
  0
LINE
  5
5E70
  8
0
  6
CONTINUOUS
 62
     3
 10
-122.5
 20
65.9999999999999716
 30
-0.0000000000000147
 11
122.5
 21
66.0000000000000284
 31
-0.0000000000000147
210
-0.0000000000000002
220
1.0
230
-0.0000000000000002
  0
LINE
  5
5E71
  8
0
  6
CONTINUOUS
 62
     3
 10
122.5
 20
68.0000000000004263
 30
-0.0000000000000151
 11
122.5
 21
66.0000000000000284
 31
-0.0000000000000147
210
-0.0000000000000002
220
1.0
230
-0.0000000000000002
  0
LINE
  5
5E72
  8
0
  6
CONTINUOUS
 62
     3
 10
-122.5
 20
68.0000000000001705
 30
-0.0000000000000151
 11
122.5
 21
68.0000000000002132
 31
-0.0000000000000151
210
-0.0000000000000002
220
1.0
230
-0.0000000000000002
  0
LINE
  5
5E73
  8
0
  6
CONTINUOUS
 62
     3
 10
60.9999999999999716
 20
55.0000000000002629
 30
-0.0000000000000122
 11
-61.0000000000000497
 21
55.0000000000002274
 31
-0.0000000000000122
210
-0.0000000000000002
220
1.0
230
-0.0000000000000002
  0
LINE
  5
5E74
  8
0
  6
CONTINUOUS
 62
     3
 10
122.4999999999999005
 20
69.2500000000004547
 30
-0.0000000000000154
 11
122.4999999999999005
 21
145.9999999999998863
 31
-0.0000000000000324
210
-0.0000000000000002
220
1.0
230
-0.0000000000000002
  0
LINE
  5
5E75
  8
0
  6
CONTINUOUS
 62
     3
 10
122.5
 20
68.0000000000003411
 30
-0.0000000000000151
 11
122.5
 21
69.2500000000003411
 31
-0.0000000000000154
210
-0.0000000000000002
220
1.0
230
-0.0000000000000002
  0
LINE
  5
5E76
  8
0
  6
CONTINUOUS
 62
     3
 10
-122.5000000000000995
 20
69.2500000000002132
 30
-0.0000000000000154
 11
-122.5000000000000995
 21
68.0000000000002132
 31
-0.0000000000000151
210
-0.0000000000000002
220
1.0
230
-0.0000000000000002
  0
CIRCLE
  5
5E77
  8
0
  6
CONTINUOUS
 62
     3
 10
-102.4999999999999005
 20
146.0
 30
0.0
 40
4.0
210
0.0
220
-0.0000000000000002
230
-1.0
  0
CIRCLE
  5
5E78
  8
0
  6
CONTINUOUS
 62
     3
 10
102.5000000000000995
 20
145.9999999999998863
 30
0.0
 40
4.0
210
0.0
220
-0.0000000000000002
230
-1.0
  0
ARC
  5
5E79
  8
0
  6
CONTINUOUS
 62
     3
 10
102.5000000000000995
 20
145.999999999999801
 30
0.0
 40
20.0
210
0.0
220
-0.0000000000000002
230
-1.0
 50
0.0
 51
90.0000000000000284
  0
LINE
  5
5E7A
  8
0
  6
CONTINUOUS
 62
     3
 10
-122.5000000000000995
 20
145.999999999999801
 30
-0.0000000000000324
 11
-122.5
 21
69.2500000000002132
 31
-0.0000000000000154
210
-0.0000000000000002
220
1.0
230
-0.0000000000000002
  0
ARC
  5
5E7B
  8
0
  6
CONTINUOUS
 62
     3
 10
-102.4999999999999005
 20
145.9999999999998863
 30
0.0
 40
20.0
210
0.0
220
-0.0000000000000002
230
-1.0
 50
89.9999999999999858
 51
180.0
  0
LINE
  5
5E7C
  8
0
  6
CONTINUOUS
 62
     3
 10
102.4999999999999005
 20
165.9999999999998863
 30
-0.0000000000000369
 11
-102.5000000000000995
 21
165.9999999999998863
 31
-0.0000000000000369
210
-0.0000000000000002
220
1.0
230
-0.0000000000000002
  0
ARC
  5
5E7D
  8
0
  6
CONTINUOUS
 62
     3
 10
-70.2862577672367479
 20
64.0000000000003411
 30
0.0
 40
1.999999999999873
210
0.0
220
-0.0000000000000002
230
-1.0
 50
36.9999999999967173
 51
90.0000000000000284
  0
ARC
  5
5E7E
  8
0
  6
CONTINUOUS
 62
     3
 10
70.2862577672368332
 20
64.0000000000002984
 30
0.0
 40
1.9999999999998861
210
0.0
220
-0.0000000000000002
230
-1.0
 50
90.0000000000016058
 51
143.000000000002899
  0
LINE
  5
5E7F
  8
0
  6
CONTINUOUS
 62
     3
 10
-61.0000000000000426
 20
55.0000000000002416
 30
-0.0000000000000122
 11
-68.6889867471422946
 21
65.2036300463042409
 31
-0.0000000000000145
210
-0.0000000000000002
220
1.0
230
-0.0000000000000002
  0
LINE
  5
5E80
  8
0
  6
CONTINUOUS
 62
     3
 10
60.9999999999999574
 20
55.00000000000027
 30
-0.0000000000000122
 11
68.6889867471422093
 21
65.2036300463042693
 31
-0.0000000000000145
210
-0.0000000000000002
220
1.0
230
-0.0000000000000002
  0
LINE
  5
5E81
  8
0
  6
VERDECKT
 62
     1
 10
-51.8016575748095605
 20
-59.913226507357237
 30
0.0000000000000133
 11
-0.0016575748095074
 21
-59.9132265073572228
 31
0.0000000000000133
210
-0.0000000000000002
220
1.0
230
-0.0000000000000002
  0
LINE
  5
5E82
  8
0
  6
VERDECKT
 62
     1
 10
-0.0016575748094923
 20
-59.9132265073572228
 30
0.0000000000000133
 11
51.7983424251905191
 21
-59.9132265073572086
 31
0.0000000000000133
210
-0.0000000000000002
220
1.0
230
-0.0000000000000002
  0
LINE
  5
5E83
  8
0
  6
VERDECKT
 62
     1
 10
47.4983424251904793
 20
-75.4439840251518063
 30
0.0000000000000168
 11
-0.0016575748094897
 21
-75.4439840251518206
 31
0.0000000000000168
210
-0.0000000000000002
220
1.0
230
-0.0000000000000002
  0
LINE
  5
5E84
  8
0
  6
VERDECKT
 62
     1
 10
-0.0016575748094984
 20
-75.4439840251518206
 30
0.0000000000000168
 11
-47.5016575748094922
 21
-75.4439840251518348
 31
0.0000000000000168
210
-0.0000000000000002
220
1.0
230
-0.0000000000000002
  0
LINE
  5
5E85
  8
0
  6
VERDECKT
 62
     1
 10
-56.5995849235806006
 20
-72.9999999999999574
 30
0.0000000000000162
 11
0.0000000000000091
 21
-72.9999999999999432
 31
0.0000000000000162
210
-0.0000000000000002
220
1.0
230
-0.0000000000000002
  0
LINE
  5
5E86
  8
0
  6
VERDECKT
 62
     1
 10
0.0000000000000201
 20
-72.9999999999999432
 30
0.0000000000000162
 11
56.5995849235806432
 21
-72.9999999999999289
 31
0.0000000000000162
210
-0.0000000000000002
220
1.0
230
-0.0000000000000002
  0
ARC
  5
5E87
  8
0
  6
VERDECKT
 62
     1
 10
55.6107040456947388
 20
-51.49322650735715
 30
0.0
 40
1.4999999999999689
210
0.0
220
-0.0000000000000002
230
-1.0
 50
95.4470566892314451
 51
165.0000000000017906
  0
ARC
  5
5E88
  8
0
  6
VERDECKT
 62
     1
 10
-55.6073888960757401
 20
-51.4932265073571216
 30
0.0
 40
1.4999999999999509
210
0.0
220
-0.0000000000000002
230
-1.0
 50
14.9999999999977707
 51
84.5529433107638653
  0
LINE
  5
5E89
  8
0
  6
VERDECKT
 62
     1
 10
-51.8016575748095178
 20
-59.913226507357237
 30
0.0000000000000133
 11
-54.1618153062611611
 21
-51.1049979397034306
 31
0.0000000000000113
210
-0.0000000000000002
220
1.0
230
-0.0000000000000002
  0
LINE
  5
5E8A
  8
0
  6
VERDECKT
 62
     1
 10
51.7983424251905333
 20
-59.9132265073572086
 30
0.0000000000000133
 11
54.1585001566421624
 21
-51.1049979397034022
 31
0.0000000000000113
210
-0.0000000000000002
220
1.0
230
-0.0000000000000002
  0
LINE
  5
5E8B
  8
0
  6
VERDECKT
 62
     1
 10
51.7983424251905333
 20
-59.9132265073572086
 30
0.0000000000000133
 11
51.7983424251905333
 21
-70.4932265073571926
 31
0.0000000000000157
210
-0.0000000000000002
220
1.0
230
-0.0000000000000002
  0
LINE
  5
5E8C
  8
0
  6
VERDECKT
 62
     1
 10
-51.801657574809532
 20
-59.913226507357237
 30
0.0000000000000133
 11
-51.801657574809532
 21
-70.4932265073572211
 31
0.0000000000000157
210
-0.0000000000000002
220
1.0
230
-0.0000000000000002
  0
ARC
  5
5E8D
  8
0
  6
VERDECKT
 62
     1
 10
46.8016575748094681
 20
-70.4932265073571642
 30
0.0
 40
5.0000000000000497
210
0.0
220
-0.0000000000000002
230
-1.0
 50
278.0478462473117816
 51
359.9999999999993179
  0
ARC
  5
5E8E
  8
0
  6
VERDECKT
 62
     1
 10
-46.7983424251904765
 20
-70.4932265073571358
 30
0.0
 40
5.0000000000000426
210
0.0
220
-0.0000000000000002
230
-1.0
 50
180.0000000000005969
 51
261.9521537526882184
  0
LINE
  5
5E8F
  8
0
  6
VERDECKT
 62
     1
 10
-47.5016575748094994
 20
-77.0000000000000142
 30
0.0000000000000171
 11
-47.5016575748094994
 21
-75.4439840251518348
 31
0.0000000000000168
210
-0.0000000000000002
220
1.0
230
-0.0000000000000002
  0
LINE
  5
5E90
  8
0
  6
VERDECKT
 62
     1
 10
47.4983424251905006
 20
-76.9999999999999858
 30
0.0000000000000171
 11
47.4983424251905006
 21
-75.4439840251518063
 31
0.0000000000000168
210
-0.0000000000000002
220
1.0
230
-0.0000000000000002
  0
LINE
  5
5E91
  8
0
  6
VERDECKT
 62
     1
 10
56.5995849235806077
 20
-72.9999999999999432
 30
0.0000000000000162
 11
58.0
 21
-74.9999999999999716
 31
0.0000000000000167
210
-0.0000000000000002
220
1.0
230
-0.0000000000000002
  0
LINE
  5
5E92
  8
0
  6
VERDECKT
 62
     1
 10
-56.5995849235805721
 20
-72.9999999999999716
 30
0.0000000000000162
 11
-57.9999999999999716
 21
-75.0
 31
0.0000000000000167
210
-0.0000000000000002
220
1.0
230
-0.0000000000000002
  0
ARC
  5
5E93
  8
0
  6
VERDECKT
 62
     1
 10
49.5000000000000924
 20
-72.0000000000000568
 30
0.0
 40
4.9999999999999121
210
0.0
220
-0.0000000000000002
230
-1.0
 50
323.130102354156179
 51
348.4630409671851226
  0
ARC
  5
5E94
  8
0
  6
VERDECKT
 62
     1
 10
-49.5000000000001208
 20
-72.0000000000000142
 30
0.0
 40
4.9999999999999112
210
0.0
220
-0.0000000000000002
230
-1.0
 50
191.5369590328147922
 51
216.8698976458437073
  0
LINE
  5
5E95
  8
0
  6
VERDECKT
 62
     1
 10
-49.2074442146849194
 20
0.1492555785314809
 30
0.0
 11
49.2074442146851467
 21
0.1492555785315088
 31
0.0
210
-0.0000000000000002
220
1.0
230
-0.0000000000000002
  0
ARC
  5
5E96
  8
0
  6
VERDECKT
 62
     1
 10
48.999999999996291
 20
8.1246890528023972
 30
0.0
 40
1.000000000003616
210
0.0
220
-0.0000000000000002
230
-1.0
 50
354.2894068625121236
 51
359.9999999999910187
  0
ARC
  5
5E97
  8
0
  6
VERDECKT
 62
     1
 10
-48.9999999999964473
 20
8.1246890528024274
 30
0.0
 40
1.0000000000036731
210
0.0
220
-0.0000000000000002
230
-1.0
 50
180.0000000000090097
 51
185.7105931374875922
  0
LINE
  5
5E98
  8
0
  6
VERDECKT
 62
     1
 10
-49.2074442146849194
 20
0.1492555785314813
 30
0.0
 11
-49.9950371902098922
 21
8.0251853337812413
 31
-0.0000000000000018
210
-0.0000000000000002
220
1.0
230
-0.0000000000000002
  0
LINE
  5
5E99
  8
0
  6
VERDECKT
 62
     1
 10
49.2074442146851467
 20
0.1492555785315094
 30
0.0
 11
49.9950371902101196
 21
8.0251853337812697
 31
-0.0000000000000018
210
-0.0000000000000002
220
1.0
230
-0.0000000000000002
  0
LINE
  5
5E9A
  8
0
  6
VERDECKT
 62
     1
 10
50.0000000000001208
 20
40.0000000000000426
 30
-0.0000000000000089
 11
50.0000000000001279
 21
8.124689052802271
 31
-0.0000000000000018
210
-0.0000000000000002
220
1.0
230
-0.0000000000000002
  0
LINE
  5
5E9B
  8
0
  6
VERDECKT
 62
     1
 10
-49.9999999999999076
 20
40.0000000000000071
 30
-0.0000000000000089
 11
-49.9999999999999005
 21
8.1246890528022426
 31
-0.0000000000000018
210
-0.0000000000000002
220
1.0
230
-0.0000000000000002
  0
ARC
  5
5E9C
  8
0
  6
VERDECKT
 62
     1
 10
53.9999999999999289
 20
60.0
 30
0.0
 40
6.4999999999999929
210
0.0
220
-0.0000000000000002
230
-1.0
 50
329.9796896468806722
 51
359.9999999999998863
  0
ARC
  5
5E9D
  8
0
  6
VERDECKT
 62
     1
 10
-54.0000000000001279
 20
60.0000000000000213
 30
0.0
 40
6.4999999999999734
210
0.0
220
-0.0000000000000002
230
-1.0
 50
179.999999999999801
 51
210.0203103531189868
  0
LINE
  5
5E9E
  8
0
  6
VERDECKT
 62
     1
 10
-58.6179753299170869
 20
55.0000000000002274
 30
-0.0000000000000122
 11
-59.6280127027123967
 21
56.74800476351718
 31
-0.0000000000000126
210
-0.0000000000000002
220
1.0
230
-0.0000000000000002
  0
LINE
  5
5E9F
  8
0
  6
VERDECKT
 62
     1
 10
58.6179753299173001
 20
55.0000000000002629
 30
-0.0000000000000122
 11
59.6280127027126099
 21
56.7480047635172085
 31
-0.0000000000000126
210
-0.0000000000000002
220
1.0
230
-0.0000000000000002
  0
LINE
  5
5EA0
  8
0
  6
VERDECKT
 62
     1
 10
49.2074442146851467
 20
0.1492555785315076
 30
0.0
 11
50.7000000000001307
 21
0.0000000000000092
 31
0.0
210
-0.0000000000000002
220
1.0
230
-0.0000000000000002
  0
LINE
  5
5EA1
  8
0
  6
VERDECKT
 62
     1
 10
-49.2074442146849194
 20
0.1492555785314797
 30
0.0
 11
-50.6999999999999034
 21
-0.0000000000000195
 31
0.0
210
-0.0000000000000002
220
1.0
230
-0.0000000000000002
  0
ARC
  5
5EA2
  8
0
  6
VERDECKT
 62
     1
 10
61.4999999999999929
 20
39.9999999999999929
 30
0.0
 40
11.5000000000000799
210
0.0
220
-0.0000000000000002
230
-1.0
 50
149.9796896468808995
 51
179.999999999999801
  0
ARC
  5
5EA3
  8
0
  6
VERDECKT
 62
     1
 10
-61.5000000000001634
 20
40.0000000000000426
 30
0.0
 40
11.5000000000000302
210
0.0
220
-0.0000000000000002
230
-1.0
 50
360.0
 51
30.0203103531190187
  0
LINE
  5
5EA4
  8
0
  6
VERDECKT
 62
     1
 10
-51.542746756739362
 20
45.7535300337772881
 30
-0.0000000000000102
 11
-58.3292405405479926
 21
57.4984652027055319
 31
-0.0000000000000128
210
-0.0000000000000002
220
1.0
230
-0.0000000000000002
  0
LINE
  5
5EA5
  8
0
  6
VERDECKT
 62
     1
 10
51.5427467567395681
 20
45.7535300337773165
 30
-0.0000000000000102
 11
58.3292405405481915
 21
57.4984652027055674
 31
-0.0000000000000128
210
-0.0000000000000002
220
1.0
230
-0.0000000000000002
  0
ARC
  5
5EA6
  8
0
  6
VERDECKT
 62
     1
 10
54.0000000000000426
 20
59.9999999999999929
 30
0.0
 40
4.9999999999998801
210
0.0
220
-0.0000000000000002
230
-1.0
 50
329.9796896468802743
 51
0.0000000000005839
  0
ARC
  5
5EA7
  8
0
  6
VERDECKT
 62
     1
 10
-54.0000000000001421
 20
60.0000000000000426
 30
0.0
 40
4.9999999999999654
210
0.0
220
-0.0000000000000002
230
-1.0
 50
179.9999999999996021
 51
210.0203103531192141
  0
LINE
  5
5EA8
  8
0
  6
VERDECKT
 62
     1
 10
59.0000000000001066
 20
70.0000000000000426
 30
-0.0000000000000155
 11
59.0000000000001066
 21
60.0000000000000711
 31
-0.0000000000000133
210
-0.0000000000000002
220
1.0
230
-0.0000000000000002
  0
LINE
  5
5EA9
  8
0
  6
VERDECKT
 62
     1
 10
-58.9999999999999218
 20
70.0000000000000142
 30
-0.0000000000000155
 11
-58.9999999999999218
 21
60.0000000000000284
 31
-0.0000000000000133
210
-0.0000000000000002
220
1.0
230
-0.0000000000000002
  0
LINE
  5
5EAA
  8
0
  6
VERDECKT
 62
     1
 10
60.5000000000001066
 20
68.0000000000002132
 30
-0.0000000000000151
 11
60.5000000000001066
 21
60.0000000000000497
 31
-0.0000000000000133
210
-0.0000000000000002
220
1.0
230
-0.0000000000000002
  0
LINE
  5
5EAB
  8
0
  6
VERDECKT
 62
     1
 10
-60.4999999999999289
 20
68.0000000000001847
 30
-0.0000000000000151
 11
-60.4999999999999289
 21
60.0
 31
-0.0000000000000133
210
-0.0000000000000002
220
1.0
230
-0.0000000000000002
  0
LINE
  5
5EAC
  8
0
  6
VERDECKT
 62
     1
 10
59.4027289799050493
 20
56.2036300463043332
 30
-0.0000000000000125
 11
-59.4027289799051417
 21
56.2036300463042977
 31
-0.0000000000000125
210
-0.0000000000000002
220
1.0
230
-0.0000000000000002
  0
LINE
  5
5EAD
  8
0
  6
VERDECKT
 62
     1
 10
-59.4027289799051417
 20
56.2036300463042906
 30
-0.0000000000000125
 11
-67.0917157270475712
 21
66.4072600926081833
 31
-0.0000000000000147
210
-0.0000000000000002
220
1.0
230
-0.0000000000000002
  0
LINE
  5
5EAE
  8
0
  6
VERDECKT
 62
     1
 10
59.4027289799050635
 20
56.203630046304319
 30
-0.0000000000000125
 11
67.091715727047486
 21
66.4072600926082117
 31
-0.0000000000000147
210
-0.0000000000000002
220
1.0
230
-0.0000000000000002
  0
ARC
  5
5EAF
  8
0
  6
VERDECKT
 62
     1
 10
-70.2862577672367053
 20
64.0000000000003837
 30
0.0
 40
3.999999999999841
210
0.0
220
-0.0000000000000002
230
-1.0
 50
36.9999999999951612
 51
90.0000000000003979
  0
ARC
  5
5EB0
  8
0
  6
VERDECKT
 62
     1
 10
70.2862577672368332
 20
64.0000000000003126
 30
0.0
 40
3.9999999999998872
210
0.0
220
-0.0000000000000002
230
-1.0
 50
90.0000000000007958
 51
143.0000000000044906
  0
LINE
  5
5EB1
  8
0
  6
VERDECKT
 62
     1
 10
59.4027289799050493
 20
56.2036300463043332
 30
-0.0000000000000125
 11
60.9999999999999716
 21
55.0000000000002629
 31
-0.0000000000000122
210
-0.0000000000000002
220
1.0
230
-0.0000000000000002
  0
LINE
  5
5EB2
  8
0
  6
VERDECKT
 62
     1
 10
-59.4027289799051417
 20
56.2036300463042977
 30
-0.0000000000000125
 11
-61.0000000000000497
 21
55.0000000000002274
 31
-0.0000000000000122
210
-0.0000000000000002
220
1.0
230
-0.0000000000000002
  0
ENDBLK
  5
5EB4
  8
0
  0
BLOCK
  8
0
  2
A$C5FD423C7
 70
     0
 10
0.0
 20
0.0
 30
0.0
  3
A$C5FD423C7
  1

  0
CIRCLE
  5
5EB8
  8
0
  6
CONTINUOUS
 62
     3
 10
0.0000000000000736
 20
0.0016575748095102
 30
0.0
 40
47.5
  0
CIRCLE
  5
5EB9
  8
0
  6
CONTINUOUS
 62
     3
 10
0.0
 20
-0.0000000000001137
 30
0.0
 40
49.2074442146850117
  0
CIRCLE
  5
5EBA
  8
0
  6
CONTINUOUS
 62
     3
 10
-0.0000000000000114
 20
-0.0000000000001112
 30
0.0
 40
50.0
  0
CIRCLE
  5
5EBB
  8
0
  6
CONTINUOUS
 62
     3
 10
-0.00000000000002
 20
-0.0000000000001094
 30
0.0
 40
59.0
  0
CIRCLE
  5
5EBC
  8
0
  6
CONTINUOUS
 62
     3
 10
-0.00000000000002
 20
-0.0000000000001094
 30
0.0
 40
60.5
  0
ARC
  5
5EBD
  8
0
  6
CONTINUOUS
 62
     3
 10
-0.0000000000000151
 20
0.0
 30
0.0
 40
122.4999999999999005
 50
90.0
 51
270.0
  0
LINE
  5
5EBE
  8
0
  6
CONTINUOUS
 62
     3
 10
0.0000000000000133
 20
-122.4999999999999005
 30
0.0
 11
91.7500000000000142
 21
-122.4999999999999005
 31
-0.0000000000000204
  0
LINE
  5
5EBF
  8
0
  6
CONTINUOUS
 62
     3
 10
91.7499999999999858
 20
122.5
 30
-0.0000000000000142
 11
-0.0000000000000142
 21
122.5
 31
0.0000000000000062
  0
LINE
  5
5EC0
  8
0
  6
CONTINUOUS
 62
     3
 10
93.0
 20
-122.4999999999999005
 30
-0.0000000000000284
 11
94.9999999999999858
 21
-122.4999999999999005
 31
-0.0000000000000289
  0
LINE
  5
5EC1
  8
0
  6
CONTINUOUS
 62
     3
 10
91.7499999999999858
 20
-122.4999999999999005
 30
-0.0000000000000142
 11
92.9999999999999858
 21
-122.4999999999999005
 31
-0.0000000000000142
  0
LINE
  5
5EC2
  8
0
  6
CONTINUOUS
 62
     3
 10
92.9999999999999858
 20
122.5
 30
-0.0000000000000142
 11
91.7499999999999858
 21
122.5
 31
-0.0000000000000142
  0
LINE
  5
5EC3
  8
0
  6
CONTINUOUS
 62
     3
 10
92.9999999999999432
 20
102.5
 30
-0.0000000000000284
 11
92.9999999999999716
 21
122.5
 31
-0.0000000000000284
  0
LINE
  5
5EC4
  8
0
  6
CONTINUOUS
 62
     3
 10
92.9999999999999716
 20
-122.4999999999999005
 30
-0.0000000000000284
 11
92.9999999999999432
 21
-102.4999999999999005
 31
-0.0000000000000284
  0
LINE
  5
5EC5
  8
0
  6
CONTINUOUS
 62
     3
 10
92.9999999999999858
 20
-102.4999999999999005
 30
-0.0000000000000284
 11
92.9999999999999858
 21
102.5
 31
-0.0000000000000284
  0
LINE
  5
5EC6
  8
0
  6
CONTINUOUS
 62
     3
 10
94.9999999999999574
 20
-102.4999999999999005
 30
-0.0000000000000284
 11
94.9999999999999858
 21
-122.4999999999999005
 31
-0.0000000000000284
  0
LINE
  5
5EC7
  8
0
  6
CONTINUOUS
 62
     3
 10
94.9999999999999147
 20
-102.4999999999999005
 30
-0.0000000000000284
 11
94.9999999999999147
 21
102.5000000000000995
 31
-0.0000000000000284
  0
LINE
  5
5EC8
  8
0
  6
CONTINUOUS
 62
     3
 10
94.9999999999999858
 20
122.5
 30
-0.0000000000000284
 11
94.9999999999999574
 21
102.5000000000000995
 31
-0.0000000000000284
  0
LINE
  5
5EC9
  8
0
  6
CONTINUOUS
 62
     3
 10
94.9999999999999432
 20
122.5
 30
-0.0000000000000284
 11
93.0000000000000142
 21
122.5
 31
-0.000000000000028
  0
CIRCLE
  5
5ECA
  8
0
  6
VERDECKT
 62
     1
 10
0.0000000000000701
 20
0.0016575748095112
 30
0.0
 40
51.8000000000000114
  0
CIRCLE
  5
5ECB
  8
0
  6
VERDECKT
 62
     1
 10
0.0000000000000147
 20
-0.0000000000000006
 30
0.0
 40
57.75
  0
CIRCLE
  5
5ECC
  8
0
  6
VERDECKT
 62
     1
 10
0.0000000000000157
 20
-0.0000000000000009
 30
0.0
 40
57.1171444324796695
  0
CIRCLE
  5
5ECD
  8
0
  6
VERDECKT
 62
     1
 10
0.0000000000000167
 20
-0.0000000000000011
 30
0.0
 40
60.0
  0
CIRCLE
  5
5ECE
  8
0
  6
VERDECKT
 62
     1
 10
0.0000000000000167
 20
-0.0000000000000011
 30
0.0
 40
58.0
  0
CIRCLE
  5
5ECF
  8
0
  6
VERDECKT
 62
     1
 10
0.0000000000000162
 20
-0.000000000000001
 30
0.0
 40
56.5995849235806077
  0
CIRCLE
  5
5ED0
  8
0
  6
VERDECKT
 62
     1
 10
0.0000000000000162
 20
-0.000000000000001
 30
0.0
 40
54.3989794855663717
  0
CIRCLE
  5
5ED1
  8
0
  6
VERDECKT
 62
     1
 10
0.0000000000000127
 20
0.0
 30
0.0
 40
59.5
  0
CIRCLE
  5
5ED2
  8
0
  6
VERDECKT
 62
     1
 10
0.0000000000000128
 20
0.0
 30
0.0
 40
54.8394515204001891
  0
CIRCLE
  5
5ED3
  8
0
  6
VERDECKT
 62
     1
 10
-0.0000000000000114
 20
-0.0000000000001112
 30
0.0
 40
51.4999999999999929
  0
CIRCLE
  5
5ED4
  8
0
  6
VERDECKT
 62
     1
 10
0.0
 20
-0.0000000000001137
 30
0.0
 40
50.7000000000000028
  0
CIRCLE
  5
5ED5
  8
0
  6
VERDECKT
 62
     1
 10
-0.0000000000000125
 20
0.0000000000000284
 30
0.0
 40
59.4027289799050706
  0
CIRCLE
  5
5ED6
  8
0
  6
VERDECKT
 62
     1
 10
-0.0000000000000122
 20
0.0000000000000284
 30
0.0
 40
61.0
  0
LINE
  5
5ED7
  8
0
  6
VERDECKT
 62
     1
 10
92.9999999999999432
 20
-98.4999999999999432
 30
-0.0000000000000284
 11
94.9999999999999432
 21
-98.4999999999999432
 31
-0.0000000000000289
  0
LINE
  5
5ED8
  8
0
  6
VERDECKT
 62
     1
 10
92.9999999999999432
 20
-106.4999999999999005
 30
-0.0000000000000284
 11
94.9999999999999432
 21
-106.4999999999999005
 31
-0.0000000000000289
  0
LINE
  5
5ED9
  8
0
  6
VERDECKT
 62
     1
 10
92.9999999999999716
 20
106.5000000000000995
 30
-0.0000000000000284
 11
94.9999999999999858
 21
106.5000000000000995
 31
-0.0000000000000289
  0
LINE
  5
5EDA
  8
0
  6
VERDECKT
 62
     1
 10
92.9999999999999716
 20
98.5000000000001137
 30
-0.0000000000000284
 11
94.9999999999999858
 21
98.5000000000001137
 31
-0.0000000000000289
  0
ENDBLK
  5
5EDC
  8
0
  0
ENDSEC
  0
SECTION
  2
ENTITIES
  0
TEXT
  5
3D7
  8
VOLL
 10
78.076754716981128
 20
31.025947764705851
 30
0.0
 40
1.8
  1

  7
GREEKS
  0
INSERT
  5
AD0
  8
ADSK_ASSOC_ENTITY_BACKUPS
  2
*S0
 10
0.0
 20
0.0
 30
0.0
  0
INSERT
  5
5E3A
  8
STEMPEL
  2
A$C4469C6BD
 10
0.0
 20
0.0
 30
0.0
  0
INSERT
  5
5EB5
  8
STEMPEL
  2
A$C6D694C5B
 10
317.5000000000001137
 20
-0.0000000000000426
 30
0.0
  0
INSERT
  5
5EDD
  8
STEMPEL
  2
A$C5FD423C7
 10
0.0000000000000573
 20
-299.5
 30
0.0000000000000171
  0
VIEWPORT
  5
AAD
 67
     1
  8
0
 10
297.0098784773778107
 20
210.0019748887584115
 30
0.0
 40
798.1701256077442395
 41
426.3698209718668863
 68
     1
 69
     1
1001
ACAD
1000
MVIEW
1002
{
1070
    16
1010
0.0
1020
0.0
1030
0.0
1010
0.0
1020
0.0
1030
1.0
1040
0.0
1040
426.3698209718668863
1040
297.0098784773778107
1040
210.0019748887584115
1040
50.0
1040
0.0
1040
0.0
1070
     0
1070
  1500
1070
     1
1070
     1
1070
     0
1070
     0
1070
     0
1070
     0
1040
0.0
1040
0.0
1040
0.0
1040
10.0
1040
10.0
1040
10.0
1040
10.0
1070
     0
1002
{
1002
}
1002
}
  0
TEXT
  5
CB0
 67
     1
  8
VOLL
 10
625.5592565604117681
 20
227.4217200880700887
 30
0.0
 40
3.6000000000000001
  1

  7
GREEKS
  0
INSERT
  5
2C47
 67
     1
  8
BEM
 62
     2
  2
_NONE
 10
145.302813320879693
 20
197.4788959080279938
 30
0.0
 41
3.0
 42
3.0
 43
3.0
 50
206.5650511770780042
  0
INSERT
  5
2C4E
 67
     1
  8
BEM
 62
     2
  2
_NONE
 10
95.6671163231749233
 20
147.4129904245357068
 30
0.0
 41
3.0
 42
3.0
 43
3.0
 50
41.6356353743305974
  0
ENDSEC
  0
EOF
