  0
SECTION
  2
HEADER
  9
$ACADVER
  1
AC1009
  9
$INSBASE
 10
0.0
 20
0.0
 30
0.0
  9
$EXTMIN
 10
-150.0559039377326087
 20
-423.0062227884845925
 30
-0.0044180662457052
  9
$EXTMAX
 10
150.0313745523235127
 20
91.0751971507852431
 30
0.0081956656350144
  9
$LIMMIN
 10
0.0
 20
0.0
  9
$LIMMAX
 10
1681.9999999999990905
 20
1188.0
  9
$ORTHOMODE
 70
     1
  9
$REGENMODE
 70
     1
  9
$FILLMODE
 70
     1
  9
$QTEXTMODE
 70
     0
  9
$MIRRTEXT
 70
     1
  9
$DRAGMODE
 70
     2
  9
$LTSCALE
 40
20.0
  9
$OSMODE
 70
   511
  9
$ATTMODE
 70
     1
  9
$TEXTSIZE
 40
3.5
  9
$TRACEWID
 40
1.0
  9
$TEXTSTYLE
  7
STANDARD
  9
$CLAYER
  8
STEMPEL
  9
$CELTYPE
  6
BYLAYER
  9
$CECOLOR
 62
   256
  9
$DIMSCALE
 40
1.0
  9
$DIMASZ
 40
3.5
  9
$DIMEXO
 40
1.0
  9
$DIMDLI
 40
0.38
  9
$DIMRND
 40
0.0
  9
$DIMDLE
 40
0.0
  9
$DIMEXE
 40
1.0
  9
$DIMTP
 40
0.0
  9
$DIMTM
 40
0.000000001
  9
$DIMTXT
 40
3.5
  9
$DIMCEN
 40
0.09
  9
$DIMTSZ
 40
0.0
  9
$DIMTOL
 70
     0
  9
$DIMLIM
 70
     0
  9
$DIMTIH
 70
     0
  9
$DIMTOH
 70
     0
  9
$DIMSE1
 70
     0
  9
$DIMSE2
 70
     0
  9
$DIMTAD
 70
     1
  9
$DIMZIN
 70
     8
  9
$DIMBLK
  1

  9
$DIMASO
 70
     1
  9
$DIMSHO
 70
     0
  9
$DIMPOST
  1

  9
$DIMAPOST
  1

  9
$DIMALT
 70
     0
  9
$DIMALTD
 70
     2
  9
$DIMALTF
 40
25.3999999999999986
  9
$DIMLFAC
 40
2.0
  9
$DIMTOFL
 70
     1
  9
$DIMTVP
 40
0.0
  9
$DIMTIX
 70
     0
  9
$DIMSOXD
 70
     0
  9
$DIMSAH
 70
     0
  9
$DIMBLK1
  1

  9
$DIMBLK2
  1

  9
$DIMSTYLE
  2
LORO
  9
$DIMCLRD
 70
     0
  9
$DIMCLRE
 70
     0
  9
$DIMCLRT
 70
     1
  9
$DIMTFAC
 40
0.5
  9
$DIMGAP
 40
1.5
  9
$LUNITS
 70
     2
  9
$LUPREC
 70
     2
  9
$SKETCHINC
 40
1.0
  9
$FILLETRAD
 40
16.0
  9
$AUNITS
 70
     0
  9
$AUPREC
 70
     0
  9
$MENU
  1
ACAD
  9
$ELEVATION
 40
0.0
  9
$PELEVATION
 40
0.0
  9
$THICKNESS
 40
0.0
  9
$LIMCHECK
 70
     0
  9
$BLIPMODE
 70
     0
  9
$CHAMFERA
 40
2.0
  9
$CHAMFERB
 40
2.0
  9
$SKPOLY
 70
     0
  9
$TDCREATE
 40
2455397.867048610933125
  9
$TDUPDATE
 40
2459636.6085879630409181
  9
$TDINDWG
 40
4.1244099073999996
  9
$TDUSRTIMER
 40
4.1244099073999996
  9
$USRTIMER
 70
     1
  9
$ANGBASE
 50
0.0
  9
$ANGDIR
 70
     0
  9
$PDMODE
 70
     0
  9
$PDSIZE
 40
0.0
  9
$PLINEWID
 40
0.0
  9
$COORDS
 70
     1
  9
$SPLFRAME
 70
     0
  9
$SPLINETYPE
 70
     6
  9
$SPLINESEGS
 70
     8
  9
$ATTDIA
 70
     1
  9
$ATTREQ
 70
     1
  9
$HANDLING
 70
     1
  9
$HANDSEED
  5
1A5A4
  9
$SURFTAB1
 70
     6
  9
$SURFTAB2
 70
     6
  9
$SURFTYPE
 70
     6
  9
$SURFU
 70
     6
  9
$SURFV
 70
     6
  9
$UCSNAME
  2

  9
$UCSORG
 10
0.0
 20
0.0
 30
0.0
  9
$UCSXDIR
 10
1.0
 20
0.0
 30
0.0
  9
$UCSYDIR
 10
0.0
 20
1.0
 30
0.0
  9
$PUCSNAME
  2

  9
$PUCSORG
 10
0.0
 20
0.0
 30
0.0
  9
$PUCSXDIR
 10
1.0
 20
0.0
 30
0.0
  9
$PUCSYDIR
 10
0.0
 20
1.0
 30
0.0
  9
$USERI1
 70
     0
  9
$USERI2
 70
     0
  9
$USERI3
 70
     0
  9
$USERI4
 70
     0
  9
$USERI5
 70
     0
  9
$USERR1
 40
0.0
  9
$USERR2
 40
0.0
  9
$USERR3
 40
0.0
  9
$USERR4
 40
0.0
  9
$USERR5
 40
0.0
  9
$WORLDVIEW
 70
     1
  9
$SHADEDGE
 70
     3
  9
$SHADEDIF
 70
    70
  9
$TILEMODE
 70
     1
  9
$MAXACTVP
 70
    16
  9
$PLIMCHECK
 70
     0
  9
$PEXTMIN
 10
1.0000000000000000E+20
 20
1.0000000000000000E+20
 30
1.0000000000000000E+20
  9
$PEXTMAX
 10
-1.0000000000000000E+20
 20
-1.0000000000000000E+20
 30
-1.0000000000000000E+20
  9
$PLIMMIN
 10
-3.0331764529324801
 20
-4.2935761623992903
  9
$PLIMMAX
 10
293.9668235470675199
 20
415.7064238376007097
  9
$UNITMODE
 70
     0
  9
$VISRETAIN
 70
     0
  9
$PLINEGEN
 70
     0
  9
$PSLTSCALE
 70
     0
  0
ENDSEC
  0
SECTION
  2
TABLES
  0
TABLE
  2
VPORT
 70
     1
  0
VPORT
  2
*ACTIVE
 70
     0
 10
0.0
 20
0.0
 11
1.0
 21
1.0
 12
-0.012264692704548
 22
-165.9655128188497031
 13
0.0
 23
0.0
 14
1.0
 24
1.0
 15
10.0
 25
10.0
 16
-0.0000000000002426
 26
0.0
 36
1092.7063947173660381
 17
0.0
 27
0.0
 37
-0.000000000000002
 40
516.7109924197776536
 41
1.8720136518771331
 42
50.0
 43
0.0
 44
0.0
 50
0.0
 51
0.0
 71
     0
 72
  1500
 73
     1
 74
     0
 75
     0
 76
     0
 77
     0
 78
     0
  0
ENDTAB
  0
TABLE
  2
LTYPE
 70
     3
  0
LTYPE
  2
CONTINUOUS
 70
     0
  3
Solid line
 72
    65
 73
     0
 40
0.0
  0
LTYPE
  2
STRICHPUNKT
 70
     0
  3
__ . __ . __ . __ . __ . __ . __ . __ . __ . __
 72
    65
 73
     4
 40
1.0
 49
0.5
 49
-0.25
 49
0.0
 49
-0.25
  0
LTYPE
  2
VERDECKT
 70
     0
  3
Verdeckt __ __ __ __ __ __ __ __ __ __ __ __ __
 72
    65
 73
     2
 40
0.375
 49
0.25
 49
-0.125
  0
ENDTAB
  0
TABLE
  2
LAYER
 70
     7
  0
LAYER
  2
0
 70
     0
 62
     7
  6
CONTINUOUS
  0
LAYER
  2
VOLL
 70
     0
 62
     1
  6
CONTINUOUS
  0
LAYER
  2
STEMPEL
 70
     0
 62
     3
  6
CONTINUOUS
  0
LAYER
  2
DEFPOINTS
 70
     0
 62
     7
  6
CONTINUOUS
  0
LAYER
  2
ADSK_ASSOC_ENTITY_BACKUPS
 70
     1
 62
    -7
  6
CONTINUOUS
  0
ENDTAB
  0
TABLE
  2
STYLE
 70
     3
  0
STYLE
  2
STANDARD
 70
     0
 40
0.0
 41
0.8
 50
0.0
 71
     0
 42
3.5
  3
simplex.shx
  4

  0
STYLE
  2
GREEKS
 70
     0
 40
0.0
 41
0.8
 50
0.0
 71
     0
 42
2.5
  3
SIMPLEX.shx
  4

  0
ENDTAB
  0
TABLE
  2
VIEW
 70
     0
  0
ENDTAB
  0
TABLE
  2
UCS
 70
     0
  0
ENDTAB
  0
TABLE
  2
APPID
 70
    30
  0
APPID
  2
ACAD
 70
     0
  0
APPID
  2
ACAD_EXEMPT_FROM_CAD_STANDARDS
 70
     0
  0
APPID
  2
ACAD_NAV_VCDISPLAY
 70
     0
  0
APPID
  2
GRADIENTCOLOR1ACI
 70
     0
  0
APPID
  2
GRADIENTCOLOR2ACI
 70
     0
  0
APPID
  2
ACAUTHENVIRON
 70
     0
  0
APPID
  2
ACDBDYNAMICBLOCKTRUENAME
 70
     0
  0
APPID
  2
ACDBDYNAMICBLOCKGUID
 70
     0
  0
APPID
  2
ACAD_PSEXT
 70
     0
  0
APPID
  2
ACAD_MLEADERVER
 70
     0
  0
APPID
  2
ACAECLAYERSTANDARD
 70
     0
  0
APPID
  2
ACCMTRANSPARENCY
 70
     0
  0
APPID
  2
ACAD_STEPID
 70
     0
  0
APPID
  2
ACSYNERGY
 70
     0
  0
APPID
  2
SYNERGY_BODY_TBR_ID
 70
     0
  0
APPID
  2
ACAD_VIEW_EDGE_ID
 70
     0
  0
APPID
  2
ACAD_DSTYLE_DIMJAG
 70
     0
  0
APPID
  2
ACAD_DSTYLE_DIMBREAK
 70
     0
  0
APPID
  2
ACAD_DSTYLE_DIMTALN
 70
     0
  0
APPID
  2
ACADANNOMONITORALERTICONDI
 70
     0
  0
APPID
  2
ACAD_DIMASSOC_CALC_DIMLFAC
 70
     0
  0
APPID
  2
ACAD_DIMASSOC_DIMLFAC
 70
     0
  0
APPID
  2
ACAD_DIMASSOC_OVERRIDDEN_D
 70
     0
  0
APPID
  2
ACAD_DSTYLE_DIMRADIAL_EXTENSION
 70
     0
  0
APPID
  2
ACADANNOPO
 70
     0
  0
APPID
  2
ACSYNERGYSKETCH
 70
     0
  0
APPID
  2
ACAD_MODELDOC_XFORM
 70
     0
  0
APPID
  2
SYNERGY_EXCLUDED_FROM_SNAPSHOT
 70
     0
  0
APPID
  2
PLOTTRANSPARENCY
 70
     0
  0
APPID
  2
ACAD_TC
 70
     0
  0
ENDTAB
  0
TABLE
  2
DIMSTYLE
 70
     2
  0
DIMSTYLE
  2
STANDARD
 70
     0
  3

  4

  5

  6

  7

 40
1.0
 41
0.18
 42
0.0625
 43
0.38
 44
0.18
 45
0.0
 46
0.0
 47
0.0
 48
0.0
140
0.18
141
0.09
142
0.0
143
25.3999999999999986
144
1.0
145
0.0
146
1.0
147
0.09
 71
     0
 72
     0
 73
     1
 74
     1
 75
     0
 76
     0
 77
     0
 78
     0
170
     0
171
     2
172
     0
173
     0
174
     0
175
     0
176
     0
177
     0
178
     0
  0
DIMSTYLE
  2
LORO
 70
     0
  3

  4

  5

  6

  7

 40
1.0
 41
3.5
 42
1.0
 43
0.38
 44
1.0
 45
0.0
 46
0.0
 47
0.0
 48
0.000000001
140
3.5
141
0.09
142
0.0
143
25.3999999999999986
144
2.0
145
0.0
146
0.5
147
1.5
 71
     0
 72
     0
 73
     0
 74
     0
 75
     0
 76
     0
 77
     1
 78
     8
170
     0
171
     2
172
     1
173
     0
174
     0
175
     0
176
     0
177
     0
178
     1
  0
ENDTAB
  0
ENDSEC
  0
SECTION
  2
BLOCKS
  0
BLOCK
  8
0
  2
$MODEL_SPACE
 70
     0
 10
0.0
 20
0.0
 30
0.0
  3
$MODEL_SPACE
  1

  0
ENDBLK
  5
38
  8
0
  0
BLOCK
 67
     1
  8
0
  2
$PAPER_SPACE
 70
     0
 10
0.0
 20
0.0
 30
0.0
  3
$PAPER_SPACE
  1

  0
ENDBLK
  5
36
 67
     1
  8
0
  0
BLOCK
  8
0
  2
*S0
 70
     1
 10
0.0
 20
0.0
 30
0.0
  3
*S0
  1

  0
ENDBLK
  5
46EF
  8
0
  0
BLOCK
  8
0
  2
A$C973BBFF1
 70
     0
 10
0.0
 20
0.0
 30
0.0
  3
A$C973BBFF1
  1

  0
LINE
  5
1A4BA
  8
0
  6
CONTINUOUS
 62
     3
 10
-149.9999999999998863
 20
78.9999999999997158
 30
-0.0000000000000175
 11
150.0000000000001137
 21
78.9999999999997158
 31
-0.0000000000000175
210
0.0
220
1.0
230
-0.0000000000000002
  0
LINE
  5
1A4BB
  8
0
  6
CONTINUOUS
 62
     3
 10
-149.9999999999998863
 20
76.9999999999997158
 30
-0.0000000000000171
 11
150.0000000000001137
 21
76.9999999999997158
 31
-0.0000000000000171
210
0.0
220
1.0
230
-0.0000000000000002
  0
LINE
  5
1A4BC
  8
0
  6
CONTINUOUS
 62
     3
 10
-76.3843855426424341
 20
58.9999999999997087
 30
-0.0000000000000131
 11
76.3843855426426614
 21
58.9999999999997087
 31
-0.0000000000000131
210
0.0
220
1.0
230
-0.0000000000000002
  0
LINE
  5
1A4BD
  8
0
  6
CONTINUOUS
 62
     3
 10
150.0000000000001137
 20
78.9999999999997158
 30
-0.0000000000000175
 11
150.0000000000001137
 21
76.9999999999997158
 31
-0.0000000000000171
210
0.0
220
1.0
230
-0.0000000000000002
  0
LINE
  5
1A4BE
  8
0
  6
CONTINUOUS
 62
     3
 10
-149.9999999999998863
 20
78.9999999999997158
 30
-0.0000000000000175
 11
-149.9999999999998863
 21
76.9999999999997158
 31
-0.0000000000000171
210
0.0
220
1.0
230
-0.0000000000000002
  0
ARC
  5
1A4BF
  8
0
  6
CONTINUOUS
 62
     3
 10
82.4999999999999147
 20
73.4999999999997016
 30
0.0
 40
3.5000000000000129
210
0.0
220
-0.0000000000000002
230
-1.0
 50
90.0000000000002132
 51
188.6911874909656035
  0
ARC
  5
1A4C0
  8
0
  6
CONTINUOUS
 62
     3
 10
-82.5000000000001137
 20
73.4999999999997158
 30
0.0
 40
3.4999999999999951
210
0.0
220
-0.0000000000000002
230
-1.0
 50
351.3088125090336007
 51
90.0
  0
ARC
  5
1A4C1
  8
0
  6
CONTINUOUS
 62
     3
 10
60.9784201909491301
 20
70.2101231171173339
 30
0.0
 40
18.2715798090507491
210
0.0
220
-0.0000000000000002
230
-1.0
 50
340.4231257755246247
 51
8.6911874909658984
  0
ARC
  5
1A4C2
  8
0
  6
CONTINUOUS
 62
     3
 10
-60.9784201909498123
 20
70.2101231171173481
 30
0.0
 40
18.2715798090503085
210
0.0
220
-0.0000000000000002
230
-1.0
 50
171.3088125090339133
 51
199.5768742244758869
  0
LINE
  5
1A4C3
  8
0
  6
CONTINUOUS
 62
     3
 10
-76.3843855426424483
 20
58.9999999999997087
 30
-0.0000000000000131
 11
-78.1937706076564183
 21
64.0878409651345748
 31
-0.0000000000000142
210
0.0
220
1.0
230
-0.0000000000000002
  0
LINE
  5
1A4C4
  8
0
  6
CONTINUOUS
 62
     3
 10
76.3843855426426757
 20
58.9999999999997087
 30
-0.0000000000000131
 11
78.1937706076566457
 21
64.0878409651345748
 31
-0.0000000000000142
210
0.0
220
1.0
230
-0.0000000000000002
  0
LINE
  5
1A4C5
  8
0
  6
CONTINUOUS
 62
     3
 10
-75.4999999999998863
 20
-48.999895765664867
 30
0.0000000000000109
 11
75.5000000000001137
 21
-48.999895765664867
 31
0.0000000000000109
210
0.0
220
1.0
230
-0.0000000000000002
  0
LINE
  5
1A4C6
  8
0
  6
CONTINUOUS
 62
     3
 10
-71.4801488286689164
 20
-51.999895765664867
 30
0.0000000000000115
 11
71.4801488286691438
 21
-51.999895765664867
 31
0.0000000000000115
210
0.0
220
1.0
230
-0.0000000000000002
  0
LINE
  5
1A4C7
  8
0
  6
CONTINUOUS
 62
     3
 10
-73.2999999999998835
 20
-56.999895765664867
 30
0.0000000000000127
 11
73.3000000000001108
 21
-56.999895765664867
 31
0.0000000000000127
210
0.0
220
1.0
230
-0.0000000000000002
  0
LINE
  5
1A4C8
  8
0
  6
CONTINUOUS
 62
     3
 10
-73.2999999999998835
 20
-60.0998957656648898
 30
0.0000000000000133
 11
73.3000000000001108
 21
-60.0998957656648898
 31
0.0000000000000133
210
0.0
220
1.0
230
-0.0000000000000002
  0
LINE
  5
1A4C9
  8
0
  6
CONTINUOUS
 62
     3
 10
-75.6999999999999318
 20
-62.4998957656648813
 30
0.0000000000000139
 11
75.7000000000001592
 21
-62.4998957656648813
 31
0.0000000000000139
210
0.0
220
1.0
230
-0.0000000000000002
  0
LINE
  5
1A4CA
  8
0
  6
CONTINUOUS
 62
     3
 10
-75.6999999999999318
 20
-63.499895765664867
 30
0.0000000000000141
 11
75.7000000000001592
 21
-63.499895765664867
 31
0.0000000000000141
210
0.0
220
1.0
230
-0.0000000000000002
  0
LINE
  5
1A4CB
  8
0
  6
CONTINUOUS
 62
     3
 10
-73.4999999999998863
 20
-65.6998957656649054
 30
0.0000000000000146
 11
73.5000000000001137
 21
-65.6998957656649054
 31
0.0000000000000146
210
0.0
220
1.0
230
-0.0000000000000002
  0
LINE
  5
1A4CC
  8
0
  6
CONTINUOUS
 62
     3
 10
-73.4999999999998863
 20
-68.1893839890133364
 30
0.0000000000000151
 11
73.5000000000001137
 21
-68.1893839890133364
 31
0.0000000000000151
210
0.0
220
1.0
230
-0.0000000000000002
  0
LINE
  5
1A4CD
  8
0
  6
CONTINUOUS
 62
     3
 10
-75.6999999999999318
 20
-71.9998957656648741
 30
0.000000000000016
 11
75.7000000000001592
 21
-71.9998957656648741
 31
0.000000000000016
210
0.0
220
1.0
230
-0.0000000000000002
  0
LINE
  5
1A4CE
  8
0
  6
CONTINUOUS
 62
     3
 10
-64.4999999999997726
 20
-72.9998957656648741
 30
0.0000000000000162
 11
64.5
 21
-72.9998957656648741
 31
0.0000000000000162
210
0.0
220
1.0
230
-0.0000000000000002
  0
LINE
  5
1A4CF
  8
0
  6
CONTINUOUS
 62
     3
 10
-71.4999999999999716
 20
-42.0000000000002771
 30
0.0000000000000093
 11
71.5000000000001847
 21
-42.0000000000002771
 31
0.0000000000000093
210
0.0
220
1.0
230
-0.0000000000000002
  0
ARC
  5
1A4D0
  8
0
  6
CONTINUOUS
 62
     3
 10
70.9999999999998721
 20
-49.9998957656648599
 30
0.0
 40
0.9999999999999857
210
0.0
220
-0.0000000000000002
230
-1.0
 50
89.9999999999992042
 51
180.0000000000007105
  0
ARC
  5
1A4D1
  8
0
  6
CONTINUOUS
 62
     3
 10
-71.0000000000000995
 20
-49.9998957656648599
 30
0.0
 40
0.9999999999999857
210
0.0
220
-0.0000000000000002
230
-1.0
 50
359.9999999999992042
 51
90.00000000000081
  0
LINE
  5
1A4D2
  8
0
  6
CONTINUOUS
 62
     3
 10
70.0000000000001137
 20
-49.9998957656648813
 30
0.0000000000000111
 11
70.0000000000001137
 21
-50.999895765664867
 31
0.0000000000000113
210
0.0
220
1.0
230
-0.0000000000000002
  0
LINE
  5
1A4D3
  8
0
  6
CONTINUOUS
 62
     3
 10
-69.9999999999998863
 20
-49.9998957656648813
 30
0.0000000000000111
 11
-69.9999999999998863
 21
-50.999895765664867
 31
0.0000000000000113
210
0.0
220
1.0
230
-0.0000000000000002
  0
ARC
  5
1A4D4
  8
0
  6
CONTINUOUS
 62
     3
 10
70.9999999999998721
 20
-50.9998957656648884
 30
0.0
 40
0.9999999999999857
210
0.0
220
-0.0000000000000002
230
-1.0
 50
179.9999999999992042
 51
270.0000000000007958
  0
ARC
  5
1A4D5
  8
0
  6
CONTINUOUS
 62
     3
 10
-71.0000000000000995
 20
-50.9998957656648884
 30
0.0
 40
0.9999999999999857
210
0.0
220
-0.0000000000000002
230
-1.0
 50
270.0
 51
0.0000000000016284
  0
LINE
  5
1A4D6
  8
0
  6
CONTINUOUS
 62
     3
 10
71.4801488286691438
 20
-51.999895765664867
 30
0.0000000000000115
 11
73.3000000000001251
 21
-56.999895765664867
 31
0.0000000000000127
210
0.0
220
1.0
230
-0.0000000000000002
  0
LINE
  5
1A4D7
  8
0
  6
CONTINUOUS
 62
     3
 10
-71.4801488286689164
 20
-51.999895765664867
 30
0.0000000000000115
 11
-73.2999999999998977
 21
-56.999895765664867
 31
0.0000000000000127
210
0.0
220
1.0
230
-0.0000000000000002
  0
LINE
  5
1A4D8
  8
0
  6
CONTINUOUS
 62
     3
 10
73.3000000000001251
 20
-56.999895765664867
 30
0.0000000000000127
 11
73.3000000000001251
 21
-60.0998957656648898
 31
0.0000000000000133
210
0.0
220
1.0
230
-0.0000000000000002
  0
LINE
  5
1A4D9
  8
0
  6
CONTINUOUS
 62
     3
 10
-73.2999999999998977
 20
-56.999895765664867
 30
0.0000000000000127
 11
-73.2999999999998977
 21
-60.0998957656648898
 31
0.0000000000000133
210
0.0
220
1.0
230
-0.0000000000000002
  0
LINE
  5
1A4DA
  8
0
  6
CONTINUOUS
 62
     3
 10
73.3000000000001251
 20
-60.0998957656648898
 30
0.0000000000000133
 11
75.7000000000001592
 21
-62.4998957656648813
 31
0.0000000000000139
210
0.0
220
1.0
230
-0.0000000000000002
  0
LINE
  5
1A4DB
  8
0
  6
CONTINUOUS
 62
     3
 10
-73.2999999999998977
 20
-60.0998957656648898
 30
0.0000000000000133
 11
-75.6999999999999318
 21
-62.4998957656648813
 31
0.0000000000000139
210
0.0
220
1.0
230
-0.0000000000000002
  0
LINE
  5
1A4DC
  8
0
  6
CONTINUOUS
 62
     3
 10
75.7000000000001592
 20
-62.4998957656648813
 30
0.0000000000000139
 11
75.7000000000001592
 21
-63.499895765664867
 31
0.0000000000000141
210
0.0
220
1.0
230
-0.0000000000000002
  0
LINE
  5
1A4DD
  8
0
  6
CONTINUOUS
 62
     3
 10
-75.6999999999999318
 20
-62.4998957656648813
 30
0.0000000000000139
 11
-75.6999999999999318
 21
-63.499895765664867
 31
0.0000000000000141
210
0.0
220
1.0
230
-0.0000000000000002
  0
LINE
  5
1A4DE
  8
0
  6
CONTINUOUS
 62
     3
 10
-73.4999999999998863
 20
-65.6998957656649054
 30
0.0000000000000146
 11
-75.6999999999999318
 21
-63.499895765664867
 31
0.0000000000000141
210
0.0
220
1.0
230
-0.0000000000000002
  0
LINE
  5
1A4DF
  8
0
  6
CONTINUOUS
 62
     3
 10
73.5000000000001137
 20
-65.6998957656649054
 30
0.0000000000000146
 11
75.7000000000001592
 21
-63.499895765664867
 31
0.0000000000000141
210
0.0
220
1.0
230
-0.0000000000000002
  0
LINE
  5
1A4E0
  8
0
  6
CONTINUOUS
 62
     3
 10
73.5000000000001137
 20
-65.6998957656649054
 30
0.0000000000000146
 11
73.5000000000001137
 21
-68.1893839890133364
 31
0.0000000000000151
210
0.0
220
1.0
230
-0.0000000000000002
  0
LINE
  5
1A4E1
  8
0
  6
CONTINUOUS
 62
     3
 10
-73.4999999999998863
 20
-65.6998957656649054
 30
0.0000000000000146
 11
-73.4999999999998863
 21
-68.1893839890133364
 31
0.0000000000000151
210
0.0
220
1.0
230
-0.0000000000000002
  0
LINE
  5
1A4E2
  8
0
  6
CONTINUOUS
 62
     3
 10
73.5000000000001137
 20
-68.1893839890133364
 30
0.0000000000000151
 11
75.7000000000001592
 21
-71.9998957656648741
 31
0.000000000000016
210
0.0
220
1.0
230
-0.0000000000000002
  0
LINE
  5
1A4E3
  8
0
  6
CONTINUOUS
 62
     3
 10
-73.4999999999998863
 20
-68.1893839890133364
 30
0.0000000000000151
 11
-75.6999999999999318
 21
-71.9998957656648741
 31
0.000000000000016
210
0.0
220
1.0
230
-0.0000000000000002
  0
ARC
  5
1A4E4
  8
0
  6
CONTINUOUS
 62
     3
 10
64.4999999999997726
 20
-66.9998957656649736
 30
0.0
 40
5.9999999999998996
210
0.0
220
-0.0000000000000002
230
-1.0
 50
270.0
 51
303.5573097619210898
  0
ARC
  5
1A4E5
  8
0
  6
CONTINUOUS
 62
     3
 10
-64.5
 20
-66.9998957656649736
 30
0.0
 40
5.9999999999999041
210
0.0
220
-0.0000000000000002
230
-1.0
 50
236.4426902380789102
 51
270.0
  0
ARC
  5
1A4E6
  8
0
  6
CONTINUOUS
 62
     3
 10
71.4758400866409431
 20
-44.7998957656648784
 30
0.0
 40
2.8000000000000078
210
0.0
220
-0.0000000000000002
230
-1.0
 50
15.0000000000002895
 51
89.5056149120656244
  0
ARC
  5
1A4E7
  8
0
  6
CONTINUOUS
 62
     3
 10
-71.4758400866411563
 20
-44.7998957656648997
 30
0.0
 40
2.8000000000000211
210
0.0
220
-0.0000000000000002
230
-1.0
 50
90.4943850879346599
 51
164.9999999999996021
  0
LINE
  5
1A4E8
  8
0
  6
CONTINUOUS
 62
     3
 10
74.180432400250524
 20
-44.0752024393777972
 30
0.0000000000000098
 11
75.5000000000001137
 21
-48.999895765664867
 31
0.0000000000000109
210
0.0
220
1.0
230
-0.0000000000000002
  0
LINE
  5
1A4E9
  8
0
  6
CONTINUOUS
 62
     3
 10
-74.1804324002503108
 20
-44.0752024393778115
 30
0.0000000000000098
 11
-75.4999999999998863
 21
-48.999895765664867
 31
0.0000000000000109
210
0.0
220
1.0
230
-0.0000000000000002
  0
LINE
  5
1A4EA
  8
0
  6
CONTINUOUS
 62
     3
 10
-71.399999999999892
 20
90.9999999999997158
 30
-0.0000000000000202
 11
71.4000000000001336
 21
90.9999999999997158
 31
-0.0000000000000202
210
0.0
220
1.0
230
-0.0000000000000002
  0
LINE
  5
1A4EB
  8
0
  6
CONTINUOUS
 62
     3
 10
-65.6999999999998749
 20
7.9999999999997193
 30
-0.0000000000000018
 11
65.7000000000001023
 21
7.9999999999997051
 31
-0.0000000000000018
210
0.0
220
1.0
230
-0.0000000000000002
  0
ARC
  5
1A4EC
  8
0
  6
CONTINUOUS
 62
     3
 10
59.3999999999998707
 20
80.4169947557413849
 30
0.0
 40
15.9999999999999805
210
0.0
220
-0.0000000000000002
230
-1.0
 50
0.0000000000000509
 51
41.4096221092708205
  0
ARC
  5
1A4ED
  8
0
  6
CONTINUOUS
 62
     3
 10
-59.4000000000001265
 20
80.4169947557413849
 30
0.0
 40
15.9999999999999698
210
0.0
220
-0.0000000000000002
230
-1.0
 50
138.5903778907292008
 51
180.0
  0
LINE
  5
1A4EE
  8
0
  6
CONTINUOUS
 62
     3
 10
75.4000000000001194
 20
80.4169947557413707
 30
-0.0000000000000179
 11
75.4000000000001194
 21
78.99999999999973
 31
-0.0000000000000175
210
0.0
220
1.0
230
-0.0000000000000002
  0
LINE
  5
1A4EF
  8
0
  6
CONTINUOUS
 62
     3
 10
-75.399999999999892
 20
80.4169947557413849
 30
-0.0000000000000179
 11
-75.399999999999892
 21
78.99999999999973
 31
-0.0000000000000175
210
0.0
220
1.0
230
-0.0000000000000002
  0
ARC
  5
1A4F0
  8
0
  6
CONTINUOUS
 62
     3
 10
55.8999999999995012
 20
65.3719500519027292
 30
0.0
 40
19.5000000000004405
210
0.0
220
-0.0000000000000002
230
-1.0
 50
325.0000000000002274
 51
340.927357477289604
  0
ARC
  5
1A4F1
  8
0
  6
CONTINUOUS
 62
     3
 10
-55.8999999999998991
 20
65.3719500519026582
 30
0.0
 40
19.5000000000002593
210
0.0
220
-0.0000000000000002
230
-1.0
 50
199.072642522710396
 51
214.9999999999998863
  0
LINE
  5
1A4F2
  8
0
  6
CONTINUOUS
 62
     3
 10
-67.675511712121434
 20
48.1919111173259367
 30
-0.0000000000000107
 11
-71.8734648636352205
 21
54.1872095430571292
 31
-0.000000000000012
210
0.0
220
1.0
230
-0.0000000000000002
  0
LINE
  5
1A4F3
  8
0
  6
CONTINUOUS
 62
     3
 10
67.6755117121216614
 20
48.1919111173259225
 30
-0.0000000000000107
 11
71.8734648636354336
 21
54.1872095430571221
 31
-0.000000000000012
210
0.0
220
1.0
230
-0.0000000000000002
  0
ARC
  5
1A4F4
  8
0
  6
CONTINUOUS
 62
     3
 10
72.9999999999999574
 20
44.4636642810441032
 30
0.0
 40
6.5000000000000711
210
0.0
220
-0.0000000000000002
230
-1.0
 50
145.0
 51
179.9999999999996874
  0
ARC
  5
1A4F5
  8
0
  6
CONTINUOUS
 62
     3
 10
-73.0
 20
44.46366428104416
 30
0.0
 40
6.4999999999998863
210
0.0
220
-0.0000000000000002
230
-1.0
 50
359.9999999999996021
 51
35.0000000000002487
  0
ARC
  5
1A4F6
  8
0
  6
CONTINUOUS
 62
     3
 10
65.5000000000047891
 20
16.0498756211203215
 30
0.0
 40
0.9999999999950973
210
0.0
220
-0.0000000000000002
230
-1.0
 50
354.2894068624838155
 51
0.0000000000116027
  0
ARC
  5
1A4F7
  8
0
  6
CONTINUOUS
 62
     3
 10
-65.5000000000050733
 20
16.0498756211203109
 30
0.0
 40
0.9999999999950404
210
0.0
220
-0.0000000000000002
230
-1.0
 50
179.9999999999884039
 51
185.7105931375164118
  0
LINE
  5
1A4F8
  8
0
  6
CONTINUOUS
 62
     3
 10
66.5000000000001137
 20
44.4636642810441103
 30
-0.0000000000000099
 11
66.5000000000001137
 21
16.0498756211205098
 31
-0.0000000000000036
210
0.0
220
1.0
230
-0.0000000000000002
  0
LINE
  5
1A4F9
  8
0
  6
CONTINUOUS
 62
     3
 10
-66.4999999999998863
 20
44.4636642810441316
 30
-0.0000000000000099
 11
-66.4999999999998863
 21
16.0498756211205205
 31
-0.0000000000000036
210
0.0
220
1.0
230
-0.0000000000000002
  0
LINE
  5
1A4FA
  8
0
  6
CONTINUOUS
 62
     3
 10
-65.6999999999998892
 20
7.9999999999997167
 30
-0.0000000000000018
 11
-66.4950371902098709
 21
15.9503719020995192
 31
-0.0000000000000035
210
0.0
220
1.0
230
-0.0000000000000002
  0
LINE
  5
1A4FB
  8
0
  6
CONTINUOUS
 62
     3
 10
65.7000000000001165
 20
7.9999999999997016
 30
-0.0000000000000018
 11
66.4950371902100983
 21
15.9503719020995103
 31
-0.0000000000000035
210
0.0
220
1.0
230
-0.0000000000000002
  0
LINE
  5
1A4FC
  8
0
  6
VERDECKT
 62
     1
 10
-74.4999999999999005
 20
59.6701426166715692
 30
-0.0000000000000132
 11
74.5000000000001279
 21
59.6701426166715692
 31
-0.0000000000000132
210
0.0
220
1.0
230
-0.0000000000000002
  0
LINE
  5
1A4FD
  8
0
  6
VERDECKT
 62
     1
 10
74.5000000000001279
 20
59.6701426166715621
 30
-0.0000000000000132
 11
76.3843855426426757
 21
58.9999999999997087
 31
-0.0000000000000131
210
0.0
220
1.0
230
-0.0000000000000002
  0
LINE
  5
1A4FE
  8
0
  6
VERDECKT
 62
     1
 10
-74.4999999999999005
 20
59.6701426166715621
 30
-0.0000000000000132
 11
-76.3843855426424483
 21
58.9999999999997087
 31
-0.0000000000000131
210
0.0
220
1.0
230
-0.0000000000000002
  0
LINE
  5
1A4FF
  8
0
  6
VERDECKT
 62
     1
 10
-74.4999999999999005
 20
59.6701426166715692
 30
-0.0000000000000132
 11
-76.3093850650138705
 21
64.7579835818064424
 31
-0.0000000000000144
210
0.0
220
1.0
230
-0.0000000000000002
  0
LINE
  5
1A500
  8
0
  6
VERDECKT
 62
     1
 10
74.5000000000001279
 20
59.6701426166715692
 30
-0.0000000000000132
 11
76.3093850650140979
 21
64.7579835818064424
 31
-0.0000000000000144
210
0.0
220
1.0
230
-0.0000000000000002
  0
ARC
  5
1A501
  8
0
  6
VERDECKT
 62
     1
 10
60.9784201909497625
 20
70.2101231171172913
 30
0.0
 40
16.2715798090501416
210
0.0
220
-0.0000000000000002
230
-1.0
 50
340.4231257755239994
 51
8.6911874909662803
  0
ARC
  5
1A502
  8
0
  6
VERDECKT
 62
     1
 10
-60.9784201909499899
 20
70.2101231171172913
 30
0.0
 40
16.2715798090501309
210
0.0
220
-0.0000000000000002
230
-1.0
 50
171.308812509033686
 51
199.5768742244758869
  0
ARC
  5
1A503
  8
0
  6
VERDECKT
 62
     1
 10
82.4999999999999147
 20
73.4999999999997158
 30
0.0
 40
5.5000000000000142
210
0.0
220
-0.0000000000000002
230
-1.0
 50
90.0000000000001705
 51
188.6911874909660867
  0
ARC
  5
1A504
  8
0
  6
VERDECKT
 62
     1
 10
-82.5000000000001137
 20
73.4999999999997158
 30
0.0
 40
5.500000000000024
210
0.0
220
-0.0000000000000002
230
-1.0
 50
351.3088125090338281
 51
89.9999999999998437
  0
LINE
  5
1A505
  8
0
  6
VERDECKT
 62
     1
 10
-70.6999999999999318
 20
-68.9998957656648741
 30
0.0000000000000153
 11
70.7000000000001592
 21
-68.9998957656648741
 31
0.0000000000000153
210
0.0
220
1.0
230
-0.0000000000000002
  0
LINE
  5
1A506
  8
0
  6
VERDECKT
 62
     1
 10
-61.4999999999998792
 20
-70.9998957656648741
 30
0.0000000000000158
 11
61.5000000000001066
 21
-70.9998957656648741
 31
0.0000000000000158
210
0.0
220
1.0
230
-0.0000000000000002
  0
LINE
  5
1A507
  8
0
  6
VERDECKT
 62
     1
 10
70.7000000000001592
 20
-68.9998957656648741
 30
0.0000000000000153
 11
73.7000000000001592
 21
-71.9998957656648741
 31
0.000000000000016
210
0.0
220
1.0
230
-0.0000000000000002
  0
LINE
  5
1A508
  8
0
  6
VERDECKT
 62
     1
 10
-70.6999999999999318
 20
-68.9998957656648741
 30
0.0000000000000153
 11
-73.6999999999999318
 21
-71.9998957656648741
 31
0.000000000000016
210
0.0
220
1.0
230
-0.0000000000000002
  0
ARC
  5
1A509
  8
0
  6
VERDECKT
 62
     1
 10
64.4999999999997868
 20
-66.9998957656649736
 30
0.0
 40
5.9999999999998836
210
0.0
220
-0.0000000000000002
230
-1.0
 50
303.5573097619209761
 51
340.5287793655102178
  0
ARC
  5
1A50A
  8
0
  6
VERDECKT
 62
     1
 10
-64.4999999999998437
 20
-66.9998957656648599
 30
0.0
 40
6.0000000000000773
210
0.0
220
-0.0000000000000002
230
-1.0
 50
199.4712206344902086
 51
236.4426902380783986
  0
LINE
  5
1A50B
  8
0
  6
VERDECKT
 62
     1
 10
61.5000000000001066
 20
-70.9998957656648741
 30
0.0000000000000158
 11
61.5000000000001066
 21
-72.9998957656648741
 31
0.0000000000000162
210
0.0
220
1.0
230
-0.0000000000000002
  0
LINE
  5
1A50C
  8
0
  6
VERDECKT
 62
     1
 10
-61.4999999999998792
 20
-70.9998957656648741
 30
0.0000000000000158
 11
-61.4999999999998792
 21
-72.9998957656648741
 31
0.0000000000000162
210
0.0
220
1.0
230
-0.0000000000000002
  0
ARC
  5
1A50D
  8
0
  6
VERDECKT
 62
     1
 10
61.4999999999999076
 20
-64.9998957656648884
 30
0.0
 40
5.9999999999999849
210
0.0
220
-0.0000000000000002
230
-1.0
 50
270.0
 51
0.0000000000003435
  0
ARC
  5
1A50E
  8
0
  6
VERDECKT
 62
     1
 10
-61.5000000000001279
 20
-64.9998957656648884
 30
0.0
 40
5.9999999999999778
210
0.0
220
-0.0000000000000002
230
-1.0
 50
179.999999999999801
 51
270.0000000000002274
  0
LINE
  5
1A50F
  8
0
  6
VERDECKT
 62
     1
 10
67.5000000000001137
 20
-48.999895765664867
 30
0.0000000000000109
 11
67.5000000000001137
 21
-64.9998957656648741
 31
0.0000000000000144
210
0.0
220
1.0
230
-0.0000000000000002
  0
LINE
  5
1A510
  8
0
  6
VERDECKT
 62
     1
 10
-67.4999999999998863
 20
-48.999895765664867
 30
0.0000000000000109
 11
-67.4999999999998863
 21
-64.9998957656648741
 31
0.0000000000000144
210
0.0
220
1.0
230
-0.0000000000000002
  0
LINE
  5
1A511
  8
0
  6
VERDECKT
 62
     1
 10
-67.4999999999998863
 20
-48.999895765664867
 30
0.0000000000000109
 11
-68.8195675997493908
 21
-44.0752024393778399
 31
0.0000000000000098
210
0.0
220
1.0
230
-0.0000000000000002
  0
LINE
  5
1A512
  8
0
  6
VERDECKT
 62
     1
 10
67.5000000000001137
 20
-48.999895765664867
 30
0.0000000000000109
 11
68.8195675997496039
 21
-44.0752024393778399
 31
0.0000000000000098
210
0.0
220
1.0
230
-0.0000000000000002
  0
ARC
  5
1A513
  8
0
  6
VERDECKT
 62
     1
 10
71.5241599133588153
 20
-44.7998957656649068
 30
0.0
 40
2.8000000000000269
210
0.0
220
-0.0000000000000002
230
-1.0
 50
90.4943850879311782
 51
165.0
  0
ARC
  5
1A514
  8
0
  6
VERDECKT
 62
     1
 10
-71.5241599133590427
 20
-44.7998957656649068
 30
0.0
 40
2.800000000000034
210
0.0
220
-0.0000000000000002
230
-1.0
 50
15.0
 51
89.5056149120688076
  0
LINE
  5
1A515
  8
0
  6
VERDECKT
 62
     1
 10
-69.8999999999998636
 20
89.6771243444674013
 30
-0.0000000000000199
 11
69.9000000000001478
 21
89.6771243444674013
 31
-0.0000000000000199
210
0.0
220
1.0
230
-0.0000000000000002
  0
LINE
  5
1A516
  8
0
  6
VERDECKT
 62
     1
 10
-63.7099256195799128
 20
8.1990074380417131
 30
-0.0000000000000018
 11
63.7099256195801189
 21
8.1990074380416988
 31
-0.0000000000000018
210
0.0
220
1.0
230
-0.0000000000000002
  0
ARC
  5
1A517
  8
0
  6
VERDECKT
 62
     1
 10
72.9999999999999716
 20
44.463664281044089
 30
0.0
 40
8.500000000000087
210
0.0
220
-0.0000000000000002
230
-1.0
 50
144.9999999999998863
 51
179.9999999999996874
  0
ARC
  5
1A518
  8
0
  6
VERDECKT
 62
     1
 10
-73.0000000000000284
 20
44.4636642810441387
 30
0.0
 40
8.4999999999999147
210
0.0
220
-0.0000000000000002
230
-1.0
 50
359.9999999999997726
 51
35.0000000000002984
  0
LINE
  5
1A519
  8
0
  6
VERDECKT
 62
     1
 10
-66.037207623543452
 20
49.3390639900280519
 30
-0.000000000000011
 11
-70.2351607750572384
 21
55.3343624157592231
 31
-0.0000000000000123
210
0.0
220
1.0
230
-0.0000000000000002
  0
LINE
  5
1A51A
  8
0
  6
VERDECKT
 62
     1
 10
66.0372076235436793
 20
49.3390639900280377
 30
-0.000000000000011
 11
70.2351607750574658
 21
55.3343624157592018
 31
-0.0000000000000123
210
0.0
220
1.0
230
-0.0000000000000002
  0
ARC
  5
1A51B
  8
0
  6
VERDECKT
 62
     1
 10
55.900000000000027
 20
65.3719500519024592
 30
0.0
 40
17.4999999999997087
210
0.0
220
-0.0000000000000002
230
-1.0
 50
324.9999999999998863
 51
0.0000000000002354
  0
ARC
  5
1A51C
  8
0
  6
VERDECKT
 62
     1
 10
-55.9000000000001123
 20
65.3719500519025161
 30
0.0
 40
17.4999999999998792
210
0.0
220
-0.0000000000000002
230
-1.0
 50
180.0
 51
215.0
  0
LINE
  5
1A51D
  8
0
  6
VERDECKT
 62
     1
 10
73.4000000000001052
 20
80.4169947557413707
 30
-0.0000000000000179
 11
73.4000000000001052
 21
65.3719500519025161
 31
-0.0000000000000145
210
0.0
220
1.0
230
-0.0000000000000002
  0
LINE
  5
1A51E
  8
0
  6
VERDECKT
 62
     1
 10
-73.3999999999998778
 20
80.4169947557413849
 30
-0.0000000000000179
 11
-73.3999999999998778
 21
65.3719500519025303
 31
-0.0000000000000145
210
0.0
220
1.0
230
-0.0000000000000002
  0
ARC
  5
1A51F
  8
0
  6
VERDECKT
 62
     1
 10
59.3999999999999204
 20
80.4169947557414133
 30
0.0
 40
13.9999999999999591
210
0.0
220
-0.0000000000000002
230
-1.0
 50
360.0
 51
41.4096221092709129
  0
ARC
  5
1A520
  8
0
  6
VERDECKT
 62
     1
 10
-59.4000000000001975
 20
80.4169947557414275
 30
0.0
 40
13.9999999999999094
210
0.0
220
-0.0000000000000002
230
-1.0
 50
138.5903778907290871
 51
180.000000000000199
  0
LINE
  5
1A521
  8
0
  6
VERDECKT
 62
     1
 10
-69.8999999999998636
 20
89.677124344467444
 30
-0.0000000000000199
 11
-71.3999999999998636
 21
90.9999999999997442
 31
-0.0000000000000202
210
0.0
220
1.0
230
-0.0000000000000002
  0
LINE
  5
1A522
  8
0
  6
VERDECKT
 62
     1
 10
69.9000000000001336
 20
89.6771243444674155
 30
-0.0000000000000199
 11
71.4000000000001336
 21
90.9999999999997158
 31
-0.0000000000000202
210
0.0
220
1.0
230
-0.0000000000000002
  0
LINE
  5
1A523
  8
0
  6
VERDECKT
 62
     1
 10
75.4000000000001194
 20
78.99999999999973
 30
-0.0000000000000175
 11
75.4000000000001194
 21
65.3719500519025161
 31
-0.0000000000000145
210
0.0
220
1.0
230
-0.0000000000000002
  0
LINE
  5
1A524
  8
0
  6
VERDECKT
 62
     1
 10
-75.399999999999892
 20
78.99999999999973
 30
-0.0000000000000175
 11
-75.399999999999892
 21
65.3719500519025303
 31
-0.0000000000000145
210
0.0
220
1.0
230
-0.0000000000000002
  0
ARC
  5
1A525
  8
0
  6
VERDECKT
 62
     1
 10
55.899999999999828
 20
65.3719500519025303
 30
0.0
 40
19.5000000000000604
210
0.0
220
-0.0000000000000002
230
-1.0
 50
340.9273574772897177
 51
0.0
  0
ARC
  5
1A526
  8
0
  6
VERDECKT
 62
     1
 10
-55.899999999999693
 20
65.3719500519025445
 30
0.0
 40
19.5000000000004192
210
0.0
220
-0.0000000000000002
230
-1.0
 50
180.0
 51
199.0726425227099128
  0
ARC
  5
1A527
  8
0
  6
VERDECKT
 62
     1
 10
63.5000000000048104
 20
16.1496268633623217
 30
0.0
 40
0.9999999999950973
210
0.0
220
-0.0000000000000002
230
-1.0
 50
354.2894068624838155
 51
0.0000000000116027
  0
ARC
  5
1A528
  8
0
  6
VERDECKT
 62
     1
 10
-63.500000000004988
 20
16.149626863362311
 30
0.0
 40
0.9999999999951327
210
0.0
220
-0.0000000000000002
230
-1.0
 50
179.9999999999888018
 51
185.7105931375162129
  0
LINE
  5
1A529
  8
0
  6
VERDECKT
 62
     1
 10
-63.7099256195798986
 20
8.1990074380417131
 30
-0.0000000000000018
 11
-64.4950371902098851
 21
16.0501231443415193
 31
-0.0000000000000036
210
0.0
220
1.0
230
-0.0000000000000002
  0
LINE
  5
1A52A
  8
0
  6
VERDECKT
 62
     1
 10
63.7099256195801331
 20
8.1990074380417024
 30
-0.0000000000000018
 11
64.4950371902101125
 21
16.0501231443415087
 31
-0.0000000000000036
210
0.0
220
1.0
230
-0.0000000000000002
  0
LINE
  5
1A52B
  8
0
  6
VERDECKT
 62
     1
 10
64.5000000000001279
 20
44.4636642810441103
 30
-0.0000000000000099
 11
64.5000000000001279
 21
16.14962686336251
 31
-0.0000000000000036
210
0.0
220
1.0
230
-0.0000000000000002
  0
LINE
  5
1A52C
  8
0
  6
VERDECKT
 62
     1
 10
-64.4999999999999005
 20
44.4636642810441316
 30
-0.0000000000000099
 11
-64.4999999999999005
 21
16.1496268633625206
 31
-0.0000000000000036
210
0.0
220
1.0
230
-0.0000000000000002
  0
LINE
  5
1A52D
  8
0
  6
VERDECKT
 62
     1
 10
63.7099256195801331
 20
8.1990074380417042
 30
-0.0000000000000018
 11
65.7000000000001165
 21
7.999999999999706
 31
-0.0000000000000018
210
0.0
220
1.0
230
-0.0000000000000002
  0
LINE
  5
1A52E
  8
0
  6
VERDECKT
 62
     1
 10
-63.7099256195798986
 20
8.1990074380417184
 30
-0.0000000000000018
 11
-65.6999999999998892
 21
7.9999999999997211
 31
-0.0000000000000018
210
0.0
220
1.0
230
-0.0000000000000002
  0
ENDBLK
  5
1A530
  8
0
  0
BLOCK
  8
0
  2
A$C0CC24061
 70
     0
 10
0.0
 20
0.0
 30
0.0
  3
A$C0CC24061
  1

  0
CIRCLE
  5
1A534
  8
0
  6
CONTINUOUS
 62
     3
 10
0.0000000000001312
 20
-0.000000000000024
 30
0.0
 40
150.0
  0
CIRCLE
  5
1A535
  8
0
  6
CONTINUOUS
 62
     3
 10
0.00000000000013
 20
-0.0000000000000243
 30
0.0
 40
76.9999999999999858
  0
CIRCLE
  5
1A536
  8
0
  6
CONTINUOUS
 62
     3
 10
0.0000000000000979
 20
0.0000000000000018
 30
0.0
 40
61.5
  0
CIRCLE
  5
1A537
  8
0
  6
CONTINUOUS
 62
     3
 10
0.0000000000001276
 20
-0.0000000000000261
 30
0.0
 40
64.5000000000000142
  0
CIRCLE
  5
1A538
  8
0
  6
CONTINUOUS
 62
     3
 10
0.0000000000001423
 20
-0.0000000000000233
 30
0.0
 40
69.9000000000000057
  0
CIRCLE
  5
1A539
  8
0
  6
CONTINUOUS
 62
     3
 10
0.0000000000001428
 20
-0.0000000000000232
 30
0.0
 40
71.4000000000000199
  0
CIRCLE
  5
1A53A
  8
0
  6
CONTINUOUS
 62
     3
 10
0.0000000000001393
 20
-0.0000000000000239
 30
0.0
 40
75.4000000000000057
  0
CIRCLE
  5
1A53B
  8
0
  6
CONTINUOUS
 62
     3
 10
0.0000000000001155
 20
-0.0000000000000284
 30
0.0
 40
63.7099256195800194
  0
CIRCLE
  5
1A53C
  8
0
  6
VERDECKT
 62
     1
 10
0.0000000000001268
 20
-0.0000000000000252
 30
0.0
 40
76.384385542642562
  0
CIRCLE
  5
1A53D
  8
0
  6
VERDECKT
 62
     1
 10
0.0000000000001269
 20
-0.0000000000000251
 30
0.0
 40
74.5000000000000142
  0
CIRCLE
  5
1A53E
  8
0
  6
VERDECKT
 62
     1
 10
0.00000000000013
 20
-0.0000000000000243
 30
0.0
 40
79.0
  0
CIRCLE
  5
1A53F
  8
0
  6
VERDECKT
 62
     1
 10
0.0000000000001293
 20
-0.0000000000000245
 30
0.0
 40
79.25
  0
CIRCLE
  5
1A540
  8
0
  6
VERDECKT
 62
     1
 10
0.0000000000001293
 20
-0.0000000000000245
 30
0.0
 40
77.2500000000000142
  0
CIRCLE
  5
1A541
  8
0
  6
VERDECKT
 62
     1
 10
0.0000000000001028
 20
0.0000000000000031
 30
0.0
 40
75.5
  0
CIRCLE
  5
1A542
  8
0
  6
VERDECKT
 62
     1
 10
0.0000000000001026
 20
0.000000000000003
 30
0.0
 40
70.0
  0
CIRCLE
  5
1A543
  8
0
  6
VERDECKT
 62
     1
 10
0.0000000000001021
 20
0.0000000000000029
 30
0.0
 40
71.4801488286690301
  0
CIRCLE
  5
1A544
  8
0
  6
VERDECKT
 62
     1
 10
0.000000000000101
 20
0.0000000000000026
 30
0.0
 40
73.3000000000000114
  0
CIRCLE
  5
1A545
  8
0
  6
VERDECKT
 62
     1
 10
0.0000000000000998
 20
0.0000000000000023
 30
0.0
 40
75.7000000000000455
  0
CIRCLE
  5
1A546
  8
0
  6
VERDECKT
 62
     1
 10
0.0000000000000991
 20
0.0000000000000021
 30
0.0
 40
73.5
  0
CIRCLE
  5
1A547
  8
0
  6
VERDECKT
 62
     1
 10
0.0000000000000977
 20
0.0000000000000017
 30
0.0
 40
73.7000000000000455
  0
CIRCLE
  5
1A548
  8
0
  6
VERDECKT
 62
     1
 10
0.0000000000000984
 20
0.0000000000000019
 30
0.0
 40
70.7000000000000455
  0
CIRCLE
  5
1A549
  8
0
  6
VERDECKT
 62
     1
 10
0.0000000000000984
 20
0.0000000000000019
 30
0.0
 40
70.1568542494921985
  0
CIRCLE
  5
1A54A
  8
0
  6
VERDECKT
 62
     1
 10
0.0000000000001028
 20
0.0000000000000031
 30
0.0
 40
67.5
  0
CIRCLE
  5
1A54B
  8
0
  6
VERDECKT
 62
     1
 10
0.0000000000001393
 20
-0.0000000000000239
 30
0.0
 40
73.3999999999999915
  0
CIRCLE
  5
1A54C
  8
0
  6
VERDECKT
 62
     1
 10
0.0000000000001276
 20
-0.0000000000000261
 30
0.0
 40
66.5
  0
CIRCLE
  5
1A54D
  8
0
  6
VERDECKT
 62
     1
 10
0.0000000000001155
 20
-0.0000000000000284
 30
0.0
 40
65.7000000000000028
  0
ENDBLK
  5
1A54F
  8
0
  0
ENDSEC
  0
SECTION
  2
ENTITIES
  0
TEXT
  5
416B
  8
VOLL
 10
441.2467849443549994
 20
195.2108867802037935
 30
0.0
 40
1.8
  1

  7
GREEKS
  0
INSERT
  5
46F1
  8
ADSK_ASSOC_ENTITY_BACKUPS
  2
*S0
 10
0.0
 20
0.0
 30
0.0
  0
INSERT
  5
1A531
  8
STEMPEL
  2
A$C973BBFF1
 10
0.0
 20
0.0
 30
0.0
  0
INSERT
  5
1A550
  8
STEMPEL
  2
A$C0CC24061
 10
0.0
 20
-272.9998957656649168
 30
0.0000000000000162
  0
VIEWPORT
  5
46D0
 67
     1
  8
0
 10
145.4668235470674915
 20
205.7064238376007097
 30
0.0
 40
790.2674510967764263
 41
422.1483375959078899
 68
     1
 69
     1
1001
ACAD
1000
MVIEW
1002
{
1070
    16
1010
0.0
1020
0.0
1030
0.0
1010
0.0
1020
0.0
1030
1.0
1040
0.0
1040
422.1483375959078899
1040
145.4668235470674915
1040
205.7064238376007097
1040
50.0
1040
0.0
1040
0.0
1070
     0
1070
  1500
1070
     1
1070
     1
1070
     0
1070
     0
1070
     0
1070
     0
1040
0.0
1040
0.0
1040
0.0
1040
10.0
1040
10.0
1040
10.0
1040
10.0
1070
     0
1002
{
1002
}
1002
}
  0
ENDSEC
  0
EOF
