  0
SECTION
  2
HEADER
  9
$ACADVER
  1
AC1009
  9
$INSBASE
 10
0.0
 20
0.0
 30
0.0
  9
$EXTMIN
 10
-122.4999999999999005
 20
-372.0
 30
-0.0000000000000212
  9
$EXTMAX
 10
122.5000000000000995
 20
85.0000000000000568
 30
0.0000000000000171
  9
$LIMMIN
 10
0.0
 20
0.0
  9
$LIMMAX
 10
210.0
 20
297.0
  9
$ORTHOMODE
 70
     1
  9
$REGENMODE
 70
     1
  9
$FILLMODE
 70
     1
  9
$QTEXTMODE
 70
     0
  9
$MIRRTEXT
 70
     1
  9
$DRAGMODE
 70
     2
  9
$LTSCALE
 40
10.0
  9
$OSMODE
 70
   511
  9
$ATTMODE
 70
     1
  9
$TEXTSIZE
 40
3.5
  9
$TRACEWID
 40
0.5
  9
$TEXTSTYLE
  7
STANDARD
  9
$CLAYER
  8
STEMPEL
  9
$CELTYPE
  6
BYLAYER
  9
$CECOLOR
 62
   256
  9
$DIMSCALE
 40
1.0
  9
$DIMASZ
 40
3.5
  9
$DIMEXO
 40
1.0
  9
$DIMDLI
 40
0.38
  9
$DIMRND
 40
0.0
  9
$DIMDLE
 40
0.0
  9
$DIMEXE
 40
1.0
  9
$DIMTP
 40
0.0
  9
$DIMTM
 40
0.000000001
  9
$DIMTXT
 40
3.5
  9
$DIMCEN
 40
0.09
  9
$DIMTSZ
 40
0.0
  9
$DIMTOL
 70
     0
  9
$DIMLIM
 70
     0
  9
$DIMTIH
 70
     0
  9
$DIMTOH
 70
     0
  9
$DIMSE1
 70
     0
  9
$DIMSE2
 70
     0
  9
$DIMTAD
 70
     1
  9
$DIMZIN
 70
     8
  9
$DIMBLK
  1

  9
$DIMASO
 70
     1
  9
$DIMSHO
 70
     0
  9
$DIMPOST
  1

  9
$DIMAPOST
  1

  9
$DIMALT
 70
     0
  9
$DIMALTD
 70
     2
  9
$DIMALTF
 40
25.3999999999999986
  9
$DIMLFAC
 40
2.0
  9
$DIMTOFL
 70
     1
  9
$DIMTVP
 40
0.0
  9
$DIMTIX
 70
     0
  9
$DIMSOXD
 70
     0
  9
$DIMSAH
 70
     0
  9
$DIMBLK1
  1

  9
$DIMBLK2
  1

  9
$DIMSTYLE
  2
LORO
  9
$DIMCLRD
 70
     0
  9
$DIMCLRE
 70
     0
  9
$DIMCLRT
 70
     1
  9
$DIMTFAC
 40
0.5
  9
$DIMGAP
 40
1.5
  9
$LUNITS
 70
     2
  9
$LUPREC
 70
     2
  9
$SKETCHINC
 40
1.0
  9
$FILLETRAD
 40
13.5
  9
$AUNITS
 70
     0
  9
$AUPREC
 70
     0
  9
$MENU
  1
ACAD
  9
$ELEVATION
 40
0.0
  9
$PELEVATION
 40
0.0
  9
$THICKNESS
 40
0.0
  9
$LIMCHECK
 70
     0
  9
$BLIPMODE
 70
     0
  9
$CHAMFERA
 40
0.0
  9
$CHAMFERB
 40
0.0
  9
$SKPOLY
 70
     0
  9
$TDCREATE
 40
2455397.8646990740671754
  9
$TDUPDATE
 40
2459761.4123611110262573
  9
$TDINDWG
 40
0.6324426157
  9
$TDUSRTIMER
 40
0.6324426157
  9
$USRTIMER
 70
     1
  9
$ANGBASE
 50
0.0
  9
$ANGDIR
 70
     0
  9
$PDMODE
 70
     0
  9
$PDSIZE
 40
0.0
  9
$PLINEWID
 40
0.0
  9
$COORDS
 70
     1
  9
$SPLFRAME
 70
     0
  9
$SPLINETYPE
 70
     6
  9
$SPLINESEGS
 70
     8
  9
$ATTDIA
 70
     1
  9
$ATTREQ
 70
     1
  9
$HANDLING
 70
     1
  9
$HANDSEED
  5
3428
  9
$SURFTAB1
 70
     6
  9
$SURFTAB2
 70
     6
  9
$SURFTYPE
 70
     6
  9
$SURFU
 70
     6
  9
$SURFV
 70
     6
  9
$UCSNAME
  2

  9
$UCSORG
 10
0.0
 20
0.0
 30
0.0
  9
$UCSXDIR
 10
1.0
 20
0.0
 30
0.0
  9
$UCSYDIR
 10
0.0
 20
1.0
 30
0.0
  9
$PUCSNAME
  2

  9
$PUCSORG
 10
0.0
 20
0.0
 30
0.0
  9
$PUCSXDIR
 10
1.0
 20
0.0
 30
0.0
  9
$PUCSYDIR
 10
0.0
 20
1.0
 30
0.0
  9
$USERI1
 70
     0
  9
$USERI2
 70
     0
  9
$USERI3
 70
     0
  9
$USERI4
 70
     0
  9
$USERI5
 70
     0
  9
$USERR1
 40
0.0
  9
$USERR2
 40
0.0
  9
$USERR3
 40
0.0
  9
$USERR4
 40
0.0
  9
$USERR5
 40
0.0
  9
$WORLDVIEW
 70
     1
  9
$SHADEDGE
 70
     3
  9
$SHADEDIF
 70
    70
  9
$TILEMODE
 70
     1
  9
$MAXACTVP
 70
    16
  9
$PLIMCHECK
 70
     0
  9
$PEXTMIN
 10
1.0000000000000000E+20
 20
1.0000000000000000E+20
 30
1.0000000000000000E+20
  9
$PEXTMAX
 10
-1.0000000000000000E+20
 20
-1.0000000000000000E+20
 30
-1.0000000000000000E+20
  9
$PLIMMIN
 10
-3.0064324998759271
 20
-4.292684957348512
  9
$PLIMMAX
 10
293.9935675001240725
 20
415.7073150426514871
  9
$UNITMODE
 70
     0
  9
$VISRETAIN
 70
     0
  9
$PLINEGEN
 70
     0
  9
$PSLTSCALE
 70
     0
  0
ENDSEC
  0
SECTION
  2
TABLES
  0
TABLE
  2
VPORT
 70
     1
  0
VPORT
  2
*ACTIVE
 70
     0
 10
0.0
 20
0.0
 11
1.0
 21
1.0
 12
21.7840128333824588
 22
-45.1683013745942787
 13
0.0
 23
0.0
 14
1.0
 24
1.0
 15
10.0
 25
10.0
 16
-0.0000000000004903
 26
0.0
 36
2203.9355492740569389
 17
-21.7840128333824197
 27
-98.331698625405707
 37
-0.0000000000000057
 40
459.337595907928403
 41
1.872013651877132
 42
50.0
 43
0.0
 44
0.0
 50
0.0
 51
0.0
 71
     0
 72
  1500
 73
     1
 74
     0
 75
     0
 76
     0
 77
     0
 78
     0
  0
ENDTAB
  0
TABLE
  2
LTYPE
 70
     6
  0
LTYPE
  2
CONTINUOUS
 70
     0
  3
Solid line
 72
    65
 73
     0
 40
0.0
  0
LTYPE
  2
STRICHPUNKT
 70
     0
  3
__ . __ . __ . __ . __ . __ . __ . __ . __ . __
 72
    65
 73
     4
 40
1.0
 49
0.5
 49
-0.25
 49
0.0
 49
-0.25
  0
LTYPE
  2
AUSGEZOGEN
 70
     0
  3
Ausgezogene Linie
 72
    65
 73
     0
 40
0.0
  0
LTYPE
  2
VERDECKT
 70
     0
  3
_ _ _ _ _ _ _ _ _ _ _ _ _ _ _ _ _ _ _ _ _ _ _
 72
    65
 73
     2
 40
0.375
 49
0.25
 49
-0.125
  0
ENDTAB
  0
TABLE
  2
LAYER
 70
    18
  0
LAYER
  2
0
 70
     0
 62
     7
  6
CONTINUOUS
  0
LAYER
  2
VOLL
 70
     0
 62
     1
  6
CONTINUOUS
  0
LAYER
  2
STEMPEL
 70
     0
 62
     3
  6
CONTINUOUS
  0
LAYER
  2
DEFPOINTS
 70
     0
 62
     7
  6
CONTINUOUS
  0
LAYER
  2
ADSK_ASSOC_ENTITY_BACKUPS
 70
     1
 62
    -7
  6
CONTINUOUS
  0
ENDTAB
  0
TABLE
  2
STYLE
 70
     3
  0
STYLE
  2
STANDARD
 70
     0
 40
0.0
 41
0.8
 50
0.0
 71
     0
 42
3.5
  3
simplex.shx
  4

  0
STYLE
  2
GREEKS
 70
     0
 40
0.0
 41
0.8
 50
0.0
 71
     0
 42
2.5
  3
SIMPLEX.shx
  4

  0
ENDTAB
  0
TABLE
  2
VIEW
 70
     1
  0
ENDTAB
  0
TABLE
  2
UCS
 70
     0
  0
ENDTAB
  0
TABLE
  2
APPID
 70
    45
  0
APPID
  2
ACAD
 70
     0
  0
APPID
  2
ACADANNOMONITORALERTICONDI
 70
     0
  0
APPID
  2
ACAD_EXEMPT_FROM_CAD_STANDARDS
 70
     0
  0
APPID
  2
ACAD_NAV_VCDISPLAY
 70
     0
  0
APPID
  2
GRADIENTCOLOR1ACI
 70
     0
  0
APPID
  2
GRADIENTCOLOR2ACI
 70
     0
  0
APPID
  2
ACAD_MLEADERVER
 70
     0
  0
APPID
  2
ACAD_PSEXT
 70
     0
  0
APPID
  2
ACAD_DSTYLE_DIMRADIAL_EXTENSION
 70
     0
  0
APPID
  2
ACAECLAYERSTANDARD
 70
     0
  0
APPID
  2
ACCMTRANSPARENCY
 70
     0
  0
APPID
  2
ACAD_DSTYLE_DIMJAG
 70
     0
  0
APPID
  2
ACAD_DSTYLE_DIMTALN
 70
     0
  0
APPID
  2
ACSYNERGY
 70
     0
  0
APPID
  2
SYNERGY_BODY_TBR_ID
 70
     0
  0
APPID
  2
ACAD_VIEW_EDGE_ID
 70
     0
  0
APPID
  2
ACAD_STEPID
 70
     0
  0
APPID
  2
ACADANNOPO
 70
     0
  0
APPID
  2
ACAD_OBJECT_CHANGE_GUID
 70
     0
  0
APPID
  2
MCAD_NO_VIS
 70
     0
  0
APPID
  2
ACAD_TEMP_GRAPHIC
 70
     0
  0
APPID
  2
ACATTRIBSERVICES
 70
     0
  0
APPID
  2
DESIGNERASSEMBLIES
 70
     0
  0
APPID
  2
ACAD_DSTYLE_DIMBREAK
 70
     0
  0
APPID
  2
GENIUS_GENSCREG_15
 70
     0
  0
APPID
  2
GENIUS_GENOBJ-N-SDF_13
 70
     0
  0
APPID
  2
GENIUS_GENODEF_13
 70
     0
  0
APPID
  2
ACAD_DSTYLE_DIMARC_LENGTH_
 70
     0
  0
APPID
  2
ACAD_DSTYLE_DIM_LINETYPE
 70
     0
  0
APPID
  2
ACAD_DSTYLE_DIM_EXT1_LINETYPE
 70
     0
  0
APPID
  2
ACAD_DSTYLE_DIM_EXT2_LINETYPE
 70
     0
  0
APPID
  2
RAK
 70
     0
  0
APPID
  2
ACSYNERGYSKETCH
 70
     0
  0
APPID
  2
ACAD_MODELDOC_XFORM
 70
     0
  0
APPID
  2
GENIUS_GENDTOL_13
 70
     0
  0
APPID
  2
ACAD_DSTYLE_DIMINSPECT
 70
     0
  0
APPID
  2
ACAD_DSTYLE_DIMANGULAR_EXT
 70
     0
  0
APPID
  2
PLOTTRANSPARENCY
 70
     0
  0
APPID
  2
ACAUTHENVIRON
 70
     0
  0
APPID
  2
ACDBDYNAMICBLOCKTRUENAME
 70
     0
  0
APPID
  2
ACDBDYNAMICBLOCKGUID
 70
     0
  0
APPID
  2
PE_URL
 70
     0
  0
APPID
  2
ACADANNOAV
 70
     0
  0
APPID
  2
ACAD_TC
 70
     0
  0
APPID
  2
AcDbAttr
 70
     0
  0
ENDTAB
  0
TABLE
  2
DIMSTYLE
 70
     2
  0
DIMSTYLE
  2
STANDARD
 70
     0
  3

  4

  5

  6

  7

 40
1.0
 41
0.18
 42
0.0625
 43
0.38
 44
0.18
 45
0.0
 46
0.0
 47
0.0
 48
0.0
140
0.18
141
0.09
142
0.0
143
25.3999999999999986
144
1.0
145
0.0
146
1.0
147
0.09
 71
     0
 72
     0
 73
     1
 74
     1
 75
     0
 76
     0
 77
     0
 78
     0
170
     0
171
     2
172
     0
173
     0
174
     0
175
     0
176
     0
177
     0
178
     0
  0
DIMSTYLE
  2
LORO
 70
     0
  3

  4

  5

  6

  7

 40
1.0
 41
3.5
 42
1.0
 43
0.38
 44
1.0
 45
0.0
 46
0.0
 47
0.0
 48
0.000000001
140
3.5
141
0.09
142
0.0
143
25.3999999999999986
144
2.0
145
0.0
146
0.5
147
1.5
 71
     0
 72
     0
 73
     0
 74
     0
 75
     0
 76
     0
 77
     1
 78
     8
170
     0
171
     2
172
     1
173
     0
174
     0
175
     0
176
     0
177
     0
178
     1
  0
ENDTAB
  0
ENDSEC
  0
SECTION
  2
BLOCKS
  0
BLOCK
  8
0
  2
$MODEL_SPACE
 70
     0
 10
0.0
 20
0.0
 30
0.0
  3
$MODEL_SPACE
  1

  0
ENDBLK
  5
36
  8
0
  0
BLOCK
 67
     1
  8
0
  2
$PAPER_SPACE
 70
     0
 10
0.0
 20
0.0
 30
0.0
  3
$PAPER_SPACE
  1

  0
ENDBLK
  5
34
 67
     1
  8
0
  0
BLOCK
  8
0
  2
*S0
 70
     1
 10
0.0
 20
0.0
 30
0.0
  3
*S0
  1

  0
ENDBLK
  5
C34
  8
0
  0
BLOCK
  8
0
  2
A$C341F4DAF
 70
     0
 10
0.0
 20
0.0
 30
0.0
  3
A$C341F4DAF
  1

  0
CIRCLE
  5
3348
  8
0
  6
CONTINUOUS
 62
     3
 10
-0.0000000000000168
 20
0.0
 30
0.0
 40
47.5
  0
CIRCLE
  5
3349
  8
0
  6
CONTINUOUS
 62
     3
 10
0.0000000000000984
 20
0.0000000000000001
 30
0.0
 40
59.4032540765464674
  0
CIRCLE
  5
334A
  8
0
  6
CONTINUOUS
 62
     3
 10
0.000000000000101
 20
0.0000000000000008
 30
0.0
 40
122.5
  0
CIRCLE
  5
334B
  8
0
  6
CONTINUOUS
 62
     3
 10
0.0
 20
0.0
 30
0.0
 40
49.3074442146850203
  0
CIRCLE
  5
334C
  8
0
  6
CONTINUOUS
 62
     3
 10
0.0000000000000094
 20
-0.0000000000000142
 30
0.0
 40
50.0
  0
CIRCLE
  5
334D
  8
0
  6
CONTINUOUS
 62
     3
 10
0.0000000000000187
 20
-0.0000000000000284
 30
0.0
 40
53.5000000000000071
  0
CIRCLE
  5
334E
  8
0
  6
CONTINUOUS
 62
     3
 10
0.0000000000000189
 20
-0.0000000000000284
 30
0.0
 40
54.6379310344827829
  0
CIRCLE
  5
334F
  8
0
  6
CONTINUOUS
 62
     3
 10
0.0000000000000166
 20
-0.0000000000000284
 30
0.0
 40
58.4999999999999787
  0
CIRCLE
  5
3350
  8
0
  6
VERDECKT
 62
     1
 10
-0.0000000000000127
 20
0.0
 30
0.0
 40
59.75
  0
CIRCLE
  5
3351
  8
0
  6
VERDECKT
 62
     1
 10
-0.0000000000000145
 20
0.0
 30
0.0
 40
57.5043306663375233
  0
CIRCLE
  5
3352
  8
0
  6
VERDECKT
 62
     1
 10
-0.0000000000000157
 20
0.0
 30
0.0
 40
57.75
  0
CIRCLE
  5
3353
  8
0
  6
VERDECKT
 62
     1
 10
-0.0000000000000167
 20
0.0
 30
0.0
 40
60.0
  0
CIRCLE
  5
3354
  8
0
  6
VERDECKT
 62
     1
 10
-0.0000000000000167
 20
0.0
 30
0.0
 40
58.0
  0
CIRCLE
  5
3355
  8
0
  6
VERDECKT
 62
     1
 10
-0.0000000000000162
 20
0.0
 30
0.0
 40
56.5995849235805508
  0
CIRCLE
  5
3356
  8
0
  6
VERDECKT
 62
     1
 10
-0.0000000000000162
 20
0.0
 30
0.0
 40
54.3989794855663433
  0
CIRCLE
  5
3357
  8
0
  6
VERDECKT
 62
     1
 10
-0.0000000000000125
 20
0.0
 30
0.0
 40
52.5
  0
CIRCLE
  5
3358
  8
0
  6
VERDECKT
 62
     1
 10
-0.0000000000000128
 20
0.0
 30
0.0
 40
54.8425184053936334
  0
CIRCLE
  5
3359
  8
0
  6
VERDECKT
 62
     1
 10
-0.0000000000000126
 20
0.0
 30
0.0
 40
59.7503859521235299
  0
CIRCLE
  5
335A
  8
0
  6
VERDECKT
 62
     1
 10
0.0000000000000981
 20
0.0
 30
0.0
 40
61.0000000000000071
  0
CIRCLE
  5
335B
  8
0
  6
VERDECKT
 62
     1
 10
0.0
 20
0.0
 30
0.0
 40
50.7999999999999829
  0
CIRCLE
  5
335C
  8
0
  6
VERDECKT
 62
     1
 10
0.0000000000000094
 20
-0.0000000000000142
 30
0.0
 40
51.4999999999999929
  0
CIRCLE
  5
335D
  8
0
  6
VERDECKT
 62
     1
 10
0.0000000000000166
 20
-0.0000000000000284
 30
0.0
 40
56.9999999999999929
  0
ENDBLK
  5
335F
  8
0
  0
BLOCK
  8
0
  2
A$C1D430DF1
 70
     0
 10
0.0
 20
0.0
 30
0.0
  3
A$C1D430DF1
  1

  0
LINE
  5
3363
  8
0
  6
CONTINUOUS
 62
     3
 10
-59.7499999999999929
 20
-57.0000000000000071
 30
0.0000000000000127
 11
59.7499999999999929
 21
-57.0000000000000071
 31
0.0000000000000127
210
0.0
220
1.0
230
-0.0000000000000002
  0
LINE
  5
3364
  8
0
  6
CONTINUOUS
 62
     3
 10
-57.5043306663375517
 20
-65.2543306663375091
 30
0.0000000000000145
 11
57.5043306663375233
 21
-65.2543306663375091
 31
0.0000000000000145
210
0.0
220
1.0
230
-0.0000000000000002
  0
LINE
  5
3365
  8
0
  6
CONTINUOUS
 62
     3
 10
-59.7499999999999929
 20
-67.4999999999999574
 30
0.000000000000015
 11
59.7499999999999929
 21
-67.4999999999999574
 31
0.000000000000015
210
0.0
220
1.0
230
-0.0000000000000002
  0
LINE
  5
3366
  8
0
  6
CONTINUOUS
 62
     3
 10
-59.7499999999999929
 20
-68.4999999999999858
 30
0.0000000000000152
 11
59.7499999999999929
 21
-68.4999999999999858
 31
0.0000000000000152
210
0.0
220
1.0
230
-0.0000000000000002
  0
LINE
  5
3367
  8
0
  6
CONTINUOUS
 62
     3
 10
-57.7500000000000284
 20
-70.4999999999999858
 30
0.0000000000000157
 11
57.75
 21
-70.4999999999999858
 31
0.0000000000000157
210
0.0
220
1.0
230
-0.0000000000000002
  0
LINE
  5
3368
  8
0
  6
CONTINUOUS
 62
     3
 10
-57.7500000000000284
 20
-71.1028856829699833
 30
0.0000000000000158
 11
57.75
 21
-71.1028856829699833
 31
0.0000000000000158
210
0.0
220
1.0
230
-0.0000000000000002
  0
LINE
  5
3369
  8
0
  6
CONTINUOUS
 62
     3
 10
-60.0
 20
-74.9999999999999574
 30
0.0000000000000167
 11
60.0
 21
-74.9999999999999574
 31
0.0000000000000167
210
0.0
220
1.0
230
-0.0000000000000002
  0
LINE
  5
336A
  8
0
  6
CONTINUOUS
 62
     3
 10
-49.5000000000000213
 20
-76.9999999999999858
 30
0.0000000000000171
 11
49.5
 21
-76.9999999999999858
 31
0.0000000000000171
210
0.0
220
1.0
230
-0.0000000000000002
  0
ARC
  5
336B
  8
0
  6
CONTINUOUS
 62
     3
 10
55.6425184053936519
 20
-57.8000000000000185
 30
0.0
 40
0.8000000000000113
210
0.0
220
-0.0000000000000002
230
-1.0
 50
89.9999999999984936
 51
199.9999999999998863
  0
ARC
  5
336C
  8
0
  6
CONTINUOUS
 62
     3
 10
-55.6425184053936519
 20
-57.8000000000000185
 30
0.0
 40
0.8000000000000186
210
0.0
220
-0.0000000000000002
230
-1.0
 50
340.0
 51
90.0000000000015206
  0
LINE
  5
336D
  8
0
  6
CONTINUOUS
 62
     3
 10
54.8907643087649078
 20
-58.0736161146605596
 30
0.0000000000000129
 11
57.5043306663375233
 21
-65.2543306663375091
 31
0.0000000000000145
210
0.0
220
1.0
230
-0.0000000000000002
  0
LINE
  5
336E
  8
0
  6
CONTINUOUS
 62
     3
 10
-54.8907643087649078
 20
-58.0736161146605596
 30
0.0000000000000129
 11
-57.5043306663375233
 21
-65.2543306663375091
 31
0.0000000000000145
210
0.0
220
1.0
230
-0.0000000000000002
  0
LINE
  5
336F
  8
0
  6
CONTINUOUS
 62
     3
 10
57.5043306663375233
 20
-65.2543306663375091
 30
0.0000000000000145
 11
59.75
 21
-67.4999999999999574
 31
0.000000000000015
210
0.0
220
1.0
230
-0.0000000000000002
  0
LINE
  5
3370
  8
0
  6
CONTINUOUS
 62
     3
 10
-57.5043306663375233
 20
-65.2543306663375091
 30
0.0000000000000145
 11
-59.75
 21
-67.4999999999999574
 31
0.000000000000015
210
0.0
220
1.0
230
-0.0000000000000002
  0
LINE
  5
3371
  8
0
  6
CONTINUOUS
 62
     3
 10
59.75
 20
-67.4999999999999574
 30
0.000000000000015
 11
59.75
 21
-68.4999999999999858
 31
0.0000000000000152
210
0.0
220
1.0
230
-0.0000000000000002
  0
LINE
  5
3372
  8
0
  6
CONTINUOUS
 62
     3
 10
-59.75
 20
-67.4999999999999574
 30
0.000000000000015
 11
-59.75
 21
-68.4999999999999858
 31
0.0000000000000152
210
0.0
220
1.0
230
-0.0000000000000002
  0
LINE
  5
3373
  8
0
  6
CONTINUOUS
 62
     3
 10
-57.75
 20
-70.4999999999999858
 30
0.0000000000000157
 11
-59.75
 21
-68.4999999999999858
 31
0.0000000000000152
210
0.0
220
1.0
230
-0.0000000000000002
  0
LINE
  5
3374
  8
0
  6
CONTINUOUS
 62
     3
 10
57.75
 20
-70.4999999999999858
 30
0.0000000000000157
 11
59.75
 21
-68.4999999999999858
 31
0.0000000000000152
210
0.0
220
1.0
230
-0.0000000000000002
  0
LINE
  5
3375
  8
0
  6
CONTINUOUS
 62
     3
 10
57.75
 20
-70.4999999999999858
 30
0.0000000000000157
 11
57.75
 21
-71.1028856829699833
 31
0.0000000000000158
210
0.0
220
1.0
230
-0.0000000000000002
  0
LINE
  5
3376
  8
0
  6
CONTINUOUS
 62
     3
 10
-57.75
 20
-70.4999999999999858
 30
0.0000000000000157
 11
-57.75
 21
-71.1028856829699833
 31
0.0000000000000158
210
0.0
220
1.0
230
-0.0000000000000002
  0
LINE
  5
3377
  8
0
  6
CONTINUOUS
 62
     3
 10
57.75
 20
-71.1028856829699833
 30
0.0000000000000158
 11
60.0
 21
-74.9999999999999574
 31
0.0000000000000167
210
0.0
220
1.0
230
-0.0000000000000002
  0
LINE
  5
3378
  8
0
  6
CONTINUOUS
 62
     3
 10
-57.75
 20
-71.1028856829699833
 30
0.0000000000000158
 11
-60.0
 21
-74.9999999999999574
 31
0.0000000000000167
210
0.0
220
1.0
230
-0.0000000000000002
  0
ARC
  5
3379
  8
0
  6
CONTINUOUS
 62
     3
 10
49.5000000000000711
 20
-72.0000000000000853
 30
0.0
 40
4.9999999999998996
210
0.0
220
-0.0000000000000002
230
-1.0
 50
270.0
 51
323.1301023541578274
  0
ARC
  5
337A
  8
0
  6
CONTINUOUS
 62
     3
 10
-49.5000000000000711
 20
-72.0000000000000853
 30
0.0
 40
4.9999999999998996
210
0.0
220
-0.0000000000000002
230
-1.0
 50
216.8698976458431105
 51
270.0000000000007958
  0
ARC
  5
337B
  8
0
  6
CONTINUOUS
 62
     3
 10
55.3122754750414032
 20
-51.4999999999999503
 30
0.0
 40
1.4999999999999549
210
0.0
220
-0.0000000000000002
230
-1.0
 50
31.8542940793526199
 51
90.00000000000081
  0
ARC
  5
337C
  8
0
  6
CONTINUOUS
 62
     3
 10
-55.3122754750414032
 20
-51.4999999999999503
 30
0.0
 40
1.4999999999999569
210
0.0
220
-0.0000000000000002
230
-1.0
 50
89.9999999999992042
 51
148.1457059206474014
  0
LINE
  5
337D
  8
0
  6
CONTINUOUS
 62
     3
 10
55.3122754750413606
 20
-49.9999999999999929
 30
0.0000000000000111
 11
-55.3122754750413677
 21
-49.9999999999999929
 31
0.0000000000000111
210
0.0
220
1.0
230
-0.0000000000000002
  0
LINE
  5
337E
  8
0
  6
CONTINUOUS
 62
     3
 10
56.5863649190260176
 20
-50.7083586110321818
 30
0.0000000000000113
 11
59.1475718506257593
 21
-54.8304355525452181
 31
0.0000000000000122
210
0.0
220
1.0
230
-0.0000000000000002
  0
LINE
  5
337F
  8
0
  6
CONTINUOUS
 62
     3
 10
-56.5863649190260176
 20
-50.7083586110321818
 30
0.0000000000000113
 11
-59.1475718506257593
 21
-54.8304355525452181
 31
0.0000000000000122
210
0.0
220
1.0
230
-0.0000000000000002
  0
ARC
  5
3380
  8
0
  6
CONTINUOUS
 62
     3
 10
55.7423973750448027
 20
-56.944379550111293
 30
0.0
 40
4.0079885770787333
210
0.0
220
-0.0000000000000002
230
-1.0
 50
359.2048581805639742
 51
31.8321522365561691
  0
ARC
  5
3381
  8
0
  6
CONTINUOUS
 62
     3
 10
-55.7423973750448027
 20
-56.9443795501113001
 30
0.0
 40
4.007988577078736
210
0.0
220
-0.0000000000000002
230
-1.0
 50
148.1678477634438025
 51
180.7951418194357984
  0
LINE
  5
3382
  8
0
  6
CONTINUOUS
 62
     3
 10
-122.4999999999999005
 20
68.9999999999999005
 30
-0.0000000000000153
 11
122.5000000000000995
 21
68.9999999999999005
 31
-0.0000000000000153
210
0.0
220
1.0
230
-0.0000000000000002
  0
LINE
  5
3383
  8
0
  6
CONTINUOUS
 62
     3
 10
-60.9999999999999289
 20
57.9999999999999005
 30
-0.0000000000000129
 11
61.0000000000000995
 21
57.9999999999999005
 31
-0.0000000000000129
210
0.0
220
1.0
230
-0.0000000000000002
  0
LINE
  5
3384
  8
0
  6
CONTINUOUS
 62
     3
 10
-122.4999999999999005
 20
70.9999999999999005
 30
-0.0000000000000158
 11
122.5000000000000995
 21
70.9999999999999005
 31
-0.0000000000000158
210
0.0
220
1.0
230
-0.0000000000000002
  0
ARC
  5
3385
  8
0
  6
CONTINUOUS
 62
     3
 10
70.2932374494818362
 20
66.9999999999999005
 30
0.0
 40
2.0000000000000142
210
0.0
220
-0.0000000000000002
230
-1.0
 50
90.0000000000003979
 51
142.9750113263253013
  0
ARC
  5
3386
  8
0
  6
CONTINUOUS
 62
     3
 10
-70.2932374494820067
 20
66.9999999999998437
 30
0.0
 40
2.0000000000000528
210
0.0
220
-0.0000000000000002
230
-1.0
 50
37.024988673675999
 51
89.9999999999995879
  0
LINE
  5
3387
  8
0
  6
CONTINUOUS
 62
     3
 10
-60.9999999999999218
 20
57.9999999999999005
 30
-0.0000000000000129
 11
-68.6964915260282964
 21
68.2043265570161168
 31
-0.0000000000000151
210
0.0
220
1.0
230
-0.0000000000000002
  0
LINE
  5
3388
  8
0
  6
CONTINUOUS
 62
     3
 10
61.0000000000000924
 20
57.9999999999999005
 30
-0.0000000000000129
 11
68.696491526028467
 21
68.2043265570161168
 31
-0.0000000000000151
210
0.0
220
1.0
230
-0.0000000000000002
  0
LINE
  5
3389
  8
0
  6
CONTINUOUS
 62
     3
 10
122.5000000000000995
 20
70.9999999999999005
 30
-0.0000000000000158
 11
122.5000000000000995
 21
68.9999999999999005
 31
-0.0000000000000153
210
0.0
220
1.0
230
-0.0000000000000002
  0
LINE
  5
338A
  8
0
  6
CONTINUOUS
 62
     3
 10
-122.4999999999999005
 20
70.9999999999999005
 30
-0.0000000000000158
 11
-122.4999999999999005
 21
68.9999999999999005
 31
-0.0000000000000153
210
0.0
220
1.0
230
-0.0000000000000002
  0
LINE
  5
338B
  8
0
  6
CONTINUOUS
 62
     3
 10
-50.7999999999999829
 20
0.0
 30
0.0
 11
50.7999999999999829
 21
0.0
 31
0.0
210
0.0
220
1.0
230
-0.0000000000000002
  0
LINE
  5
338C
  8
0
  6
CONTINUOUS
 62
     3
 10
-54.6379310344827829
 20
85.0000000000000568
 30
-0.0000000000000189
 11
54.6379310344827829
 21
85.0000000000000568
 31
-0.0000000000000189
210
0.0
220
1.0
230
-0.0000000000000002
  0
ARC
  5
338D
  8
0
  6
CONTINUOUS
 62
     3
 10
50.4999999999963123
 20
7.0498756211210321
 30
0.0
 40
1.0000000000036799
210
0.0
220
-0.0000000000000002
230
-1.0
 50
354.2894068625124078
 51
359.9999999999910756
  0
ARC
  5
338E
  8
0
  6
CONTINUOUS
 62
     3
 10
-50.4999999999964473
 20
7.0498756211210321
 30
0.0
 40
1.0000000000035381
210
0.0
220
-0.0000000000000002
230
-1.0
 50
180.0000000000088107
 51
185.7105931374879901
  0
LINE
  5
338F
  8
0
  6
CONTINUOUS
 62
     3
 10
-50.7999999999999829
 20
-0.0000000000000004
 30
0.0
 11
-51.4950371902099775
 21
6.9503719020998762
 31
-0.0000000000000015
210
0.0
220
1.0
230
-0.0000000000000002
  0
LINE
  5
3390
  8
0
  6
CONTINUOUS
 62
     3
 10
50.7999999999999829
 20
-0.0000000000000004
 30
0.0
 11
51.4950371902099775
 21
6.9503719020998833
 31
-0.0000000000000015
210
0.0
220
1.0
230
-0.0000000000000002
  0
LINE
  5
3391
  8
0
  6
CONTINUOUS
 62
     3
 10
51.4999999999999787
 20
42.3353876788549428
 30
-0.0000000000000094
 11
51.4999999999999787
 21
7.0498756211208766
 31
-0.0000000000000016
210
0.0
220
1.0
230
-0.0000000000000002
  0
LINE
  5
3392
  8
0
  6
CONTINUOUS
 62
     3
 10
-51.4999999999999787
 20
42.3353876788549428
 30
-0.0000000000000094
 11
-51.4999999999999787
 21
7.0498756211208766
 31
-0.0000000000000016
210
0.0
220
1.0
230
-0.0000000000000002
  0
LINE
  5
3393
  8
0
  6
CONTINUOUS
 62
     3
 10
-52.6755117121215193
 20
46.0636345151367692
 30
-0.0000000000000102
 11
-54.9734648636353214
 21
49.345451728057931
 31
-0.000000000000011
210
0.0
220
1.0
230
-0.0000000000000002
  0
LINE
  5
3394
  8
0
  6
CONTINUOUS
 62
     3
 10
52.6755117121215193
 20
46.0636345151367692
 30
-0.0000000000000102
 11
54.9734648636353214
 21
49.345451728057931
 31
-0.000000000000011
210
0.0
220
1.0
230
-0.0000000000000002
  0
ARC
  5
3395
  8
0
  6
CONTINUOUS
 62
     3
 10
58.0000000000000711
 20
42.3353876788549215
 30
0.0
 40
6.5000000000000968
210
0.0
220
-0.0000000000000002
230
-1.0
 50
145.0000000000001137
 51
179.9999999999996874
  0
ARC
  5
3396
  8
0
  6
CONTINUOUS
 62
     3
 10
-57.9999999999998792
 20
42.3353876788549712
 30
0.0
 40
6.4999999999998996
210
0.0
220
-0.0000000000000002
230
-1.0
 50
359.9999999999997726
 51
35.0000000000004405
  0
ARC
  5
3397
  8
0
  6
CONTINUOUS
 62
     3
 10
42.5000000000000782
 20
74.5754793778256584
 30
0.0
 40
15.9999999999999005
210
0.0
220
-0.0000000000000002
230
-1.0
 50
360.0
 51
40.6572486379977676
  0
ARC
  5
3398
  8
0
  6
CONTINUOUS
 62
     3
 10
-42.5000000000000782
 20
74.5754793778256584
 30
0.0
 40
15.9999999999999005
210
0.0
220
-0.0000000000000002
230
-1.0
 50
139.3427513620021898
 51
180.0
  0
LINE
  5
3399
  8
0
  6
CONTINUOUS
 62
     3
 10
58.5
 20
74.5754793778256442
 30
-0.0000000000000166
 11
58.5
 21
70.9999999999999005
 31
-0.0000000000000158
210
0.0
220
1.0
230
-0.0000000000000002
  0
LINE
  5
339A
  8
0
  6
CONTINUOUS
 62
     3
 10
-58.5
 20
74.5754793778256442
 30
-0.0000000000000166
 11
-58.5
 21
70.9999999999999005
 31
-0.0000000000000158
210
0.0
220
1.0
230
-0.0000000000000002
  0
ARC
  5
339B
  8
0
  6
CONTINUOUS
 62
     3
 10
39.0000000000000213
 20
60.5301922369033107
 30
0.0
 40
19.4999999999999716
210
0.0
220
-0.0000000000000002
230
-1.0
 50
325.0
 51
352.544654740444912
  0
ARC
  5
339C
  8
0
  6
CONTINUOUS
 62
     3
 10
-39.0000000000001208
 20
60.5301922369032681
 30
0.0
 40
19.4999999999998614
210
0.0
220
-0.0000000000000002
230
-1.0
 50
187.4553452595550027
 51
215.0000000000001137
  0
LINE
  5
339D
  8
0
  6
VERDECKT
 62
     1
 10
-56.5995849235805721
 20
-72.9999999999999574
 30
0.0000000000000162
 11
56.5995849235805508
 21
-72.9999999999999574
 31
0.0000000000000162
210
0.0
220
1.0
230
-0.0000000000000002
  0
LINE
  5
339E
  8
0
  6
VERDECKT
 62
     1
 10
-47.5
 20
-75.4999999999999858
 30
0.0000000000000168
 11
47.5
 21
-75.4999999999999858
 31
0.0000000000000168
210
0.0
220
1.0
230
-0.0000000000000002
  0
LINE
  5
339F
  8
0
  6
VERDECKT
 62
     1
 10
-52.5000000000000284
 20
-56.2000000000000028
 30
0.0000000000000125
 11
52.5
 21
-56.2000000000000028
 31
0.0000000000000125
210
0.0
220
1.0
230
-0.0000000000000002
  0
LINE
  5
33A0
  8
0
  6
VERDECKT
 62
     1
 10
56.5995849235805508
 20
-72.9999999999999574
 30
0.0000000000000162
 11
58.0
 21
-74.9999999999999858
 31
0.0000000000000167
210
0.0
220
1.0
230
-0.0000000000000002
  0
LINE
  5
33A1
  8
0
  6
VERDECKT
 62
     1
 10
-56.5995849235805508
 20
-72.9999999999999574
 30
0.0000000000000162
 11
-58.0
 21
-74.9999999999999858
 31
0.0000000000000167
210
0.0
220
1.0
230
-0.0000000000000002
  0
ARC
  5
33A2
  8
0
  6
VERDECKT
 62
     1
 10
49.5000000000002203
 20
-72.0000000000001421
 30
0.0
 40
4.999999999999746
210
0.0
220
-0.0000000000000002
230
-1.0
 50
323.1301023541565201
 51
348.4630409671854068
  0
ARC
  5
33A3
  8
0
  6
VERDECKT
 62
     1
 10
-49.4999999999999574
 20
-72.0000000000000142
 30
0.0
 40
5.0000000000000187
210
0.0
220
-0.0000000000000002
230
-1.0
 50
191.5369590328151901
 51
216.8698976458427978
  0
LINE
  5
33A4
  8
0
  6
VERDECKT
 62
     1
 10
47.5
 20
-75.4999999999999858
 30
0.0000000000000168
 11
47.5
 21
-76.9999999999999432
 31
0.0000000000000171
210
0.0
220
1.0
230
-0.0000000000000002
  0
LINE
  5
33A5
  8
0
  6
VERDECKT
 62
     1
 10
-47.5
 20
-75.4999999999999858
 30
0.0000000000000168
 11
-47.5
 21
-76.9999999999999432
 31
0.0000000000000171
210
0.0
220
1.0
230
-0.0000000000000002
  0
ARC
  5
33A6
  8
0
  6
VERDECKT
 62
     1
 10
47.5
 20
-70.4999999999999858
 30
0.0
 40
5.0
210
0.0
220
-0.0000000000000002
230
-1.0
 50
270.0
 51
0.0
  0
ARC
  5
33A7
  8
0
  6
VERDECKT
 62
     1
 10
-47.5
 20
-70.4999999999999858
 30
0.0
 40
5.0
210
0.0
220
-0.0000000000000002
230
-1.0
 50
180.0
 51
270.0
  0
LINE
  5
33A8
  8
0
  6
VERDECKT
 62
     1
 10
52.5
 20
-56.2000000000000028
 30
0.0000000000000125
 11
52.5
 21
-70.4999999999999858
 31
0.0000000000000157
210
0.0
220
1.0
230
-0.0000000000000002
  0
LINE
  5
33A9
  8
0
  6
VERDECKT
 62
     1
 10
-52.5
 20
-56.2000000000000028
 30
0.0000000000000125
 11
-52.5
 21
-70.4999999999999858
 31
0.0000000000000157
210
0.0
220
1.0
230
-0.0000000000000002
  0
LINE
  5
33AA
  8
0
  6
VERDECKT
 62
     1
 10
-52.5
 20
-56.2000000000000028
 30
0.0000000000000125
 11
-53.8633867356077829
 21
-51.1117714323461669
 31
0.0000000000000113
210
0.0
220
1.0
230
-0.0000000000000002
  0
LINE
  5
33AB
  8
0
  6
VERDECKT
 62
     1
 10
52.5
 20
-56.2000000000000028
 30
0.0000000000000125
 11
53.8633867356077829
 21
-51.1117714323461669
 31
0.0000000000000113
210
0.0
220
1.0
230
-0.0000000000000002
  0
ARC
  5
33AC
  8
0
  6
VERDECKT
 62
     1
 10
55.3122754750413677
 20
-51.4999999999999787
 30
0.0
 40
1.499999999999992
210
0.0
220
-0.0000000000000002
230
-1.0
 50
89.9999999999997442
 51
164.9999999999988916
  0
ARC
  5
33AD
  8
0
  6
VERDECKT
 62
     1
 10
-55.3122754750413677
 20
-51.4999999999999787
 30
0.0
 40
1.4999999999999889
210
0.0
220
-0.0000000000000002
230
-1.0
 50
15.0000000000010498
 51
90.0000000000002842
  0
LINE
  5
33AE
  8
0
  6
VERDECKT
 62
     1
 10
-59.4032540765463679
 20
59.2043265570161168
 30
-0.0000000000000131
 11
59.4032540765465384
 21
59.2043265570161168
 31
-0.0000000000000131
210
0.0
220
1.0
230
-0.0000000000000002
  0
LINE
  5
33AF
  8
0
  6
VERDECKT
 62
     1
 10
59.4032540765465527
 20
59.2043265570161168
 30
-0.0000000000000131
 11
61.0000000000000924
 21
57.9999999999999005
 31
-0.0000000000000129
210
0.0
220
1.0
230
-0.0000000000000002
  0
LINE
  5
33B0
  8
0
  6
VERDECKT
 62
     1
 10
-59.4032540765463821
 20
59.2043265570161168
 30
-0.0000000000000131
 11
-60.9999999999999218
 21
57.9999999999999005
 31
-0.0000000000000129
210
0.0
220
1.0
230
-0.0000000000000002
  0
LINE
  5
33B1
  8
0
  6
VERDECKT
 62
     1
 10
-59.4032540765463821
 20
59.2043265570161168
 30
-0.0000000000000131
 11
-67.0997456025747709
 21
69.4086531140323331
 31
-0.0000000000000154
210
0.0
220
1.0
230
-0.0000000000000002
  0
LINE
  5
33B2
  8
0
  6
VERDECKT
 62
     1
 10
59.4032540765465527
 20
59.2043265570161168
 30
-0.0000000000000131
 11
67.0997456025749415
 21
69.4086531140323331
 31
-0.0000000000000154
210
0.0
220
1.0
230
-0.0000000000000002
  0
ARC
  5
33B3
  8
0
  6
VERDECKT
 62
     1
 10
70.293237449481822
 20
66.9999999999999147
 30
0.0
 40
4.0
210
0.0
220
-0.0000000000000002
230
-1.0
 50
90.0
 51
142.9750113263251023
  0
ARC
  5
33B4
  8
0
  6
VERDECKT
 62
     1
 10
-70.2932374494819499
 20
66.9999999999999716
 30
0.0
 40
3.9999999999999272
210
0.0
220
-0.0000000000000002
230
-1.0
 50
37.0249886736746276
 51
90.0000000000006253
  0
LINE
  5
33B5
  8
0
  6
VERDECKT
 62
     1
 10
-49.3074442146850203
 20
0.149255578531502
 30
0.0
 11
49.3074442146850203
 21
0.149255578531502
 31
0.0
210
0.0
220
1.0
230
-0.0000000000000002
  0
LINE
  5
33B6
  8
0
  6
VERDECKT
 62
     1
 10
-53.5000000000000071
 20
84.0227011916711746
 30
-0.0000000000000187
 11
53.5000000000000071
 21
84.0227011916711746
 31
-0.0000000000000187
210
0.0
220
1.0
230
-0.0000000000000002
  0
ARC
  5
33B7
  8
0
  6
VERDECKT
 62
     1
 10
48.9999999999963691
 20
7.1246890528022258
 30
0.0
 40
1.000000000003616
210
0.0
220
-0.0000000000000002
230
-1.0
 50
354.2894068625121236
 51
359.9999999999910187
  0
ARC
  5
33B8
  8
0
  6
VERDECKT
 62
     1
 10
-48.9999999999963691
 20
7.1246890528022258
 30
0.0
 40
1.000000000003616
210
0.0
220
-0.0000000000000002
230
-1.0
 50
180.000000000008896
 51
185.7105931374877912
  0
LINE
  5
33B9
  8
0
  6
VERDECKT
 62
     1
 10
-49.3074442146850203
 20
0.149255578531502
 30
0.0
 11
-49.9950371902099775
 21
7.0251853337810717
 31
-0.0000000000000016
210
0.0
220
1.0
230
-0.0000000000000002
  0
LINE
  5
33BA
  8
0
  6
VERDECKT
 62
     1
 10
49.3074442146850203
 20
0.149255578531502
 30
0.0
 11
49.9950371902099775
 21
7.0251853337810717
 31
-0.0000000000000016
210
0.0
220
1.0
230
-0.0000000000000002
  0
LINE
  5
33BB
  8
0
  6
VERDECKT
 62
     1
 10
49.9999999999999929
 20
42.3353876788549428
 30
-0.0000000000000094
 11
49.9999999999999929
 21
7.1246890528020703
 31
-0.0000000000000016
210
0.0
220
1.0
230
-0.0000000000000002
  0
LINE
  5
33BC
  8
0
  6
VERDECKT
 62
     1
 10
-49.9999999999999929
 20
42.3353876788549428
 30
-0.0000000000000094
 11
-49.9999999999999929
 21
7.1246890528020703
 31
-0.0000000000000016
210
0.0
220
1.0
230
-0.0000000000000002
  0
LINE
  5
33BD
  8
0
  6
VERDECKT
 62
     1
 10
49.3074442146850203
 20
0.1492555785315006
 30
0.0
 11
50.7999999999999829
 21
0.0000000000000027
 31
0.0
210
0.0
220
1.0
230
-0.0000000000000002
  0
LINE
  5
33BE
  8
0
  6
VERDECKT
 62
     1
 10
-49.3074442146850203
 20
0.1492555785315006
 30
0.0
 11
-50.7999999999999829
 21
0.0000000000000027
 31
0.0
210
0.0
220
1.0
230
-0.0000000000000002
  0
ARC
  5
33BF
  8
0
  6
VERDECKT
 62
     1
 10
57.9999999999999574
 20
42.335387678854957
 30
0.0
 40
7.9999999999999831
210
0.0
220
-0.0000000000000002
230
-1.0
 50
144.9999999999998863
 51
180.0000000000001137
  0
ARC
  5
33C0
  8
0
  6
VERDECKT
 62
     1
 10
-57.9999999999999574
 20
42.335387678854957
 30
0.0
 40
7.9999999999999849
210
0.0
220
-0.0000000000000002
230
-1.0
 50
0.0
 51
35.0000000000001918
  0
LINE
  5
33C1
  8
0
  6
VERDECKT
 62
     1
 10
-51.4467836456880718
 20
46.9239991696633325
 30
-0.0000000000000104
 11
-53.7447367972018384
 21
50.2058163825844801
 31
-0.0000000000000111
210
0.0
220
1.0
230
-0.0000000000000002
  0
LINE
  5
33C2
  8
0
  6
VERDECKT
 62
     1
 10
51.4467836456880718
 20
46.9239991696633325
 30
-0.0000000000000104
 11
53.7447367972018384
 21
50.2058163825844801
 31
-0.0000000000000111
210
0.0
220
1.0
230
-0.0000000000000002
  0
ARC
  5
33C3
  8
0
  6
VERDECKT
 62
     1
 10
38.9999999999998295
 20
60.5301922369033818
 30
0.0
 40
18.0000000000001386
210
0.0
220
-0.0000000000000002
230
-1.0
 50
325.0000000000001137
 51
359.9999999999997726
  0
ARC
  5
33C4
  8
0
  6
VERDECKT
 62
     1
 10
-38.9999999999998934
 20
60.5301922369033392
 30
0.0
 40
18.0000000000000711
210
0.0
220
-0.0000000000000002
230
-1.0
 50
180.0
 51
214.999999999999801
  0
LINE
  5
33C5
  8
0
  6
VERDECKT
 62
     1
 10
56.9999999999999716
 20
74.5754793778256015
 30
-0.0000000000000166
 11
56.9999999999999716
 21
60.5301922369033107
 31
-0.0000000000000134
210
0.0
220
1.0
230
-0.0000000000000002
  0
LINE
  5
33C6
  8
0
  6
VERDECKT
 62
     1
 10
-56.9999999999999716
 20
74.5754793778256015
 30
-0.0000000000000166
 11
-56.9999999999999716
 21
60.5301922369033107
 31
-0.0000000000000134
210
0.0
220
1.0
230
-0.0000000000000002
  0
ARC
  5
33C7
  8
0
  6
VERDECKT
 62
     1
 10
42.5
 20
74.5754793778256158
 30
0.0
 40
14.4999999999999591
210
0.0
220
-0.0000000000000002
230
-1.0
 50
0.0
 51
40.6572486379978173
  0
ARC
  5
33C8
  8
0
  6
VERDECKT
 62
     1
 10
-42.4999999999999076
 20
74.5754793778255873
 30
0.0
 40
14.5000000000000604
210
0.0
220
-0.0000000000000002
230
-1.0
 50
139.3427513620023888
 51
179.9999999999998863
  0
LINE
  5
33C9
  8
0
  6
VERDECKT
 62
     1
 10
-53.5000000000000071
 20
84.0227011916711746
 30
-0.0000000000000187
 11
-54.6379310344827829
 21
85.0000000000000568
 31
-0.0000000000000189
210
0.0
220
1.0
230
-0.0000000000000002
  0
LINE
  5
33CA
  8
0
  6
VERDECKT
 62
     1
 10
53.5000000000000071
 20
84.0227011916711746
 30
-0.0000000000000187
 11
54.6379310344827829
 21
85.0000000000000568
 31
-0.0000000000000189
210
0.0
220
1.0
230
-0.0000000000000002
  0
LINE
  5
33CB
  8
0
  6
VERDECKT
 62
     1
 10
58.5
 20
70.9999999999999005
 30
-0.0000000000000158
 11
58.5
 21
60.5301922369033178
 31
-0.0000000000000134
210
0.0
220
1.0
230
-0.0000000000000002
  0
LINE
  5
33CC
  8
0
  6
VERDECKT
 62
     1
 10
-58.5
 20
70.9999999999999005
 30
-0.0000000000000158
 11
-58.5
 21
60.5301922369033178
 31
-0.0000000000000134
210
0.0
220
1.0
230
-0.0000000000000002
  0
ARC
  5
33CD
  8
0
  6
VERDECKT
 62
     1
 10
39.0000000000023306
 20
60.5301922369031189
 30
0.0
 40
19.4999999999976517
210
0.0
220
-0.0000000000000002
230
-1.0
 50
352.5446547404446278
 51
0.0000000000005852
  0
ARC
  5
33CE
  8
0
  6
VERDECKT
 62
     1
 10
-39.0000000000006679
 20
60.5301922369032823
 30
0.0
 40
19.4999999999993214
210
0.0
220
-0.0000000000000002
230
-1.0
 50
179.9999999999998863
 51
187.4553452595552017
  0
ENDBLK
  5
33D0
  8
0
  0
ENDSEC
  0
SECTION
  2
ENTITIES
  0
TEXT
  5
8F
  8
VOLL
 10
78.076754716981128
 20
31.025947764705851
 30
0.0
 40
1.8
  1

  7
GREEKS
  0
TEXT
  5
B64
  8
VOLL
 10
348.7994756415592974
 20
213.0901697115845934
 30
0.0
 40
1.8
  1

  7
GREEKS
  0
TEXT
  5
B6D
  8
VOLL
 10
479.7580445803401972
 20
144.1099730354671067
 30
0.0
 40
1.8
  1

  7
GREEKS
  0
INSERT
  5
C36
  8
ADSK_ASSOC_ENTITY_BACKUPS
  2
*S0
 10
0.0
 20
0.0
 30
0.0
  0
INSERT
  5
3360
  8
STEMPEL
  2
A$C341F4DAF
 10
0.0
 20
-249.5
 30
0.0000000000000171
  0
INSERT
  5
33D1
  8
STEMPEL
  2
A$C1D430DF1
 10
0.0
 20
0.0
 30
0.0
  0
VIEWPORT
  5
C15
 67
     1
  8
0
 10
145.4935675001239872
 20
205.7073150426514871
 30
0.0
 40
790.2674510967764263
 41
422.1483375959078899
 68
     1
 69
     1
1001
ACAD
1000
MVIEW
1002
{
1070
    16
1010
0.0
1020
0.0
1030
0.0
1010
0.0
1020
0.0
1030
1.0
1040
0.0
1040
422.1483375959078899
1040
145.4935675001239872
1040
205.7073150426514871
1040
50.0
1040
0.0
1040
0.0
1070
     0
1070
  1500
1070
     1
1070
     1
1070
     0
1070
     0
1070
     0
1070
     0
1040
0.0
1040
0.0
1040
0.0
1040
10.0
1040
10.0
1040
10.0
1040
10.0
1070
     0
1002
{
1002
}
1002
}
  0
TEXT
  5
D26
 67
     1
  8
VOLL
 10
151.7444477982027138
 20
-6.3790847791801211
 30
0.0
 40
1.8
  1

  7
GREEKS
  0
ENDSEC
  0
EOF
