  0
SECTION
  2
HEADER
  9
$ACADVER
  1
AC1009
  9
$INSBASE
 10
0.0
 20
0.0
 30
0.0
  9
$EXTMIN
 10
-122.5
 20
-372.4999999999998863
 30
-0.0000000000000201
  9
$EXTMAX
 10
122.4999999999999005
 20
80.0000000000000142
 30
0.0000000000000161
  9
$LIMMIN
 10
0.0
 20
0.0
  9
$LIMMAX
 10
419.9999999999998863
 20
594.0
  9
$ORTHOMODE
 70
     1
  9
$REGENMODE
 70
     1
  9
$FILLMODE
 70
     1
  9
$QTEXTMODE
 70
     0
  9
$MIRRTEXT
 70
     1
  9
$DRAGMODE
 70
     2
  9
$LTSCALE
 40
10.0
  9
$OSMODE
 70
   511
  9
$ATTMODE
 70
     1
  9
$TEXTSIZE
 40
3.5
  9
$TRACEWID
 40
1.0
  9
$TEXTSTYLE
  7
STANDARD
  9
$CLAYER
  8
STEMPEL
  9
$CELTYPE
  6
BYLAYER
  9
$CECOLOR
 62
   256
  9
$DIMSCALE
 40
1.0
  9
$DIMASZ
 40
3.5
  9
$DIMEXO
 40
1.0
  9
$DIMDLI
 40
0.38
  9
$DIMRND
 40
0.0
  9
$DIMDLE
 40
0.0
  9
$DIMEXE
 40
1.0
  9
$DIMTP
 40
0.0
  9
$DIMTM
 40
0.000000001
  9
$DIMTXT
 40
3.5
  9
$DIMCEN
 40
0.09
  9
$DIMTSZ
 40
0.0
  9
$DIMTOL
 70
     0
  9
$DIMLIM
 70
     0
  9
$DIMTIH
 70
     0
  9
$DIMTOH
 70
     0
  9
$DIMSE1
 70
     0
  9
$DIMSE2
 70
     0
  9
$DIMTAD
 70
     1
  9
$DIMZIN
 70
     8
  9
$DIMBLK
  1

  9
$DIMASO
 70
     1
  9
$DIMSHO
 70
     0
  9
$DIMPOST
  1

  9
$DIMAPOST
  1

  9
$DIMALT
 70
     0
  9
$DIMALTD
 70
     2
  9
$DIMALTF
 40
25.3999999999999986
  9
$DIMLFAC
 40
2.0
  9
$DIMTOFL
 70
     1
  9
$DIMTVP
 40
0.0
  9
$DIMTIX
 70
     0
  9
$DIMSOXD
 70
     0
  9
$DIMSAH
 70
     0
  9
$DIMBLK1
  1

  9
$DIMBLK2
  1

  9
$DIMSTYLE
  2
LORO
  9
$DIMCLRD
 70
     0
  9
$DIMCLRE
 70
     0
  9
$DIMCLRT
 70
     1
  9
$DIMTFAC
 40
0.5
  9
$DIMGAP
 40
1.5
  9
$LUNITS
 70
     2
  9
$LUPREC
 70
     2
  9
$SKETCHINC
 40
1.0
  9
$FILLETRAD
 40
2.0
  9
$AUNITS
 70
     0
  9
$AUPREC
 70
     2
  9
$MENU
  1
ACAD
  9
$ELEVATION
 40
0.0
  9
$PELEVATION
 40
0.0
  9
$THICKNESS
 40
0.0
  9
$LIMCHECK
 70
     0
  9
$BLIPMODE
 70
     0
  9
$CHAMFERA
 40
0.0
  9
$CHAMFERB
 40
0.0
  9
$SKPOLY
 70
     0
  9
$TDCREATE
 40
2455397.867048610933125
  9
$TDUPDATE
 40
2460591.6181250000372529
  9
$TDINDWG
 40
0.8749128819000001
  9
$TDUSRTIMER
 40
0.8749128819000001
  9
$USRTIMER
 70
     1
  9
$ANGBASE
 50
0.0
  9
$ANGDIR
 70
     0
  9
$PDMODE
 70
     0
  9
$PDSIZE
 40
0.0
  9
$PLINEWID
 40
0.0
  9
$COORDS
 70
     1
  9
$SPLFRAME
 70
     0
  9
$SPLINETYPE
 70
     6
  9
$SPLINESEGS
 70
     8
  9
$ATTDIA
 70
     1
  9
$ATTREQ
 70
     1
  9
$HANDLING
 70
     1
  9
$HANDSEED
  5
4740
  9
$SURFTAB1
 70
     6
  9
$SURFTAB2
 70
     6
  9
$SURFTYPE
 70
     6
  9
$SURFU
 70
     6
  9
$SURFV
 70
     6
  9
$UCSNAME
  2

  9
$UCSORG
 10
0.0
 20
0.0
 30
0.0
  9
$UCSXDIR
 10
1.0
 20
0.0
 30
0.0
  9
$UCSYDIR
 10
0.0
 20
1.0
 30
0.0
  9
$PUCSNAME
  2

  9
$PUCSORG
 10
0.0
 20
0.0
 30
0.0
  9
$PUCSXDIR
 10
1.0
 20
0.0
 30
0.0
  9
$PUCSYDIR
 10
0.0
 20
1.0
 30
0.0
  9
$USERI1
 70
     0
  9
$USERI2
 70
     0
  9
$USERI3
 70
     0
  9
$USERI4
 70
     0
  9
$USERI5
 70
     0
  9
$USERR1
 40
0.0
  9
$USERR2
 40
0.0
  9
$USERR3
 40
0.0
  9
$USERR4
 40
0.0
  9
$USERR5
 40
0.0
  9
$WORLDVIEW
 70
     1
  9
$SHADEDGE
 70
     3
  9
$SHADEDIF
 70
    70
  9
$TILEMODE
 70
     1
  9
$MAXACTVP
 70
    16
  9
$PLIMCHECK
 70
     0
  9
$PEXTMIN
 10
1.0000000000000000E+20
 20
1.0000000000000000E+20
 30
1.0000000000000000E+20
  9
$PEXTMAX
 10
-1.0000000000000000E+20
 20
-1.0000000000000000E+20
 30
-1.0000000000000000E+20
  9
$PLIMMIN
 10
-0.2442491696476168
 20
-0.2416736021843917
  9
$PLIMMAX
 10
296.7557508303523832
 20
419.7583263978156083
  9
$UNITMODE
 70
     0
  9
$VISRETAIN
 70
     0
  9
$PLINEGEN
 70
     0
  9
$PSLTSCALE
 70
     0
  0
ENDSEC
  0
SECTION
  2
TABLES
  0
TABLE
  2
VPORT
 70
     1
  0
VPORT
  2
*ACTIVE
 70
     0
 10
0.0
 20
0.0
 11
1.0
 21
1.0
 12
-0.0000000000000568
 22
-146.2499999999998863
 13
0.0
 23
0.0
 14
1.0
 24
1.0
 15
10.0
 25
10.0
 16
-0.0000000000002065
 26
0.0
 36
929.7941737932502519
 17
0.0
 27
0.0
 37
-0.0000000000000008
 40
454.8324742268039813
 41
1.8847807394668961
 42
50.0
 43
0.0
 44
0.0
 50
0.0
 51
0.0
 71
     0
 72
  1500
 73
     1
 74
     0
 75
     0
 76
     0
 77
     0
 78
     0
  0
ENDTAB
  0
TABLE
  2
LTYPE
 70
     6
  0
LTYPE
  2
CONTINUOUS
 70
     0
  3
Solid line
 72
    65
 73
     0
 40
0.0
  0
LTYPE
  2
STRICHPUNKT
 70
     0
  3
__ . __ . __ . __ . __ . __ . __ . __ . __ . __
 72
    65
 73
     4
 40
1.0
 49
0.5
 49
-0.25
 49
0.0
 49
-0.25
  0
LTYPE
  2
VERDECKT
 70
     0
  3
Verdeckt __ __ __ __ __ __ __ __ __ __ __ __ __
 72
    65
 73
     2
 40
0.375
 49
0.25
 49
-0.125
  0
ENDTAB
  0
TABLE
  2
LAYER
 70
    18
  0
LAYER
  2
0
 70
     0
 62
     7
  6
CONTINUOUS
  0
LAYER
  2
VOLL
 70
     0
 62
     1
  6
CONTINUOUS
  0
LAYER
  2
STEMPEL
 70
     0
 62
     3
  6
CONTINUOUS
  0
LAYER
  2
ADSK_ASSOC_ENTITY_BACKUPS
 70
     1
 62
    -7
  6
CONTINUOUS
  0
ENDTAB
  0
TABLE
  2
STYLE
 70
     4
  0
STYLE
  2
STANDARD
 70
     0
 40
0.0
 41
0.8
 50
0.0
 71
     0
 42
3.5
  3
simplex.shx
  4

  0
STYLE
  2
GREEKS
 70
     0
 40
0.0
 41
0.8
 50
0.0
 71
     0
 42
2.5
  3
SIMPLEX.shx
  4

  0
ENDTAB
  0
TABLE
  2
VIEW
 70
     2
  0
ENDTAB
  0
TABLE
  2
UCS
 70
     0
  0
ENDTAB
  0
TABLE
  2
APPID
 70
    22
  0
APPID
  2
ACAD
 70
     0
  0
APPID
  2
ACAECLAYERSTANDARD
 70
     0
  0
APPID
  2
ACCMTRANSPARENCY
 70
     0
  0
APPID
  2
ACAD_NAV_VCDISPLAY
 70
     0
  0
APPID
  2
ACAD_PSEXT
 70
     0
  0
APPID
  2
ACAD_EXEMPT_FROM_CAD_STANDARDS
 70
     0
  0
APPID
  2
ACSYNERGY
 70
     0
  0
APPID
  2
SYNERGY_BODY_TBR_ID
 70
     0
  0
APPID
  2
ACAD_VIEW_EDGE_ID
 70
     0
  0
APPID
  2
ACSYNERGYSKETCH
 70
     0
  0
APPID
  2
ACAD_MODELDOC_XFORM
 70
     0
  0
APPID
  2
ACAD_MLEADERVER
 70
     0
  0
APPID
  2
ACADANNOMONITORALERTICONDI
 70
     0
  0
APPID
  2
ACAD_DSTYLE_DIMJAG
 70
     0
  0
APPID
  2
ACAD_DSTYLE_DIMTALN
 70
     0
  0
APPID
  2
ACAD_DSTYLE_DIMBREAK
 70
     0
  0
APPID
  2
ACAD_STEPID
 70
     0
  0
APPID
  2
ACAD_TC
 70
     0
  0
APPID
  2
ACDBDYNAMICBLOCKGUID
 70
     0
  0
APPID
  2
ACADANNOPO
 70
     0
  0
APPID
  2
PLOTTRANSPARENCY
 70
     0
  0
APPID
  2
AcDbAttr
 70
     0
  0
ENDTAB
  0
TABLE
  2
DIMSTYLE
 70
     2
  0
DIMSTYLE
  2
LORO
 70
     0
  3

  4

  5

  6

  7

 40
1.0
 41
3.5
 42
1.0
 43
0.38
 44
1.0
 45
0.0
 46
0.0
 47
0.0
 48
0.000000001
140
3.5
141
0.09
142
0.0
143
25.3999999999999986
144
2.0
145
0.0
146
0.5
147
1.5
 71
     0
 72
     0
 73
     0
 74
     0
 75
     0
 76
     0
 77
     1
 78
     8
170
     0
171
     2
172
     1
173
     0
174
     0
175
     0
176
     0
177
     0
178
     1
  0
ENDTAB
  0
ENDSEC
  0
SECTION
  2
BLOCKS
  0
BLOCK
  8
0
  2
$MODEL_SPACE
 70
     0
 10
0.0
 20
0.0
 30
0.0
  3
$MODEL_SPACE
  1

  0
ENDBLK
  5
38
  8
0
  0
BLOCK
 67
     1
  8
0
  2
$PAPER_SPACE
 70
     0
 10
0.0
 20
0.0
 30
0.0
  3
$PAPER_SPACE
  1

  0
ENDBLK
  5
36
 67
     1
  8
0
  0
BLOCK
  8
0
  2
*S0
 70
     1
 10
0.0
 20
0.0
 30
0.0
  3
*S0
  1

  0
ENDBLK
  5
ACE
  8
0
  0
BLOCK
  8
0
  2
A$C01C0E657
 70
     0
 10
0.0
 20
0.0
 30
0.0
  3
A$C01C0E657
  1

  0
CIRCLE
  5
465C
  8
0
  6
CONTINUOUS
 62
     3
 10
-0.0000000000000442
 20
-0.0016575748095115
 30
0.0
 40
32.0
  0
CIRCLE
  5
465D
  8
0
  6
CONTINUOUS
 62
     3
 10
-0.0000000000000037
 20
-0.0000000000000255
 30
0.0
 40
35.2999999999999972
  0
CIRCLE
  5
465E
  8
0
  6
CONTINUOUS
 62
     3
 10
-0.0000000000000142
 20
-0.0000000000000284
 30
0.0
 40
34.3092665479436079
  0
CIRCLE
  5
465F
  8
0
  6
CONTINUOUS
 62
     3
 10
0.0000000000000012
 20
-0.0000000000000242
 30
0.0
 40
41.6000000000000014
  0
CIRCLE
  5
4660
  8
0
  6
CONTINUOUS
 62
     3
 10
0.0000000000000036
 20
-0.0000000000000235
 30
0.0
 40
38.8732861857024901
  0
CIRCLE
  5
4661
  8
0
  6
CONTINUOUS
 62
     3
 10
0.0000000000000034
 20
-0.0000000000000236
 30
0.0
 40
37.8249106795466332
  0
CIRCLE
  5
4662
  8
0
  6
CONTINUOUS
 62
     3
 10
-0.0000000000000417
 20
0.0000000000000568
 30
0.0
 40
122.5
  0
CIRCLE
  5
4663
  8
0
  6
VERDECKT
 62
     1
 10
-0.0000000000000409
 20
-0.0016575748095106
 30
0.0
 40
37.0
  0
CIRCLE
  5
4664
  8
0
  6
VERDECKT
 62
     1
 10
-0.0000000000000406
 20
-0.0016575748095105
 30
0.0
 40
42.3000000000000114
  0
CIRCLE
  5
4665
  8
0
  6
VERDECKT
 62
     1
 10
-0.0000000000000419
 20
-0.0016575748095108
 30
0.0
 40
40.4999999999999929
  0
CIRCLE
  5
4666
  8
0
  6
VERDECKT
 62
     1
 10
-0.0000000000000424
 20
-0.001657574809511
 30
0.0
 40
41.900000000000027
  0
CIRCLE
  5
4667
  8
0
  6
VERDECKT
 62
     1
 10
-0.000000000000044
 20
-0.0016575748095114
 30
0.0
 40
42.8000000000000114
  0
CIRCLE
  5
4668
  8
0
  6
VERDECKT
 62
     1
 10
-0.000000000000044
 20
-0.0016575748095114
 30
0.0
 40
41.0
  0
CIRCLE
  5
4669
  8
0
  6
VERDECKT
 62
     1
 10
-0.0000000000000407
 20
-0.0016575748095105
 30
0.0
 40
38.7140740033711026
  0
CIRCLE
  5
466A
  8
0
  6
VERDECKT
 62
     1
 10
-0.0000000000000142
 20
-0.0000000000000284
 30
0.0
 40
35.5
  0
CIRCLE
  5
466B
  8
0
  6
VERDECKT
 62
     1
 10
-0.0000000000000037
 20
-0.0000000000000255
 30
0.0
 40
36.5
  0
CIRCLE
  5
466C
  8
0
  6
VERDECKT
 62
     1
 10
0.0000000000000012
 20
-0.0000000000000242
 30
0.0
 40
40.3999999999999915
  0
CIRCLE
  5
466D
  8
0
  6
VERDECKT
 62
     1
 10
-0.0000000000000433
 20
0.0000000000000599
 30
0.0
 40
42.704789133260789
  0
CIRCLE
  5
466E
  8
0
  6
VERDECKT
 62
     1
 10
-0.0000000000000429
 20
0.0000000000000599
 30
0.0
 40
41.5
  0
ENDBLK
  5
4670
  8
0
  0
BLOCK
  8
0
  2
A$C2F7F99C8
 70
     0
 10
0.0
 20
0.0
 30
0.0
  3
A$C2F7F99C8
  1

  0
LINE
  5
4674
  8
0
  6
CONTINUOUS
 62
     3
 10
-42.3000000000000327
 20
-55.0000000000001279
 30
0.0000000000000122
 11
42.2999999999999829
 21
-55.0000000000001279
 31
0.0000000000000122
210
0.0
220
1.0
230
-0.0000000000000002
  0
LINE
  5
4675
  8
0
  6
CONTINUOUS
 62
     3
 10
-40.5000000000000284
 20
-60.4949548389092868
 30
0.0000000000000134
 11
40.4999999999999716
 21
-60.4949548389092868
 31
0.0000000000000134
210
0.0
220
1.0
230
-0.0000000000000002
  0
LINE
  5
4676
  8
0
  6
CONTINUOUS
 62
     3
 10
-40.5000000000000284
 20
-61.6000000000000867
 30
0.0000000000000137
 11
40.4999999999999716
 21
-61.6000000000000867
 31
0.0000000000000137
210
0.0
220
1.0
230
-0.0000000000000002
  0
LINE
  5
4677
  8
0
  6
CONTINUOUS
 62
     3
 10
-41.9000000000000625
 20
-63.0000000000001279
 30
0.000000000000014
 11
41.8999999999999986
 21
-63.0000000000001279
 31
0.000000000000014
210
0.0
220
1.0
230
-0.0000000000000002
  0
LINE
  5
4678
  8
0
  6
CONTINUOUS
 62
     3
 10
-41.9000000000000625
 20
-64.0000000000001137
 30
0.0000000000000142
 11
41.8999999999999986
 21
-64.0000000000001137
 31
0.0000000000000142
210
0.0
220
1.0
230
-0.0000000000000002
  0
LINE
  5
4679
  8
0
  6
CONTINUOUS
 62
     3
 10
-40.5000000000000711
 20
-65.4000000000001052
 30
0.0000000000000145
 11
40.5000000000000213
 21
-65.4000000000001052
 31
0.0000000000000145
210
0.0
220
1.0
230
-0.0000000000000002
  0
LINE
  5
467A
  8
0
  6
CONTINUOUS
 62
     3
 10
-40.5000000000000711
 20
-66.0000000000001137
 30
0.0000000000000147
 11
40.5000000000000213
 21
-66.0000000000001137
 31
0.0000000000000147
210
0.0
220
1.0
230
-0.0000000000000002
  0
LINE
  5
467B
  8
0
  6
CONTINUOUS
 62
     3
 10
-42.8000000000000327
 20
-70.0000000000001279
 30
0.0000000000000155
 11
42.7999999999999687
 21
-70.0000000000001279
 31
0.0000000000000155
210
0.0
220
1.0
230
-0.0000000000000002
  0
LINE
  5
467C
  8
0
  6
CONTINUOUS
 62
     3
 10
-34.5000000000000284
 20
-72.5000000000001279
 30
0.0000000000000161
 11
34.4999999999999716
 21
-72.5000000000001279
 31
0.0000000000000161
210
0.0
220
1.0
230
-0.0000000000000002
  0
ARC
  5
467D
  8
0
  6
CONTINUOUS
 62
     3
 10
38.8970615154280708
 20
-51.0000000000001279
 30
0.0
 40
1.0000000000000271
210
0.0
220
-0.0000000000000002
230
-1.0
 50
29.4119136655303883
 51
89.9999999999992042
  0
ARC
  5
467E
  8
0
  6
CONTINUOUS
 62
     3
 10
-38.8970615154280068
 20
-51.0000000000001279
 30
0.0
 40
1.000000000000028
210
0.0
220
-0.0000000000000002
230
-1.0
 50
90.00000000000081
 51
150.5880863344696081
  0
LINE
  5
467F
  8
0
  6
CONTINUOUS
 62
     3
 10
38.897061515428021
 20
-50.0000000000000995
 30
0.0000000000000111
 11
-38.8970615154280779
 21
-50.0000000000000995
 31
0.0000000000000111
210
0.0
220
1.0
230
-0.0000000000000002
  0
LINE
  5
4680
  8
0
  6
CONTINUOUS
 62
     3
 10
39.7681732327772792
 20
-50.5089151031677801
 30
0.0000000000000112
 11
42.2999999999999901
 21
-55.0000000000001279
 31
0.0000000000000122
210
0.0
220
1.0
230
-0.0000000000000002
  0
LINE
  5
4681
  8
0
  6
CONTINUOUS
 62
     3
 10
-39.7681732327773432
 20
-50.5089151031677801
 30
0.0000000000000112
 11
-42.3000000000000398
 21
-55.0000000000001279
 31
0.0000000000000122
210
0.0
220
1.0
230
-0.0000000000000002
  0
ARC
  5
4682
  8
0
  6
CONTINUOUS
 62
     3
 10
39.214074003371131
 20
-55.5000000000000711
 30
0.0
 40
0.5
210
0.0
220
-0.0000000000000002
230
-1.0
 50
90.0000000000016058
 51
199.9999999999990052
  0
ARC
  5
4683
  8
0
  6
CONTINUOUS
 62
     3
 10
-39.2140740033710671
 20
-55.5000000000000568
 30
0.0
 40
0.4999999999999987
210
0.0
220
-0.0000000000000002
230
-1.0
 50
339.9999999999998863
 51
89.9999999999983658
  0
LINE
  5
4684
  8
0
  6
CONTINUOUS
 62
     3
 10
38.7442276929781002
 20
-55.6710100716628915
 30
0.0000000000000124
 11
40.4999999999999787
 21
-60.4949548389092868
 31
0.0000000000000134
210
0.0
220
1.0
230
-0.0000000000000002
  0
LINE
  5
4685
  8
0
  6
CONTINUOUS
 62
     3
 10
-38.7442276929781713
 20
-55.6710100716628915
 30
0.0000000000000124
 11
-40.5000000000000284
 21
-60.4949548389092868
 31
0.0000000000000134
210
0.0
220
1.0
230
-0.0000000000000002
  0
LINE
  5
4686
  8
0
  6
CONTINUOUS
 62
     3
 10
40.4999999999999716
 20
-60.4949548389092868
 30
0.0000000000000134
 11
40.4999999999999716
 21
-61.6000000000000867
 31
0.0000000000000137
210
0.0
220
1.0
230
-0.0000000000000002
  0
LINE
  5
4687
  8
0
  6
CONTINUOUS
 62
     3
 10
-40.5000000000000284
 20
-60.4949548389092868
 30
0.0000000000000134
 11
-40.5000000000000284
 21
-61.6000000000000867
 31
0.0000000000000137
210
0.0
220
1.0
230
-0.0000000000000002
  0
LINE
  5
4688
  8
0
  6
CONTINUOUS
 62
     3
 10
40.4999999999999716
 20
-61.6000000000000867
 30
0.0000000000000137
 11
41.8999999999999986
 21
-63.0000000000001279
 31
0.000000000000014
210
0.0
220
1.0
230
-0.0000000000000002
  0
LINE
  5
4689
  8
0
  6
CONTINUOUS
 62
     3
 10
-40.5000000000000284
 20
-61.6000000000000867
 30
0.0000000000000137
 11
-41.9000000000000625
 21
-63.0000000000001279
 31
0.000000000000014
210
0.0
220
1.0
230
-0.0000000000000002
  0
LINE
  5
468A
  8
0
  6
CONTINUOUS
 62
     3
 10
41.8999999999999986
 20
-63.0000000000001279
 30
0.000000000000014
 11
41.8999999999999986
 21
-64.0000000000001137
 31
0.0000000000000142
210
0.0
220
1.0
230
-0.0000000000000002
  0
LINE
  5
468B
  8
0
  6
CONTINUOUS
 62
     3
 10
-41.9000000000000625
 20
-63.0000000000001279
 30
0.000000000000014
 11
-41.9000000000000625
 21
-64.0000000000001137
 31
0.0000000000000142
210
0.0
220
1.0
230
-0.0000000000000002
  0
LINE
  5
468C
  8
0
  6
CONTINUOUS
 62
     3
 10
-40.5000000000000782
 20
-65.4000000000001052
 30
0.0000000000000145
 11
-41.9000000000000625
 21
-64.0000000000001137
 31
0.0000000000000142
210
0.0
220
1.0
230
-0.0000000000000002
  0
LINE
  5
468D
  8
0
  6
CONTINUOUS
 62
     3
 10
40.5000000000000284
 20
-65.4000000000001052
 30
0.0000000000000145
 11
41.8999999999999986
 21
-64.0000000000001137
 31
0.0000000000000142
210
0.0
220
1.0
230
-0.0000000000000002
  0
LINE
  5
468E
  8
0
  6
CONTINUOUS
 62
     3
 10
40.5000000000000284
 20
-65.4000000000001052
 30
0.0000000000000145
 11
40.5000000000000284
 21
-66.0000000000001137
 31
0.0000000000000147
210
0.0
220
1.0
230
-0.0000000000000002
  0
LINE
  5
468F
  8
0
  6
CONTINUOUS
 62
     3
 10
-40.5000000000000782
 20
-65.4000000000001052
 30
0.0000000000000145
 11
-40.5000000000000782
 21
-66.0000000000001137
 31
0.0000000000000147
210
0.0
220
1.0
230
-0.0000000000000002
  0
LINE
  5
4690
  8
0
  6
CONTINUOUS
 62
     3
 10
40.5000000000000284
 20
-66.0000000000001137
 30
0.0000000000000147
 11
42.7999999999999829
 21
-70.0000000000001279
 31
0.0000000000000155
210
0.0
220
1.0
230
-0.0000000000000002
  0
LINE
  5
4691
  8
0
  6
CONTINUOUS
 62
     3
 10
-40.5000000000000782
 20
-66.0000000000001137
 30
0.0000000000000147
 11
-42.8000000000000327
 21
-70.0000000000001279
 31
0.0000000000000155
210
0.0
220
1.0
230
-0.0000000000000002
  0
ARC
  5
4692
  8
0
  6
CONTINUOUS
 62
     3
 10
34.5000000000000568
 20
-68.5000000000001705
 30
0.0
 40
3.9999999999999569
210
0.0
220
-0.0000000000000002
230
-1.0
 50
270.0
 51
337.9756871629587067
  0
ARC
  5
4693
  8
0
  6
CONTINUOUS
 62
     3
 10
-34.5
 20
-68.5000000000001705
 30
0.0
 40
3.9999999999999538
210
0.0
220
-0.0000000000000002
230
-1.0
 50
202.0243128370416912
 51
270.0000000000003979
  0
LINE
  5
4694
  8
0
  6
CONTINUOUS
 62
     3
 10
35.4999999999999929
 20
0.0000000000000029
 30
0.0
 11
-35.5000000000000213
 21
0.0000000000000029
 31
0.0
210
0.0
220
1.0
230
-0.0000000000000002
  0
LINE
  5
4695
  8
0
  6
CONTINUOUS
 62
     3
 10
38.8732861857024687
 20
80.0000000000000142
 30
-0.0000000000000178
 11
-38.8732861857024972
 21
80.0000000000000142
 31
-0.0000000000000178
210
0.0
220
1.0
230
-0.0000000000000002
  0
ARC
  5
4696
  8
0
  6
CONTINUOUS
 62
     3
 10
-35.5000000000015916
 20
8.0622577482984212
 30
0.0
 40
0.9999999999984012
210
0.0
220
-0.0000000000000002
230
-1.0
 50
179.9999999999953957
 51
187.1250163489087015
  0
ARC
  5
4697
  8
0
  6
CONTINUOUS
 62
     3
 10
35.5000000000016485
 20
8.0622577482984212
 30
0.0
 40
0.9999999999983658
210
0.0
220
-0.0000000000000002
230
-1.0
 50
352.8749836510910995
 51
0.000000000004566
  0
LINE
  5
4698
  8
0
  6
CONTINUOUS
 62
     3
 10
-35.5000000000000213
 20
0.0000000000000018
 30
0.0
 11
-36.4922778767136791
 21
7.9382230137092904
 31
-0.0000000000000018
210
0.0
220
1.0
230
-0.0000000000000002
  0
LINE
  5
4699
  8
0
  6
CONTINUOUS
 62
     3
 10
35.4999999999999929
 20
0.0000000000000018
 30
0.0
 11
36.4922778767136506
 21
7.9382230137092904
 31
-0.0000000000000018
210
0.0
220
1.0
230
-0.0000000000000002
  0
LINE
  5
469A
  8
0
  6
CONTINUOUS
 62
     3
 10
-36.5000000000000213
 20
8.0622577482985012
 30
-0.0000000000000018
 11
-36.5000000000000213
 21
47.5
 31
-0.0000000000000105
210
0.0
220
1.0
230
-0.0000000000000002
  0
LINE
  5
469B
  8
0
  6
CONTINUOUS
 62
     3
 10
36.4999999999999929
 20
8.0622577482985012
 30
-0.0000000000000018
 11
36.4999999999999929
 21
47.5
 31
-0.0000000000000105
210
0.0
220
1.0
230
-0.0000000000000002
  0
ARC
  5
469C
  8
0
  6
CONTINUOUS
 62
     3
 10
-48.4999999999999076
 20
47.5000000000000213
 30
0.0
 40
11.9999999999999201
210
0.0
220
-0.0000000000000002
230
-1.0
 50
360.0
 51
22.4735623412122401
  0
ARC
  5
469D
  8
0
  6
CONTINUOUS
 62
     3
 10
48.5000000000000711
 20
47.4999999999999929
 30
0.0
 40
12.0000000000000497
210
0.0
220
-0.0000000000000002
230
-1.0
 50
157.5264376587878132
 51
179.999999999999801
  0
LINE
  5
469E
  8
0
  6
CONTINUOUS
 62
     3
 10
-37.4113278374470326
 20
52.0870850952890123
 30
-0.0000000000000116
 11
-39.9611287723244786
 21
58.2508919703053181
 31
-0.0000000000000129
210
0.0
220
1.0
230
-0.0000000000000002
  0
LINE
  5
469F
  8
0
  6
CONTINUOUS
 62
     3
 10
37.4113278374469971
 20
52.0870850952890123
 30
-0.0000000000000116
 11
39.9611287723244573
 21
58.2508919703053181
 31
-0.0000000000000129
210
0.0
220
1.0
230
-0.0000000000000002
  0
ARC
  5
46A0
  8
0
  6
CONTINUOUS
 62
     3
 10
-20.0199999999973492
 20
66.5000000000008669
 30
0.0
 40
21.5800000000027588
210
0.0
220
-0.0000000000000002
230
-1.0
 50
194.7656224347751106
 51
202.4735623412115046
  0
ARC
  5
46A1
  8
0
  6
CONTINUOUS
 62
     3
 10
20.0199999999982303
 20
66.5000000000006111
 30
0.0
 40
21.5800000000018812
210
0.0
220
-0.0000000000000002
230
-1.0
 50
337.5264376587883248
 51
345.2343775652249747
  0
LINE
  5
46A2
  8
0
  6
CONTINUOUS
 62
     3
 10
-41.6000000000000085
 20
67.9999999999999005
 30
-0.0000000000000151
 11
-41.6000000000000085
 21
69.5000000000000142
 31
-0.0000000000000154
210
0.0
220
1.0
230
-0.0000000000000002
  0
LINE
  5
46A3
  8
0
  6
CONTINUOUS
 62
     3
 10
41.5999999999999872
 20
67.9999999999999005
 30
-0.0000000000000151
 11
41.5999999999999872
 21
69.5000000000000142
 31
-0.0000000000000154
210
0.0
220
1.0
230
-0.0000000000000002
  0
ARC
  5
46A4
  8
0
  6
CONTINUOUS
 62
     3
 10
-20.0200000000001488
 20
69.5000000000000568
 30
0.0
 40
21.5799999999998313
210
0.0
220
-0.0000000000000002
230
-1.0
 50
150.8851630147509013
 51
180.0000000000001137
  0
ARC
  5
46A5
  8
0
  6
CONTINUOUS
 62
     3
 10
20.02000000000006
 20
69.5000000000000142
 30
0.0
 40
21.5799999999999486
210
0.0
220
-0.0000000000000002
230
-1.0
 50
0.0
 51
29.1148369852489886
  0
LINE
  5
46A6
  8
0
  6
CONTINUOUS
 62
     3
 10
42.7047891332607321
 20
60.9999999999999076
 30
-0.0000000000000135
 11
-42.7047891332608387
 21
60.9999999999999076
 31
-0.0000000000000135
210
0.0
220
1.0
230
-0.0000000000000002
  0
LINE
  5
46A7
  8
0
  6
CONTINUOUS
 62
     3
 10
122.4999999999999005
 20
65.9999999999999005
 30
-0.0000000000000147
 11
-122.5
 21
65.9999999999999005
 31
-0.0000000000000147
210
0.0
220
1.0
230
-0.0000000000000002
  0
LINE
  5
46A8
  8
0
  6
CONTINUOUS
 62
     3
 10
122.4999999999999005
 20
67.9999999999999005
 30
-0.0000000000000151
 11
-122.5
 21
67.9999999999999005
 31
-0.0000000000000151
210
0.0
220
1.0
230
-0.0000000000000002
  0
LINE
  5
46A9
  8
0
  6
CONTINUOUS
 62
     3
 10
-42.7047891332608387
 20
60.9999999999999218
 30
-0.0000000000000135
 11
-48.7952108667393176
 21
65.5963969256975332
 31
-0.0000000000000146
210
0.0
220
1.0
230
-0.0000000000000002
  0
LINE
  5
46AA
  8
0
  6
CONTINUOUS
 62
     3
 10
42.7047891332607321
 20
60.9999999999999218
 30
-0.0000000000000135
 11
48.7952108667391968
 21
65.5963969256975332
 31
-0.0000000000000146
210
0.0
220
1.0
230
-0.0000000000000002
  0
ARC
  5
46AB
  8
0
  6
CONTINUOUS
 62
     3
 10
-49.9999999999999929
 20
63.9999999999998082
 30
0.0
 40
2.0000000000000728
210
0.0
220
-0.0000000000000002
230
-1.0
 50
52.958410962620853
 51
89.9999999999987637
  0
ARC
  5
46AC
  8
0
  6
CONTINUOUS
 62
     3
 10
50.0000000000000995
 20
63.9999999999998082
 30
0.0
 40
2.0000000000000711
210
0.0
220
-0.0000000000000002
230
-1.0
 50
90.0000000000012221
 51
127.0415890373790972
  0
LINE
  5
46AD
  8
0
  6
CONTINUOUS
 62
     3
 10
-122.5
 20
65.9999999999999005
 30
-0.0000000000000147
 11
-122.5
 21
67.9999999999999005
 31
-0.0000000000000151
210
0.0
220
1.0
230
-0.0000000000000002
  0
LINE
  5
46AE
  8
0
  6
CONTINUOUS
 62
     3
 10
122.4999999999999005
 20
65.9999999999999005
 30
-0.0000000000000147
 11
122.4999999999999005
 21
67.9999999999999005
 31
-0.0000000000000151
210
0.0
220
1.0
230
-0.0000000000000002
  0
LINE
  5
46AF
  8
0
  6
VERDECKT
 62
     1
 10
-37.0000000000000284
 20
-56.0000000000001208
 30
0.0000000000000124
 11
36.9999999999999716
 21
-56.0000000000001208
 31
0.0000000000000124
210
0.0
220
1.0
230
-0.0000000000000002
  0
LINE
  5
46B0
  8
0
  6
VERDECKT
 62
     1
 10
-32.0000000000000284
 20
-71.0000000000001137
 30
0.0000000000000158
 11
31.9999999999999716
 21
-71.0000000000001137
 31
0.0000000000000158
210
0.0
220
1.0
230
-0.0000000000000002
  0
LINE
  5
46B1
  8
0
  6
VERDECKT
 62
     1
 10
36.9999999999999716
 20
-56.0000000000001208
 30
0.0000000000000124
 11
36.9999999999999716
 21
-66.0000000000001137
 31
0.0000000000000147
210
0.0
220
1.0
230
-0.0000000000000002
  0
LINE
  5
46B2
  8
0
  6
VERDECKT
 62
     1
 10
-37.0000000000000284
 20
-56.0000000000001208
 30
0.0000000000000124
 11
-37.0000000000000284
 21
-66.0000000000001137
 31
0.0000000000000147
210
0.0
220
1.0
230
-0.0000000000000002
  0
LINE
  5
46B3
  8
0
  6
VERDECKT
 62
     1
 10
-37.0000000000000284
 20
-56.0000000000001208
 30
0.0000000000000124
 11
-37.9122537624158724
 21
-50.8263518223331729
 31
0.0000000000000113
210
0.0
220
1.0
230
-0.0000000000000002
  0
LINE
  5
46B4
  8
0
  6
VERDECKT
 62
     1
 10
36.9999999999999716
 20
-56.0000000000001208
 30
0.0000000000000124
 11
37.9122537624158227
 21
-50.8263518223331729
 31
0.0000000000000113
210
0.0
220
1.0
230
-0.0000000000000002
  0
ARC
  5
46B5
  8
0
  6
VERDECKT
 62
     1
 10
38.8970615154280921
 20
-51.0000000000001208
 30
0.0
 40
1.0000000000000071
210
0.0
220
-0.0000000000000002
230
-1.0
 50
90.0000000000003979
 51
169.9999999999990052
  0
ARC
  5
46B6
  8
0
  6
VERDECKT
 62
     1
 10
-38.8970615154280281
 20
-51.0000000000001208
 30
0.0
 40
1.0000000000000071
210
0.0
220
-0.0000000000000002
230
-1.0
 50
10.0000000000009397
 51
89.9999999999995879
  0
LINE
  5
46B7
  8
0
  6
VERDECKT
 62
     1
 10
40.1756658041690287
 20
-68.4725600474013305
 30
0.0000000000000152
 11
40.9999999999999574
 21
-70.0000000000001279
 31
0.0000000000000155
210
0.0
220
1.0
230
-0.0000000000000002
  0
LINE
  5
46B8
  8
0
  6
VERDECKT
 62
     1
 10
-40.1756658041690784
 20
-68.4725600474013305
 30
0.0000000000000152
 11
-41.0000000000000284
 21
-70.0000000000001279
 31
0.0000000000000155
210
0.0
220
1.0
230
-0.0000000000000002
  0
ARC
  5
46B9
  8
0
  6
VERDECKT
 62
     1
 10
39.3836461788299275
 20
-68.9000000000001336
 30
0.0
 40
0.9000000000000328
210
0.0
220
-0.0000000000000002
230
-1.0
 50
28.3550060284115588
 51
89.9999999999986642
  0
ARC
  5
46BA
  8
0
  6
VERDECKT
 62
     1
 10
39.3836461788299701
 20
-68.9000000000001336
 30
0.0
 40
0.9000000000000341
210
0.0
220
-0.0000000000000002
230
-1.0
 50
90.0000000000013358
 51
175.3175831377299119
  0
ARC
  5
46BB
  8
0
  6
VERDECKT
 62
     1
 10
-39.3836461788299133
 20
-68.9000000000001336
 30
0.0
 40
0.9000000000000262
210
0.0
220
-0.0000000000000002
230
-1.0
 50
4.6824168622700792
 51
89.9999999999986358
  0
ARC
  5
46BC
  8
0
  6
VERDECKT
 62
     1
 10
-39.3836461788298706
 20
-68.9000000000001336
 30
0.0
 40
0.9000000000000341
210
0.0
220
-0.0000000000000002
230
-1.0
 50
90.0000000000013358
 51
151.6449939715884057
  0
LINE
  5
46BD
  8
0
  6
VERDECKT
 62
     1
 10
39.3836461788298919
 20
-68.0000000000001137
 30
0.0000000000000151
 11
-39.3836461788299488
 21
-68.0000000000001137
 31
0.0000000000000151
210
0.0
220
1.0
230
-0.0000000000000002
  0
ARC
  5
46BE
  8
0
  6
VERDECKT
 62
     1
 10
34.5000000000001776
 20
-68.5000000000001847
 30
0.0
 40
3.999999999999837
210
0.0
220
-0.0000000000000002
230
-1.0
 50
337.9756871629576835
 51
355.3175831377308214
  0
ARC
  5
46BF
  8
0
  6
VERDECKT
 62
     1
 10
-34.5000000000001208
 20
-68.5000000000001847
 30
0.0
 40
3.999999999999837
210
0.0
220
-0.0000000000000002
230
-1.0
 50
184.6824168622690934
 51
202.0243128370422028
  0
LINE
  5
46C0
  8
0
  6
VERDECKT
 62
     1
 10
31.9999999999999716
 20
-71.0000000000001137
 30
0.0000000000000158
 11
31.9999999999999716
 21
-72.5000000000001279
 31
0.0000000000000161
210
0.0
220
1.0
230
-0.0000000000000002
  0
LINE
  5
46C1
  8
0
  6
VERDECKT
 62
     1
 10
-32.0000000000000284
 20
-71.0000000000001137
 30
0.0000000000000158
 11
-32.0000000000000284
 21
-72.5000000000001279
 31
0.0000000000000161
210
0.0
220
1.0
230
-0.0000000000000002
  0
ARC
  5
46C2
  8
0
  6
VERDECKT
 62
     1
 10
32.0000000000000284
 20
-66.0000000000001137
 30
0.0
 40
5.0
210
0.0
220
-0.0000000000000002
230
-1.0
 50
270.0
 51
0.0
  0
ARC
  5
46C3
  8
0
  6
VERDECKT
 62
     1
 10
-31.9999999999999716
 20
-66.0000000000001137
 30
0.0
 40
5.0
210
0.0
220
-0.0000000000000002
230
-1.0
 50
180.0
 51
270.0
  0
LINE
  5
46C4
  8
0
  6
VERDECKT
 62
     1
 10
34.3092665479435865
 20
0.1488416815070555
 30
0.0
 11
-34.3092665479436221
 21
0.1488416815070555
 31
0.0
210
0.0
220
1.0
230
-0.0000000000000002
  0
LINE
  5
46C5
  8
0
  6
VERDECKT
 62
     1
 10
37.8249106795466119
 20
79.4161260426320723
 30
-0.0000000000000176
 11
-37.8249106795466403
 21
79.4161260426320723
 31
-0.0000000000000176
210
0.0
220
1.0
230
-0.0000000000000002
  0
ARC
  5
46C6
  8
0
  6
VERDECKT
 62
     1
 10
-34.300000000001603
 20
8.1369670462566823
 30
0.0
 40
0.999999999998387
210
0.0
220
-0.0000000000000002
230
-1.0
 50
179.9999999999953957
 51
187.1250163489087015
  0
ARC
  5
46C7
  8
0
  6
VERDECKT
 62
     1
 10
34.3000000000016314
 20
8.1369670462566823
 30
0.0
 40
0.9999999999983868
210
0.0
220
-0.0000000000000002
230
-1.0
 50
352.8749836510912132
 51
0.000000000004566
  0
LINE
  5
46C8
  8
0
  6
VERDECKT
 62
     1
 10
-35.3000000000000185
 20
8.1369670462567623
 30
-0.0000000000000018
 11
-35.3000000000000185
 21
47.5
 31
-0.0000000000000105
210
0.0
220
1.0
230
-0.0000000000000002
  0
LINE
  5
46C9
  8
0
  6
VERDECKT
 62
     1
 10
35.2999999999999901
 20
8.1369670462567623
 30
-0.0000000000000018
 11
35.2999999999999901
 21
47.5
 31
-0.0000000000000105
210
0.0
220
1.0
230
-0.0000000000000002
  0
LINE
  5
46CA
  8
0
  6
VERDECKT
 62
     1
 10
-34.3092665479436221
 20
0.1488416815070548
 30
0.0
 11
-35.2922778767136904
 21
8.0129323116675533
 31
-0.0000000000000018
210
0.0
220
1.0
230
-0.0000000000000002
  0
LINE
  5
46CB
  8
0
  6
VERDECKT
 62
     1
 10
34.3092665479435865
 20
0.1488416815070521
 30
0.0
 11
35.292277876713662
 21
8.0129323116675533
 31
-0.0000000000000018
210
0.0
220
1.0
230
-0.0000000000000002
  0
LINE
  5
46CC
  8
0
  6
VERDECKT
 62
     1
 10
34.3092665479435865
 20
0.1488416815070492
 30
0.0
 11
35.4999999999999929
 21
0.0000000000000003
 31
0.0
210
0.0
220
1.0
230
-0.0000000000000002
  0
LINE
  5
46CD
  8
0
  6
VERDECKT
 62
     1
 10
-34.3092665479436221
 20
0.1488416815070493
 30
0.0
 11
-35.5000000000000213
 21
0.0000000000000003
 31
0.0
210
0.0
220
1.0
230
-0.0000000000000002
  0
ARC
  5
46CE
  8
0
  6
VERDECKT
 62
     1
 10
-20.0200000000004508
 20
66.4999999999999432
 30
0.0
 40
21.57999999999954
210
0.0
220
-0.0000000000000002
230
-1.0
 50
179.999999999999801
 51
194.765622434774798
  0
ARC
  5
46CF
  8
0
  6
VERDECKT
 62
     1
 10
20.0199999999996301
 20
66.5000000000000711
 30
0.0
 40
21.5800000000003891
210
0.0
220
-0.0000000000000002
230
-1.0
 50
345.2343775652253726
 51
359.9999999999997726
  0
LINE
  5
46D0
  8
0
  6
VERDECKT
 62
     1
 10
-41.6000000000000085
 20
66.5000000000000142
 30
-0.0000000000000148
 11
-41.6000000000000085
 21
67.9999999999999005
 31
-0.0000000000000151
210
0.0
220
1.0
230
-0.0000000000000002
  0
LINE
  5
46D1
  8
0
  6
VERDECKT
 62
     1
 10
41.5999999999999872
 20
66.5000000000000142
 30
-0.0000000000000148
 11
41.5999999999999872
 21
67.9999999999999005
 31
-0.0000000000000151
210
0.0
220
1.0
230
-0.0000000000000002
  0
LINE
  5
46D2
  8
0
  6
VERDECKT
 62
     1
 10
-37.8249106795466474
 20
79.4161260426320865
 30
-0.0000000000000176
 11
-38.8732861857024972
 21
80.0000000000000142
 31
-0.0000000000000178
210
0.0
220
1.0
230
-0.0000000000000002
  0
LINE
  5
46D3
  8
0
  6
VERDECKT
 62
     1
 10
37.8249106795466119
 20
79.4161260426320723
 30
-0.0000000000000176
 11
38.8732861857024687
 21
80.0000000000000142
 31
-0.0000000000000178
210
0.0
220
1.0
230
-0.0000000000000002
  0
ARC
  5
46D4
  8
0
  6
VERDECKT
 62
     1
 10
-20.0199999999999605
 20
69.5
 30
0.0
 40
20.380000000000031
210
0.0
220
-0.0000000000000002
230
-1.0
 50
150.8851630147509866
 51
179.9999999999998863
  0
ARC
  5
46D5
  8
0
  6
VERDECKT
 62
     1
 10
20.0200000000000706
 20
69.5000000000000142
 30
0.0
 40
20.3799999999999493
210
0.0
220
-0.0000000000000002
230
-1.0
 50
0.0
 51
29.1148369852490916
  0
LINE
  5
46D6
  8
0
  6
VERDECKT
 62
     1
 10
-40.3999999999999986
 20
66.5000000000000142
 30
-0.0000000000000148
 11
-40.3999999999999986
 21
69.5000000000000142
 31
-0.0000000000000154
210
0.0
220
1.0
230
-0.0000000000000002
  0
LINE
  5
46D7
  8
0
  6
VERDECKT
 62
     1
 10
40.3999999999999773
 20
66.5000000000000142
 30
-0.0000000000000148
 11
40.3999999999999773
 21
69.5000000000000142
 31
-0.0000000000000154
210
0.0
220
1.0
230
-0.0000000000000002
  0
ARC
  5
46D8
  8
0
  6
VERDECKT
 62
     1
 10
-20.0199999999998894
 20
66.5000000000000426
 30
0.0
 40
20.3800000000000985
210
0.0
220
-0.0000000000000002
230
-1.0
 50
180.0
 51
202.4735623412119878
  0
ARC
  5
46D9
  8
0
  6
VERDECKT
 62
     1
 10
20.0200000000000884
 20
66.5000000000000142
 30
0.0
 40
20.3799999999999315
210
0.0
220
-0.0000000000000002
230
-1.0
 50
337.5264376587878132
 51
0.0
  0
LINE
  5
46DA
  8
0
  6
VERDECKT
 62
     1
 10
-36.3024606211917273
 20
52.5457936048178809
 30
-0.0000000000000117
 11
-38.8522615560691733
 21
58.7096004798342292
 31
-0.000000000000013
210
0.0
220
1.0
230
-0.0000000000000002
  0
LINE
  5
46DB
  8
0
  6
VERDECKT
 62
     1
 10
36.3024606211917202
 20
52.545793604817888
 30
-0.0000000000000117
 11
38.852261556069152
 21
58.7096004798342292
 31
-0.000000000000013
210
0.0
220
1.0
230
-0.0000000000000002
  0
ARC
  5
46DC
  8
0
  6
VERDECKT
 62
     1
 10
-48.4999999999997726
 20
47.5000000000000426
 30
0.0
 40
13.1999999999997808
210
0.0
220
-0.0000000000000002
230
-1.0
 50
359.9999999999997726
 51
22.4735623412123289
  0
ARC
  5
46DD
  8
0
  6
VERDECKT
 62
     1
 10
48.4999999999998792
 20
47.5000000000000284
 30
0.0
 40
13.1999999999998696
210
0.0
220
-0.0000000000000002
230
-1.0
 50
157.5264376587876995
 51
180.0
  0
LINE
  5
46DE
  8
0
  6
VERDECKT
 62
     1
 10
41.4999999999999432
 20
62.5963969256974408
 30
-0.0000000000000139
 11
-41.5000000000000497
 21
62.5963969256974408
 31
-0.0000000000000139
210
0.0
220
1.0
230
-0.0000000000000002
  0
ARC
  5
46DF
  8
0
  6
VERDECKT
 62
     1
 10
-49.9999999999999289
 20
63.9999999999999787
 30
0.0
 40
3.999999999999909
210
0.0
220
-0.0000000000000002
230
-1.0
 50
52.9584109626198014
 51
90.0000000000000995
  0
ARC
  5
46E0
  8
0
  6
VERDECKT
 62
     1
 10
50.0000000000000711
 20
63.9999999999999076
 30
0.0
 40
3.9999999999999711
210
0.0
220
-0.0000000000000002
230
-1.0
 50
90.0000000000000995
 51
127.0415890373795946
  0
LINE
  5
46E1
  8
0
  6
VERDECKT
 62
     1
 10
-41.5000000000000568
 20
62.5963969256974408
 30
-0.0000000000000139
 11
-47.5904217334785926
 21
67.1927938513951659
 31
-0.0000000000000149
210
0.0
220
1.0
230
-0.0000000000000002
  0
LINE
  5
46E2
  8
0
  6
VERDECKT
 62
     1
 10
41.4999999999999432
 20
62.5963969256974266
 30
-0.0000000000000139
 11
47.5904217334784789
 21
67.1927938513951801
 31
-0.0000000000000149
210
0.0
220
1.0
230
-0.0000000000000002
  0
LINE
  5
46E3
  8
0
  6
VERDECKT
 62
     1
 10
41.4999999999999432
 20
62.5963969256974408
 30
-0.0000000000000139
 11
42.7047891332607321
 21
60.9999999999999005
 31
-0.0000000000000135
210
0.0
220
1.0
230
-0.0000000000000002
  0
LINE
  5
46E4
  8
0
  6
VERDECKT
 62
     1
 10
-41.5000000000000426
 20
62.5963969256974408
 30
-0.0000000000000139
 11
-42.7047891332608387
 21
60.9999999999999005
 31
-0.0000000000000135
210
0.0
220
1.0
230
-0.0000000000000002
  0
ENDBLK
  5
46E6
  8
0
  0
ENDSEC
  0
SECTION
  2
ENTITIES
  0
TEXT
  5
3D7
  8
VOLL
 10
78.076754716981128
 20
31.025947764705851
 30
0.0
 40
1.8
  1

  7
GREEKS
  0
INSERT
  5
AD0
  8
ADSK_ASSOC_ENTITY_BACKUPS
  2
*S0
 10
0.0
 20
0.0
 30
0.0
  0
INSERT
  5
4671
  8
STEMPEL
  2
A$C01C0E657
 10
0.0
 20
-250.0
 30
0.0
  0
INSERT
  5
46E7
  8
STEMPEL
  2
A$C2F7F99C8
 10
0.0
 20
0.0
 30
0.0
  0
VIEWPORT
  5
AAD
 67
     1
  8
0
 10
148.2557508303524116
 20
209.7583263978156083
 30
0.0
 40
795.6883637233959234
 41
422.1649484536083037
 68
     1
 69
     1
1001
ACAD
1000
MVIEW
1002
{
1070
    16
1010
0.0
1020
0.0
1030
0.0
1010
0.0
1020
0.0
1030
1.0
1040
0.0
1040
422.1649484536083037
1040
148.2557508303524116
1040
209.7583263978156083
1040
50.0
1040
0.0
1040
0.0
1070
     0
1070
  1500
1070
     1
1070
     1
1070
     0
1070
     0
1070
     0
1070
     0
1040
0.0
1040
0.0
1040
0.0
1040
10.0
1040
10.0
1040
10.0
1040
10.0
1070
     0
1002
{
1002
}
1002
}
  0
TEXT
  5
CB0
 67
     1
  8
VOLL
 10
625.5592565604117681
 20
227.4217200880700887
 30
0.0
 40
3.6000000000000001
  1

  7
GREEKS
  0
TEXT
  5
13FD
 67
     1
  8
VOLL
 10
1136.2020779486761057
 20
544.3446897115051115
 30
0.0
 40
1.8
  1

  7
GREEKS
  0
TEXT
  5
13FE
 67
     1
  8
VOLL
 10
1257.6048466178569925
 20
751.6650977567676364
 30
0.0
 40
1.8
  1

  7
GREEKS
  0
TEXT
  5
13FF
 67
     1
  8
VOLL
 10
1587.438057582276997
 20
568.0756737226744235
 30
0.0
 40
1.8
  1

  7
GREEKS
  0
TEXT
  5
1400
 67
     1
  8
VOLL
 10
1583.6057810679399154
 20
556.8718499942134486
 30
0.0
 40
1.8
  1

  7
GREEKS
  0
TEXT
  5
147D
 67
     1
  8
VOLL
 10
541.8878355258799502
 20
83.5838184280439549
 30
0.0
 40
3.6000000000000001
  1

  7
GREEKS
  0
ENDSEC
  0
EOF
