  0
SECTION
  2
HEADER
  9
$ACADVER
  1
AC1009
  9
$INSBASE
 10
0.0
 20
0.0
 30
0.0
  9
$EXTMIN
 10
-149.9999999999998863
 20
-480.9998957656649168
 30
-0.000000000000061
  9
$EXTMAX
 10
150.0000000000001137
 20
269.9999999999997726
 30
0.0000000000000291
  9
$LIMMIN
 10
0.0
 20
0.0
  9
$LIMMAX
 10
1681.9999999999990905
 20
1188.0
  9
$ORTHOMODE
 70
     1
  9
$REGENMODE
 70
     1
  9
$FILLMODE
 70
     1
  9
$QTEXTMODE
 70
     0
  9
$MIRRTEXT
 70
     1
  9
$DRAGMODE
 70
     2
  9
$LTSCALE
 40
20.0
  9
$OSMODE
 70
   511
  9
$ATTMODE
 70
     1
  9
$TEXTSIZE
 40
3.5
  9
$TRACEWID
 40
1.0
  9
$TEXTSTYLE
  7
STANDARD
  9
$CLAYER
  8
STEMPEL
  9
$CELTYPE
  6
BYLAYER
  9
$CECOLOR
 62
   256
  9
$DIMSCALE
 40
1.0
  9
$DIMASZ
 40
3.5
  9
$DIMEXO
 40
1.0
  9
$DIMDLI
 40
0.38
  9
$DIMRND
 40
0.0
  9
$DIMDLE
 40
0.0
  9
$DIMEXE
 40
1.0
  9
$DIMTP
 40
0.0
  9
$DIMTM
 40
0.000000001
  9
$DIMTXT
 40
3.5
  9
$DIMCEN
 40
0.09
  9
$DIMTSZ
 40
0.0
  9
$DIMTOL
 70
     0
  9
$DIMLIM
 70
     0
  9
$DIMTIH
 70
     0
  9
$DIMTOH
 70
     0
  9
$DIMSE1
 70
     0
  9
$DIMSE2
 70
     0
  9
$DIMTAD
 70
     1
  9
$DIMZIN
 70
     8
  9
$DIMBLK
  1

  9
$DIMASO
 70
     1
  9
$DIMSHO
 70
     0
  9
$DIMPOST
  1

  9
$DIMAPOST
  1

  9
$DIMALT
 70
     0
  9
$DIMALTD
 70
     2
  9
$DIMALTF
 40
25.3999999999999986
  9
$DIMLFAC
 40
2.0
  9
$DIMTOFL
 70
     1
  9
$DIMTVP
 40
0.0
  9
$DIMTIX
 70
     0
  9
$DIMSOXD
 70
     0
  9
$DIMSAH
 70
     0
  9
$DIMBLK1
  1

  9
$DIMBLK2
  1

  9
$DIMSTYLE
  2
LORO
  9
$DIMCLRD
 70
     0
  9
$DIMCLRE
 70
     0
  9
$DIMCLRT
 70
     1
  9
$DIMTFAC
 40
0.5
  9
$DIMGAP
 40
1.5
  9
$LUNITS
 70
     2
  9
$LUPREC
 70
     2
  9
$SKETCHINC
 40
1.0
  9
$FILLETRAD
 40
16.0
  9
$AUNITS
 70
     0
  9
$AUPREC
 70
     0
  9
$MENU
  1
ACAD
  9
$ELEVATION
 40
0.0
  9
$PELEVATION
 40
0.0
  9
$THICKNESS
 40
0.0
  9
$LIMCHECK
 70
     0
  9
$BLIPMODE
 70
     0
  9
$CHAMFERA
 40
2.0
  9
$CHAMFERB
 40
2.0
  9
$SKPOLY
 70
     0
  9
$TDCREATE
 40
2455397.867048610933125
  9
$TDUPDATE
 40
2459640.4109143521636724
  9
$TDINDWG
 40
3.7248612962999998
  9
$TDUSRTIMER
 40
3.7248612962999998
  9
$USRTIMER
 70
     1
  9
$ANGBASE
 50
0.0
  9
$ANGDIR
 70
     0
  9
$PDMODE
 70
     0
  9
$PDSIZE
 40
0.0
  9
$PLINEWID
 40
0.0
  9
$COORDS
 70
     1
  9
$SPLFRAME
 70
     0
  9
$SPLINETYPE
 70
     6
  9
$SPLINESEGS
 70
     8
  9
$ATTDIA
 70
     1
  9
$ATTREQ
 70
     1
  9
$HANDLING
 70
     1
  9
$HANDSEED
  5
198BD
  9
$SURFTAB1
 70
     6
  9
$SURFTAB2
 70
     6
  9
$SURFTYPE
 70
     6
  9
$SURFU
 70
     6
  9
$SURFV
 70
     6
  9
$UCSNAME
  2

  9
$UCSORG
 10
0.0
 20
0.0
 30
0.0
  9
$UCSXDIR
 10
1.0
 20
0.0
 30
0.0
  9
$UCSYDIR
 10
0.0
 20
1.0
 30
0.0
  9
$PUCSNAME
  2

  9
$PUCSORG
 10
0.0
 20
0.0
 30
0.0
  9
$PUCSXDIR
 10
1.0
 20
0.0
 30
0.0
  9
$PUCSYDIR
 10
0.0
 20
1.0
 30
0.0
  9
$USERI1
 70
     0
  9
$USERI2
 70
     0
  9
$USERI3
 70
     0
  9
$USERI4
 70
     0
  9
$USERI5
 70
     0
  9
$USERR1
 40
0.0
  9
$USERR2
 40
0.0
  9
$USERR3
 40
0.0
  9
$USERR4
 40
0.0
  9
$USERR5
 40
0.0
  9
$WORLDVIEW
 70
     1
  9
$SHADEDGE
 70
     3
  9
$SHADEDIF
 70
    70
  9
$TILEMODE
 70
     1
  9
$MAXACTVP
 70
    16
  9
$PLIMCHECK
 70
     0
  9
$PEXTMIN
 10
1.0000000000000000E+20
 20
1.0000000000000000E+20
 30
1.0000000000000000E+20
  9
$PEXTMAX
 10
-1.0000000000000000E+20
 20
-1.0000000000000000E+20
 30
-1.0000000000000000E+20
  9
$PLIMMIN
 10
-4.4972149907226857
 20
-6.3878835070801161
  9
$PLIMMAX
 10
295.472785009277402
 20
417.8121164929199267
  9
$UNITMODE
 70
     0
  9
$VISRETAIN
 70
     0
  9
$PLINEGEN
 70
     0
  9
$PSLTSCALE
 70
     0
  0
ENDSEC
  0
SECTION
  2
TABLES
  0
TABLE
  2
VPORT
 70
     1
  0
VPORT
  2
*ACTIVE
 70
     0
 10
0.0
 20
0.0
 11
1.0
 21
1.0
 12
0.0
 22
-25.0
 13
0.0
 23
0.0
 14
1.0
 24
1.0
 15
10.0
 25
10.0
 16
-0.0000000000003968
 26
0.0
 36
1780.2239026613428905
 17
0.0000000000000682
 27
-80.4999478828325721
 37
-0.0000000000000154
 40
754.8413274575606238
 41
1.872013651877132
 42
50.0
 43
0.0
 44
0.0
 50
0.0
 51
0.0
 71
     0
 72
  1500
 73
     1
 74
     0
 75
     0
 76
     0
 77
     0
 78
     0
  0
ENDTAB
  0
TABLE
  2
LTYPE
 70
     3
  0
LTYPE
  2
CONTINUOUS
 70
     0
  3
Solid line
 72
    65
 73
     0
 40
0.0
  0
LTYPE
  2
STRICHPUNKT
 70
     0
  3
__ . __ . __ . __ . __ . __ . __ . __ . __ . __
 72
    65
 73
     4
 40
1.0
 49
0.5
 49
-0.25
 49
0.0
 49
-0.25
  0
LTYPE
  2
VERDECKT
 70
     0
  3
Verdeckt __ __ __ __ __ __ __ __ __ __ __ __ __
 72
    65
 73
     2
 40
0.375
 49
0.25
 49
-0.125
  0
ENDTAB
  0
TABLE
  2
LAYER
 70
     7
  0
LAYER
  2
0
 70
     0
 62
     7
  6
CONTINUOUS
  0
LAYER
  2
VOLL
 70
     0
 62
     1
  6
CONTINUOUS
  0
LAYER
  2
STEMPEL
 70
     0
 62
     3
  6
CONTINUOUS
  0
LAYER
  2
DEFPOINTS
 70
     0
 62
     7
  6
CONTINUOUS
  0
LAYER
  2
ADSK_ASSOC_ENTITY_BACKUPS
 70
     1
 62
    -7
  6
CONTINUOUS
  0
ENDTAB
  0
TABLE
  2
STYLE
 70
     3
  0
STYLE
  2
STANDARD
 70
     0
 40
0.0
 41
0.8
 50
0.0
 71
     0
 42
3.5
  3
simplex.shx
  4

  0
STYLE
  2
GREEKS
 70
     0
 40
0.0
 41
0.8
 50
0.0
 71
     0
 42
2.5
  3
SIMPLEX.shx
  4

  0
ENDTAB
  0
TABLE
  2
VIEW
 70
     0
  0
ENDTAB
  0
TABLE
  2
UCS
 70
     0
  0
ENDTAB
  0
TABLE
  2
APPID
 70
    30
  0
APPID
  2
ACAD
 70
     0
  0
APPID
  2
ACAD_EXEMPT_FROM_CAD_STANDARDS
 70
     0
  0
APPID
  2
ACAD_NAV_VCDISPLAY
 70
     0
  0
APPID
  2
GRADIENTCOLOR1ACI
 70
     0
  0
APPID
  2
GRADIENTCOLOR2ACI
 70
     0
  0
APPID
  2
ACAUTHENVIRON
 70
     0
  0
APPID
  2
ACDBDYNAMICBLOCKTRUENAME
 70
     0
  0
APPID
  2
ACDBDYNAMICBLOCKGUID
 70
     0
  0
APPID
  2
ACAD_PSEXT
 70
     0
  0
APPID
  2
ACAD_MLEADERVER
 70
     0
  0
APPID
  2
ACAECLAYERSTANDARD
 70
     0
  0
APPID
  2
ACCMTRANSPARENCY
 70
     0
  0
APPID
  2
ACAD_STEPID
 70
     0
  0
APPID
  2
ACSYNERGY
 70
     0
  0
APPID
  2
SYNERGY_BODY_TBR_ID
 70
     0
  0
APPID
  2
ACAD_VIEW_EDGE_ID
 70
     0
  0
APPID
  2
ACAD_DSTYLE_DIMJAG
 70
     0
  0
APPID
  2
ACAD_DSTYLE_DIMBREAK
 70
     0
  0
APPID
  2
ACAD_DSTYLE_DIMTALN
 70
     0
  0
APPID
  2
ACADANNOMONITORALERTICONDI
 70
     0
  0
APPID
  2
ACAD_DIMASSOC_CALC_DIMLFAC
 70
     0
  0
APPID
  2
ACAD_DIMASSOC_DIMLFAC
 70
     0
  0
APPID
  2
ACAD_DIMASSOC_OVERRIDDEN_D
 70
     0
  0
APPID
  2
ACAD_DSTYLE_DIMRADIAL_EXTENSION
 70
     0
  0
APPID
  2
ACADANNOPO
 70
     0
  0
APPID
  2
ACSYNERGYSKETCH
 70
     0
  0
APPID
  2
ACAD_MODELDOC_XFORM
 70
     0
  0
APPID
  2
SYNERGY_EXCLUDED_FROM_SNAPSHOT
 70
     0
  0
APPID
  2
PLOTTRANSPARENCY
 70
     0
  0
APPID
  2
ACAD_TC
 70
     0
  0
ENDTAB
  0
TABLE
  2
DIMSTYLE
 70
     2
  0
DIMSTYLE
  2
STANDARD
 70
     0
  3

  4

  5

  6

  7

 40
1.0
 41
0.18
 42
0.0625
 43
0.38
 44
0.18
 45
0.0
 46
0.0
 47
0.0
 48
0.0
140
0.18
141
0.09
142
0.0
143
25.3999999999999986
144
1.0
145
0.0
146
1.0
147
0.09
 71
     0
 72
     0
 73
     1
 74
     1
 75
     0
 76
     0
 77
     0
 78
     0
170
     0
171
     2
172
     0
173
     0
174
     0
175
     0
176
     0
177
     0
178
     0
  0
DIMSTYLE
  2
LORO
 70
     0
  3

  4

  5

  6

  7

 40
1.0
 41
3.5
 42
1.0
 43
0.38
 44
1.0
 45
0.0
 46
0.0
 47
0.0
 48
0.000000001
140
3.5
141
0.09
142
0.0
143
25.3999999999999986
144
2.0
145
0.0
146
0.5
147
1.5
 71
     0
 72
     0
 73
     0
 74
     0
 75
     0
 76
     0
 77
     1
 78
     8
170
     0
171
     2
172
     1
173
     0
174
     0
175
     0
176
     0
177
     0
178
     1
  0
ENDTAB
  0
ENDSEC
  0
SECTION
  2
BLOCKS
  0
BLOCK
  8
0
  2
$MODEL_SPACE
 70
     0
 10
0.0
 20
0.0
 30
0.0
  3
$MODEL_SPACE
  1

  0
ENDBLK
  5
38
  8
0
  0
BLOCK
 67
     1
  8
0
  2
$PAPER_SPACE
 70
     0
 10
0.0
 20
0.0
 30
0.0
  3
$PAPER_SPACE
  1

  0
ENDBLK
  5
36
 67
     1
  8
0
  0
BLOCK
  8
0
  2
*S0
 70
     1
 10
0.0
 20
0.0
 30
0.0
  3
*S0
  1

  0
ENDBLK
  5
46EF
  8
0
  0
BLOCK
  8
0
  2
A$C282E8AB4
 70
     0
 10
0.0
 20
0.0
 30
0.0
  3
A$C282E8AB4
  1

  0
CIRCLE
  5
197DE
  8
0
  6
CONTINUOUS
 62
     3
 10
0.0000000000001137
 20
0.0
 30
0.0
 40
63.7099256195317594
  0
CIRCLE
  5
197DF
  8
0
  6
CONTINUOUS
 62
     3
 10
0.0000000000001636
 20
0.0000000000000021
 30
0.0
 40
64.5
  0
CIRCLE
  5
197E0
  8
0
  6
CONTINUOUS
 62
     3
 10
0.0000000000001692
 20
0.0000000000000043
 30
0.0
 40
69.9999999999999858
  0
CIRCLE
  5
197E1
  8
0
  6
CONTINUOUS
 62
     3
 10
0.0000000000001692
 20
0.0000000000000043
 30
0.0
 40
72.0000000000485016
  0
CIRCLE
  5
197E2
  8
0
  6
CONTINUOUS
 62
     3
 10
0.0000000000001732
 20
0.0000000000000042
 30
0.0
 40
150.0
  0
CIRCLE
  5
197E3
  8
0
  6
CONTINUOUS
 62
     3
 10
0.000000000000085
 20
0.0000000000000018
 30
0.0
 40
61.5
  0
CIRCLE
  5
197E4
  8
0
  6
VERDECKT
 62
     1
 10
0.0000000000001137
 20
0.0
 30
0.0
 40
65.7000000000000028
  0
CIRCLE
  5
197E5
  8
0
  6
VERDECKT
 62
     1
 10
0.0000000000001636
 20
0.0000000000000021
 30
0.0
 40
66.5
  0
CIRCLE
  5
197E6
  8
0
  6
VERDECKT
 62
     1
 10
0.0000000000001688
 20
0.0000000000000314
 30
0.0
 40
72.1603532929805596
  0
CIRCLE
  5
197E7
  8
0
  6
VERDECKT
 62
     1
 10
0.0000000000001689
 20
0.0000000000000314
 30
0.0
 40
70.25
  0
CIRCLE
  5
197E8
  8
0
  6
VERDECKT
 62
     1
 10
0.000000000000172
 20
0.0000000000000322
 30
0.0
 40
74.0
  0
CIRCLE
  5
197E9
  8
0
  6
VERDECKT
 62
     1
 10
0.000000000000171
 20
0.000000000000032
 30
0.0
 40
74.5
  0
CIRCLE
  5
197EA
  8
0
  6
VERDECKT
 62
     1
 10
0.000000000000171
 20
0.000000000000032
 30
0.0
 40
72.5
  0
CIRCLE
  5
197EB
  8
0
  6
VERDECKT
 62
     1
 10
0.0000000000000899
 20
0.0000000000000031
 30
0.0
 40
75.5
  0
CIRCLE
  5
197EC
  8
0
  6
VERDECKT
 62
     1
 10
0.0000000000000893
 20
0.0000000000000029
 30
0.0
 40
71.4801488286690301
  0
CIRCLE
  5
197ED
  8
0
  6
VERDECKT
 62
     1
 10
0.0000000000000882
 20
0.0000000000000026
 30
0.0
 40
73.3000000000000114
  0
CIRCLE
  5
197EE
  8
0
  6
VERDECKT
 62
     1
 10
0.0000000000000869
 20
0.0000000000000023
 30
0.0
 40
75.7000000000000455
  0
CIRCLE
  5
197EF
  8
0
  6
VERDECKT
 62
     1
 10
0.0000000000000862
 20
0.0000000000000021
 30
0.0
 40
73.5
  0
CIRCLE
  5
197F0
  8
0
  6
VERDECKT
 62
     1
 10
0.0000000000000848
 20
0.0000000000000017
 30
0.0
 40
73.7000000000000455
  0
CIRCLE
  5
197F1
  8
0
  6
VERDECKT
 62
     1
 10
0.0000000000000855
 20
0.0000000000000019
 30
0.0
 40
70.7000000000000455
  0
CIRCLE
  5
197F2
  8
0
  6
VERDECKT
 62
     1
 10
0.0000000000000855
 20
0.0000000000000019
 30
0.0
 40
70.1568542494921985
  0
CIRCLE
  5
197F3
  8
0
  6
VERDECKT
 62
     1
 10
0.0000000000000899
 20
0.0000000000000031
 30
0.0
 40
67.5
  0
ENDBLK
  5
197F5
  8
0
  0
BLOCK
  8
0
  2
A$CE94EF3CB
 70
     0
 10
0.0
 20
0.0
 30
0.0
  3
A$CE94EF3CB
  1

  0
LINE
  5
197F9
  8
0
  6
CONTINUOUS
 62
     3
 10
65.7000000000001023
 20
-0.0000000000002842
 30
0.0
 11
-65.6999999999998749
 21
-0.0000000000002842
 31
0.0
210
0.0
220
1.0
230
-0.0000000000000002
  0
LINE
  5
197FA
  8
0
  6
CONTINUOUS
 62
     3
 10
-72.0000000000483737
 20
269.9999999999997726
 30
-0.00000000000006
 11
72.0000000000486153
 21
269.9999999999997726
 31
-0.00000000000006
210
0.0
220
1.0
230
-0.0000000000000002
  0
ARC
  5
197FB
  8
0
  6
CONTINUOUS
 62
     3
 10
65.5000000000044764
 20
8.0498756211203162
 30
0.0
 40
0.9999999999954098
210
0.0
220
-0.0000000000000002
230
-1.0
 50
354.2894068624846113
 51
0.0000000000115136
  0
ARC
  5
197FC
  8
0
  6
CONTINUOUS
 62
     3
 10
-65.500000000005187
 20
8.0498756211203233
 30
0.0
 40
0.9999999999949267
210
0.0
220
-0.0000000000000002
230
-1.0
 50
179.9999999999886029
 51
185.7105931375166108
  0
LINE
  5
197FD
  8
0
  6
CONTINUOUS
 62
     3
 10
-65.6999999999998892
 20
-0.0000000000002851
 30
0.0
 11
-66.4950371902098709
 21
7.9503719020995014
 31
-0.0000000000000018
210
0.0
220
1.0
230
-0.0000000000000002
  0
LINE
  5
197FE
  8
0
  6
CONTINUOUS
 62
     3
 10
65.7000000000001165
 20
-0.0000000000002847
 30
0.0
 11
66.4950371902100983
 21
7.9503719020995334
 31
-0.0000000000000018
210
0.0
220
1.0
230
-0.0000000000000002
  0
LINE
  5
197FF
  8
0
  6
CONTINUOUS
 62
     3
 10
66.5000000000001137
 20
234.999999999999801
 30
-0.0000000000000522
 11
66.5000000000001137
 21
8.0498756211205222
 31
-0.0000000000000018
210
0.0
220
1.0
230
-0.0000000000000002
  0
LINE
  5
19800
  8
0
  6
CONTINUOUS
 62
     3
 10
-66.4999999999998863
 20
234.999999999999801
 30
-0.0000000000000522
 11
-66.4999999999998721
 21
8.0498756211205222
 31
-0.0000000000000018
210
0.0
220
1.0
230
-0.0000000000000002
  0
LINE
  5
19801
  8
0
  6
CONTINUOUS
 62
     3
 10
-68.4246378256497536
 20
245.2017394338645033
 30
-0.0000000000000544
 11
-69.5194308710116502
 21
247.999999999999801
 31
-0.0000000000000551
210
0.0
220
1.0
230
-0.0000000000000002
  0
LINE
  5
19802
  8
0
  6
CONTINUOUS
 62
     3
 10
68.424637825649981
 20
245.2017394338645033
 30
-0.0000000000000544
 11
69.5194308710118634
 21
247.999999999999801
 31
-0.0000000000000551
210
0.0
220
1.0
230
-0.0000000000000002
  0
ARC
  5
19803
  8
0
  6
CONTINUOUS
 62
     3
 10
94.4999999999997726
 20
234.999999999999801
 30
0.0
 40
27.9999999999998792
210
0.0
220
-0.0000000000000002
230
-1.0
 50
158.6325470100902919
 51
180.0
  0
ARC
  5
19804
  8
0
  6
CONTINUOUS
 62
     3
 10
-94.5000000000000853
 20
234.999999999999801
 30
0.0
 40
27.9999999999999396
210
0.0
220
-0.0000000000000002
230
-1.0
 50
0.0
 51
21.3674529899095411
  0
LINE
  5
19805
  8
0
  6
CONTINUOUS
 62
     3
 10
72.0000000000486153
 20
269.9999999999997726
 30
-0.00000000000006
 11
72.0000000000486153
 21
267.9999999999997726
 31
-0.0000000000000595
210
0.0
220
1.0
230
-0.0000000000000002
  0
LINE
  5
19806
  8
0
  6
CONTINUOUS
 62
     3
 10
-72.0000000000483737
 20
269.9999999999997726
 30
-0.00000000000006
 11
-72.0000000000483737
 21
267.9999999999997726
 31
-0.0000000000000595
210
0.0
220
1.0
230
-0.0000000000000002
  0
LINE
  5
19807
  8
0
  6
CONTINUOUS
 62
     3
 10
-72.1603532929804317
 20
247.999999999999801
 30
-0.0000000000000551
 11
72.1603532929806448
 21
247.999999999999801
 31
-0.0000000000000551
210
0.0
220
1.0
230
-0.0000000000000002
  0
LINE
  5
19808
  8
0
  6
CONTINUOUS
 62
     3
 10
-149.9999999999998863
 20
267.9999999999997726
 30
-0.0000000000000595
 11
150.0000000000001137
 21
267.9999999999997726
 31
-0.0000000000000595
210
0.0
220
1.0
230
-0.0000000000000002
  0
LINE
  5
19809
  8
0
  6
CONTINUOUS
 62
     3
 10
-149.9999999999998863
 20
265.9999999999997726
 30
-0.0000000000000591
 11
150.0000000000001137
 21
265.9999999999997726
 31
-0.0000000000000591
210
0.0
220
1.0
230
-0.0000000000000002
  0
ARC
  5
1980A
  8
0
  6
CONTINUOUS
 62
     3
 10
77.4999999999999147
 20
262.4999999999997158
 30
0.0
 40
3.500000000000056
210
0.0
220
-0.0000000000000002
230
-1.0
 50
90.0000000000006963
 51
192.8280495223822015
  0
ARC
  5
1980B
  8
0
  6
CONTINUOUS
 62
     3
 10
-77.5000000000001705
 20
262.4999999999997158
 30
0.0
 40
3.500000000000048
210
0.0
220
-0.0000000000000002
230
-1.0
 50
347.1719504776178269
 51
89.9999999999990763
  0
ARC
  5
1980C
  8
0
  6
CONTINUOUS
 62
     3
 10
57.9673251498186701
 20
258.0522281027256781
 30
0.0
 40
16.5326748501812197
210
0.0
220
-0.0000000000000002
230
-1.0
 50
342.7803027270543907
 51
12.8280495223828499
  0
ARC
  5
1980D
  8
0
  6
CONTINUOUS
 62
     3
 10
-57.9673251498188975
 20
258.0522281027256781
 30
0.0
 40
16.5326748501812197
210
0.0
220
-0.0000000000000002
230
-1.0
 50
167.1719504776170879
 51
197.2196972729456093
  0
LINE
  5
1980E
  8
0
  6
CONTINUOUS
 62
     3
 10
-72.1603532929804459
 20
247.999999999999801
 30
-0.0000000000000551
 11
-73.7589500707289432
 21
253.1579538910472991
 31
-0.0000000000000562
210
0.0
220
1.0
230
-0.0000000000000002
  0
LINE
  5
1980F
  8
0
  6
CONTINUOUS
 62
     3
 10
72.1603532929806732
 20
247.999999999999801
 30
-0.0000000000000551
 11
73.7589500707291705
 21
253.1579538910472991
 31
-0.0000000000000562
210
0.0
220
1.0
230
-0.0000000000000002
  0
LINE
  5
19810
  8
0
  6
CONTINUOUS
 62
     3
 10
150.0000000000001137
 20
267.9999999999997726
 30
-0.0000000000000595
 11
150.0000000000001137
 21
265.9999999999997726
 31
-0.0000000000000591
210
0.0
220
1.0
230
-0.0000000000000002
  0
LINE
  5
19811
  8
0
  6
CONTINUOUS
 62
     3
 10
-149.9999999999998863
 20
267.9999999999997726
 30
-0.0000000000000595
 11
-149.9999999999998863
 21
265.9999999999997726
 31
-0.0000000000000591
210
0.0
220
1.0
230
-0.0000000000000002
  0
LINE
  5
19812
  8
0
  6
CONTINUOUS
 62
     3
 10
-75.4999999999998863
 20
-106.9998957656649026
 30
0.0000000000000238
 11
75.5000000000001137
 21
-106.9998957656649026
 31
0.0000000000000238
210
0.0
220
1.0
230
-0.0000000000000002
  0
LINE
  5
19813
  8
0
  6
CONTINUOUS
 62
     3
 10
-71.4801488286689164
 20
-109.9998957656649026
 30
0.0000000000000244
 11
71.4801488286691438
 21
-109.9998957656649026
 31
0.0000000000000244
210
0.0
220
1.0
230
-0.0000000000000002
  0
LINE
  5
19814
  8
0
  6
CONTINUOUS
 62
     3
 10
-73.2999999999998835
 20
-114.9998957656649026
 30
0.0000000000000255
 11
73.3000000000001108
 21
-114.9998957656649026
 31
0.0000000000000255
210
0.0
220
1.0
230
-0.0000000000000002
  0
LINE
  5
19815
  8
0
  6
CONTINUOUS
 62
     3
 10
-73.2999999999998835
 20
-118.0998957656648969
 30
0.0000000000000262
 11
73.3000000000001108
 21
-118.0998957656648969
 31
0.0000000000000262
210
0.0
220
1.0
230
-0.0000000000000002
  0
LINE
  5
19816
  8
0
  6
CONTINUOUS
 62
     3
 10
-75.6999999999999318
 20
-120.4998957656649026
 30
0.0000000000000268
 11
75.7000000000001592
 21
-120.4998957656649026
 31
0.0000000000000268
210
0.0
220
1.0
230
-0.0000000000000002
  0
LINE
  5
19817
  8
0
  6
CONTINUOUS
 62
     3
 10
-75.6999999999999318
 20
-121.4998957656649026
 30
0.000000000000027
 11
75.7000000000001592
 21
-121.4998957656649026
 31
0.000000000000027
210
0.0
220
1.0
230
-0.0000000000000002
  0
LINE
  5
19818
  8
0
  6
CONTINUOUS
 62
     3
 10
-73.4999999999998863
 20
-123.6998957656649054
 30
0.0000000000000275
 11
73.5000000000001137
 21
-123.6998957656649054
 31
0.0000000000000275
210
0.0
220
1.0
230
-0.0000000000000002
  0
LINE
  5
19819
  8
0
  6
CONTINUOUS
 62
     3
 10
-73.4999999999998863
 20
-126.1893839890133933
 30
0.000000000000028
 11
73.5000000000001137
 21
-126.1893839890133933
 31
0.000000000000028
210
0.0
220
1.0
230
-0.0000000000000002
  0
LINE
  5
1981A
  8
0
  6
CONTINUOUS
 62
     3
 10
-75.6999999999999318
 20
-129.9998957656648884
 30
0.0000000000000289
 11
75.7000000000001592
 21
-129.9998957656648884
 31
0.0000000000000289
210
0.0
220
1.0
230
-0.0000000000000002
  0
LINE
  5
1981B
  8
0
  6
CONTINUOUS
 62
     3
 10
-64.4999999999997726
 20
-130.9998957656648884
 30
0.0000000000000291
 11
64.5
 21
-130.9998957656648884
 31
0.0000000000000291
210
0.0
220
1.0
230
-0.0000000000000002
  0
LINE
  5
1981C
  8
0
  6
CONTINUOUS
 62
     3
 10
-71.4999999999999716
 20
-100.0000000000002984
 30
0.0000000000000222
 11
71.5000000000001847
 21
-100.0000000000002984
 31
0.0000000000000222
210
0.0
220
1.0
230
-0.0000000000000002
  0
ARC
  5
1981D
  8
0
  6
CONTINUOUS
 62
     3
 10
70.9999999999998721
 20
-107.9998957656649026
 30
0.0
 40
0.9999999999999857
210
0.0
220
-0.0000000000000002
230
-1.0
 50
89.9999999999992042
 51
180.0000000000007105
  0
ARC
  5
1981E
  8
0
  6
CONTINUOUS
 62
     3
 10
-71.0000000000000995
 20
-107.9998957656649026
 30
0.0
 40
0.9999999999999857
210
0.0
220
-0.0000000000000002
230
-1.0
 50
0.0
 51
90.0000000000016058
  0
LINE
  5
1981F
  8
0
  6
CONTINUOUS
 62
     3
 10
70.0000000000001137
 20
-107.9998957656649026
 30
0.000000000000024
 11
70.0000000000001137
 21
-108.9998957656649026
 31
0.0000000000000242
210
0.0
220
1.0
230
-0.0000000000000002
  0
LINE
  5
19820
  8
0
  6
CONTINUOUS
 62
     3
 10
-69.9999999999998863
 20
-107.9998957656649026
 30
0.000000000000024
 11
-69.9999999999998863
 21
-108.9998957656649026
 31
0.0000000000000242
210
0.0
220
1.0
230
-0.0000000000000002
  0
ARC
  5
19821
  8
0
  6
CONTINUOUS
 62
     3
 10
70.9999999999998721
 20
-108.9998957656649026
 30
0.0
 40
0.9999999999999857
210
0.0
220
-0.0000000000000002
230
-1.0
 50
179.9999999999992042
 51
270.0000000000007958
  0
ARC
  5
19822
  8
0
  6
CONTINUOUS
 62
     3
 10
-71.0000000000000995
 20
-108.9998957656649026
 30
0.0
 40
0.9999999999999857
210
0.0
220
-0.0000000000000002
230
-1.0
 50
269.9999999999992042
 51
0.0000000000008002
  0
LINE
  5
19823
  8
0
  6
CONTINUOUS
 62
     3
 10
71.4801488286691438
 20
-109.9998957656649026
 30
0.0000000000000244
 11
73.3000000000001251
 21
-114.9998957656649026
 31
0.0000000000000255
210
0.0
220
1.0
230
-0.0000000000000002
  0
LINE
  5
19824
  8
0
  6
CONTINUOUS
 62
     3
 10
-71.4801488286689164
 20
-109.9998957656649026
 30
0.0000000000000244
 11
-73.2999999999998977
 21
-114.9998957656649026
 31
0.0000000000000255
210
0.0
220
1.0
230
-0.0000000000000002
  0
LINE
  5
19825
  8
0
  6
CONTINUOUS
 62
     3
 10
73.3000000000001251
 20
-114.9998957656649026
 30
0.0000000000000255
 11
73.3000000000001251
 21
-118.0998957656648969
 31
0.0000000000000262
210
0.0
220
1.0
230
-0.0000000000000002
  0
LINE
  5
19826
  8
0
  6
CONTINUOUS
 62
     3
 10
-73.2999999999998977
 20
-114.9998957656649026
 30
0.0000000000000255
 11
-73.2999999999998977
 21
-118.0998957656648969
 31
0.0000000000000262
210
0.0
220
1.0
230
-0.0000000000000002
  0
LINE
  5
19827
  8
0
  6
CONTINUOUS
 62
     3
 10
73.3000000000001251
 20
-118.0998957656648969
 30
0.0000000000000262
 11
75.7000000000001592
 21
-120.4998957656649026
 31
0.0000000000000268
210
0.0
220
1.0
230
-0.0000000000000002
  0
LINE
  5
19828
  8
0
  6
CONTINUOUS
 62
     3
 10
-73.2999999999998977
 20
-118.0998957656648969
 30
0.0000000000000262
 11
-75.6999999999999318
 21
-120.4998957656649026
 31
0.0000000000000268
210
0.0
220
1.0
230
-0.0000000000000002
  0
LINE
  5
19829
  8
0
  6
CONTINUOUS
 62
     3
 10
75.7000000000001592
 20
-120.4998957656649026
 30
0.0000000000000268
 11
75.7000000000001592
 21
-121.4998957656649026
 31
0.000000000000027
210
0.0
220
1.0
230
-0.0000000000000002
  0
LINE
  5
1982A
  8
0
  6
CONTINUOUS
 62
     3
 10
-75.6999999999999318
 20
-120.4998957656649026
 30
0.0000000000000268
 11
-75.6999999999999318
 21
-121.4998957656649026
 31
0.000000000000027
210
0.0
220
1.0
230
-0.0000000000000002
  0
LINE
  5
1982B
  8
0
  6
CONTINUOUS
 62
     3
 10
-73.4999999999998863
 20
-123.6998957656649054
 30
0.0000000000000275
 11
-75.6999999999999318
 21
-121.4998957656649026
 31
0.000000000000027
210
0.0
220
1.0
230
-0.0000000000000002
  0
LINE
  5
1982C
  8
0
  6
CONTINUOUS
 62
     3
 10
73.5000000000001137
 20
-123.6998957656649054
 30
0.0000000000000275
 11
75.7000000000001592
 21
-121.4998957656649026
 31
0.000000000000027
210
0.0
220
1.0
230
-0.0000000000000002
  0
LINE
  5
1982D
  8
0
  6
CONTINUOUS
 62
     3
 10
73.5000000000001137
 20
-123.6998957656649054
 30
0.0000000000000275
 11
73.5000000000001137
 21
-126.1893839890133933
 31
0.000000000000028
210
0.0
220
1.0
230
-0.0000000000000002
  0
LINE
  5
1982E
  8
0
  6
CONTINUOUS
 62
     3
 10
-73.4999999999998863
 20
-123.6998957656649054
 30
0.0000000000000275
 11
-73.4999999999998863
 21
-126.1893839890133933
 31
0.000000000000028
210
0.0
220
1.0
230
-0.0000000000000002
  0
LINE
  5
1982F
  8
0
  6
CONTINUOUS
 62
     3
 10
73.5000000000001137
 20
-126.1893839890133933
 30
0.000000000000028
 11
75.7000000000001592
 21
-129.9998957656648884
 31
0.0000000000000289
210
0.0
220
1.0
230
-0.0000000000000002
  0
LINE
  5
19830
  8
0
  6
CONTINUOUS
 62
     3
 10
-73.4999999999998863
 20
-126.1893839890133933
 30
0.000000000000028
 11
-75.6999999999999318
 21
-129.9998957656648884
 31
0.0000000000000289
210
0.0
220
1.0
230
-0.0000000000000002
  0
ARC
  5
19831
  8
0
  6
CONTINUOUS
 62
     3
 10
64.4999999999998721
 20
-124.9998957656653005
 30
0.0
 40
5.9999999999996021
210
0.0
220
-0.0000000000000002
230
-1.0
 50
270.0
 51
303.5573097619227951
  0
ARC
  5
19832
  8
0
  6
CONTINUOUS
 62
     3
 10
-64.5000000000000853
 20
-124.9998957656653005
 30
0.0
 40
5.9999999999996012
210
0.0
220
-0.0000000000000002
230
-1.0
 50
236.4426902380781996
 51
270.0000000000009095
  0
ARC
  5
19833
  8
0
  6
CONTINUOUS
 62
     3
 10
71.4758400866409005
 20
-102.7998957656649992
 30
0.0
 40
2.8000000000000589
210
0.0
220
-0.0000000000000002
230
-1.0
 50
15.0000000000007798
 51
89.5056149120647575
  0
ARC
  5
19834
  8
0
  6
CONTINUOUS
 62
     3
 10
-71.4758400866411279
 20
-102.7998957656649992
 30
0.0
 40
2.8000000000000571
210
0.0
220
-0.0000000000000002
230
-1.0
 50
90.4943850879352141
 51
164.9999999999992042
  0
LINE
  5
19835
  8
0
  6
CONTINUOUS
 62
     3
 10
74.180432400250524
 20
-102.0752024393779038
 30
0.0000000000000227
 11
75.5000000000001137
 21
-106.9998957656649026
 31
0.0000000000000238
210
0.0
220
1.0
230
-0.0000000000000002
  0
LINE
  5
19836
  8
0
  6
CONTINUOUS
 62
     3
 10
-74.1804324002503108
 20
-102.0752024393779038
 30
0.0000000000000227
 11
-75.4999999999998863
 21
-106.9998957656649026
 31
0.0000000000000238
210
0.0
220
1.0
230
-0.0000000000000002
  0
LINE
  5
19837
  8
0
  6
VERDECKT
 62
     1
 10
-63.7099256195316528
 20
0.1990074380465501
 30
0.0
 11
63.7099256195318731
 21
0.1990074380465501
 31
0.0
210
0.0
220
1.0
230
-0.0000000000000002
  0
ARC
  5
19838
  8
0
  6
VERDECKT
 62
     1
 10
63.4999999999801901
 20
8.1496268636070361
 30
0.0
 40
0.9999999999954383
210
0.0
220
-0.0000000000000002
230
-1.0
 50
354.289406862484725
 51
0.0000000000115009
  0
ARC
  5
19839
  8
0
  6
VERDECKT
 62
     1
 10
-63.4999999999804672
 20
8.1496268636070361
 30
0.0
 40
0.9999999999953814
210
0.0
220
-0.0000000000000002
230
-1.0
 50
179.9999999999884039
 51
185.7105931375153887
  0
LINE
  5
1983A
  8
0
  6
VERDECKT
 62
     1
 10
-63.7099256195316528
 20
0.1990074380465443
 30
0.0
 11
-64.495037190185613
 21
8.0501231445862196
 31
-0.0000000000000018
210
0.0
220
1.0
230
-0.0000000000000002
  0
LINE
  5
1983B
  8
0
  6
VERDECKT
 62
     1
 10
63.7099256195318802
 20
0.1990074380465475
 30
0.0
 11
64.4950371901858404
 21
8.0501231445862231
 31
-0.0000000000000018
210
0.0
220
1.0
230
-0.0000000000000002
  0
LINE
  5
1983C
  8
0
  6
VERDECKT
 62
     1
 10
63.7099256195318588
 20
0.1990074380465372
 30
0.0
 11
65.7000000000001165
 21
-0.0000000000002885
 31
0.0
210
0.0
220
1.0
230
-0.0000000000000002
  0
LINE
  5
1983D
  8
0
  6
VERDECKT
 62
     1
 10
-63.7099256195316528
 20
0.1990074380465278
 30
0.0
 11
-65.6999999999998892
 21
-0.0000000000002968
 31
0.0
210
0.0
220
1.0
230
-0.0000000000000002
  0
LINE
  5
1983E
  8
0
  6
VERDECKT
 62
     1
 10
64.4999999999758558
 20
234.999999999999801
 30
-0.0000000000000522
 11
64.4999999999758558
 21
8.1496268636072404
 31
-0.0000000000000018
210
0.0
220
1.0
230
-0.0000000000000002
  0
LINE
  5
1983F
  8
0
  6
VERDECKT
 62
     1
 10
-64.4999999999756284
 20
234.999999999999801
 30
-0.0000000000000522
 11
-64.4999999999756142
 21
8.1496268636072404
 31
-0.0000000000000018
210
0.0
220
1.0
230
-0.0000000000000002
  0
ARC
  5
19840
  8
0
  6
VERDECKT
 62
     1
 10
42.0000000000001421
 20
259.9999999999997158
 30
0.0
 40
29.9999999999997407
210
0.0
220
-0.0000000000000002
230
-1.0
 50
338.6325470100903203
 51
0.0000000000001145
  0
ARC
  5
19841
  8
0
  6
VERDECKT
 62
     1
 10
-42.0000000000000284
 20
259.9999999999997158
 30
0.0
 40
30.0000000000000711
210
0.0
220
-0.0000000000000002
230
-1.0
 50
179.9999999999998863
 51
201.3674529899093102
  0
LINE
  5
19842
  8
0
  6
VERDECKT
 62
     1
 10
-69.5194308710116502
 20
247.999999999999801
 30
-0.0000000000000551
 11
-69.9378880439464439
 21
249.0695648922875876
 31
-0.0000000000000553
210
0.0
220
1.0
230
-0.0000000000000002
  0
LINE
  5
19843
  8
0
  6
VERDECKT
 62
     1
 10
69.5194308710118634
 20
247.999999999999801
 30
-0.0000000000000551
 11
69.9378880439466712
 21
249.0695648922875876
 31
-0.0000000000000553
210
0.0
220
1.0
230
-0.0000000000000002
  0
ARC
  5
19844
  8
0
  6
VERDECKT
 62
     1
 10
94.4999999999996021
 20
234.9999999999998863
 30
0.0
 40
29.9999999999997087
210
0.0
220
-0.0000000000000002
230
-1.0
 50
158.6325470100902066
 51
180.0000000000001137
  0
ARC
  5
19845
  8
0
  6
VERDECKT
 62
     1
 10
-94.4999999999998579
 20
234.9999999999998863
 30
0.0
 40
29.99999999999973
210
0.0
220
-0.0000000000000002
230
-1.0
 50
359.9999999999997158
 51
21.3674529899095411
  0
LINE
  5
19846
  8
0
  6
VERDECKT
 62
     1
 10
-66.5621119560533288
 20
245.9304351077119861
 30
-0.0000000000000546
 11
-68.075362174350019
 21
249.7982605661350988
 31
-0.0000000000000555
210
0.0
220
1.0
230
-0.0000000000000002
  0
LINE
  5
19847
  8
0
  6
VERDECKT
 62
     1
 10
66.5621119560535561
 20
245.9304351077119861
 30
-0.0000000000000546
 11
68.0753621743502464
 21
249.7982605661350988
 31
-0.0000000000000555
210
0.0
220
1.0
230
-0.0000000000000002
  0
ARC
  5
19848
  8
0
  6
VERDECKT
 62
     1
 10
41.9999999999995524
 20
259.9999999999997726
 30
0.0
 40
28.0000000000003411
210
0.0
220
-0.0000000000000002
230
-1.0
 50
338.6325470100907182
 51
359.9999999999998863
  0
ARC
  5
19849
  8
0
  6
VERDECKT
 62
     1
 10
-42.0000000000001634
 20
259.9999999999997726
 30
0.0
 40
27.9999999999999396
210
0.0
220
-0.0000000000000002
230
-1.0
 50
180.0
 51
201.3674529899095091
  0
LINE
  5
1984A
  8
0
  6
VERDECKT
 62
     1
 10
70.0000000000001137
 20
269.9999999999997726
 30
-0.00000000000006
 11
70.0000000000001137
 21
259.9999999999997726
 31
-0.0000000000000577
210
0.0
220
1.0
230
-0.0000000000000002
  0
LINE
  5
1984B
  8
0
  6
VERDECKT
 62
     1
 10
-69.9999999999998863
 20
269.9999999999997726
 30
-0.00000000000006
 11
-69.9999999999998863
 21
259.9999999999997726
 31
-0.0000000000000577
210
0.0
220
1.0
230
-0.0000000000000002
  0
LINE
  5
1984C
  8
0
  6
VERDECKT
 62
     1
 10
72.0000000000486153
 20
267.9999999999997726
 30
-0.0000000000000595
 11
72.0000000000486153
 21
259.9999999999997726
 31
-0.0000000000000577
210
0.0
220
1.0
230
-0.0000000000000002
  0
LINE
  5
1984D
  8
0
  6
VERDECKT
 62
     1
 10
-72.0000000000483737
 20
267.9999999999997726
 30
-0.0000000000000595
 11
-72.0000000000483737
 21
259.9999999999997726
 31
-0.0000000000000577
210
0.0
220
1.0
230
-0.0000000000000002
  0
LINE
  5
1984E
  8
0
  6
VERDECKT
 62
     1
 10
-70.2499999999998863
 20
248.5920728806472937
 30
-0.0000000000000552
 11
70.2500000000001137
 21
248.5920728806472937
 31
-0.0000000000000552
210
0.0
220
1.0
230
-0.0000000000000002
  0
LINE
  5
1984F
  8
0
  6
VERDECKT
 62
     1
 10
70.2500000000001137
 20
248.5920728806474074
 30
-0.0000000000000552
 11
72.1603532929806732
 21
247.999999999999801
 31
-0.0000000000000551
210
0.0
220
1.0
230
-0.0000000000000002
  0
LINE
  5
19850
  8
0
  6
VERDECKT
 62
     1
 10
-70.2499999999999005
 20
248.5920728806474074
 30
-0.0000000000000552
 11
-72.1603532929804459
 21
247.999999999999801
 31
-0.0000000000000551
210
0.0
220
1.0
230
-0.0000000000000002
  0
LINE
  5
19851
  8
0
  6
VERDECKT
 62
     1
 10
-70.2499999999998863
 20
248.5920728806472937
 30
-0.0000000000000552
 11
-71.8485967777483836
 21
253.7500267716949054
 31
-0.0000000000000563
210
0.0
220
1.0
230
-0.0000000000000002
  0
LINE
  5
19852
  8
0
  6
VERDECKT
 62
     1
 10
70.2500000000001137
 20
248.5920728806472937
 30
-0.0000000000000552
 11
71.848596777748611
 21
253.7500267716949054
 31
-0.0000000000000563
210
0.0
220
1.0
230
-0.0000000000000002
  0
ARC
  5
19853
  8
0
  6
VERDECKT
 62
     1
 10
57.9673251498188122
 20
258.0522281027256781
 30
0.0
 40
14.5326748501810705
210
0.0
220
-0.0000000000000002
230
-1.0
 50
342.7803027270542771
 51
12.8280495223831199
  0
ARC
  5
19854
  8
0
  6
VERDECKT
 62
     1
 10
-57.9673251498190396
 20
258.0522281027256781
 30
0.0
 40
14.5326748501810705
210
0.0
220
-0.0000000000000002
230
-1.0
 50
167.1719504776168037
 51
197.2196972729456945
  0
ARC
  5
19855
  8
0
  6
VERDECKT
 62
     1
 10
77.4999999999998863
 20
262.4999999999997726
 30
0.0
 40
5.5
210
0.0
220
-0.0000000000000002
230
-1.0
 50
90.0
 51
192.8280495223827131
  0
ARC
  5
19856
  8
0
  6
VERDECKT
 62
     1
 10
-77.5000000000001137
 20
262.4999999999997726
 30
0.0
 40
5.5000000000000107
210
0.0
220
-0.0000000000000002
230
-1.0
 50
347.1719504776173153
 51
90.0000000000000284
  0
LINE
  5
19857
  8
0
  6
VERDECKT
 62
     1
 10
-70.6999999999999318
 20
-126.9998957656649026
 30
0.0000000000000282
 11
70.7000000000001592
 21
-126.9998957656649026
 31
0.0000000000000282
210
0.0
220
1.0
230
-0.0000000000000002
  0
LINE
  5
19858
  8
0
  6
VERDECKT
 62
     1
 10
-61.4999999999998792
 20
-128.9998957656648884
 30
0.0000000000000286
 11
61.5000000000001066
 21
-128.9998957656648884
 31
0.0000000000000286
210
0.0
220
1.0
230
-0.0000000000000002
  0
LINE
  5
19859
  8
0
  6
VERDECKT
 62
     1
 10
70.7000000000001592
 20
-126.9998957656649026
 30
0.0000000000000282
 11
73.7000000000001592
 21
-129.9998957656648884
 31
0.0000000000000289
210
0.0
220
1.0
230
-0.0000000000000002
  0
LINE
  5
1985A
  8
0
  6
VERDECKT
 62
     1
 10
-70.6999999999999318
 20
-126.9998957656649026
 30
0.0000000000000282
 11
-73.6999999999999318
 21
-129.9998957656648884
 31
0.0000000000000289
210
0.0
220
1.0
230
-0.0000000000000002
  0
ARC
  5
1985B
  8
0
  6
VERDECKT
 62
     1
 10
64.4999999999997584
 20
-124.999895765665002
 30
0.0
 40
5.9999999999999121
210
0.0
220
-0.0000000000000002
230
-1.0
 50
303.5573097619212035
 51
340.5287793655102178
  0
ARC
  5
1985C
  8
0
  6
VERDECKT
 62
     1
 10
-64.4999999999999432
 20
-124.9998957656649026
 30
0.0
 40
5.9999999999999742
210
0.0
220
-0.0000000000000002
230
-1.0
 50
199.4712206344898959
 51
236.4426902380785975
  0
LINE
  5
1985D
  8
0
  6
VERDECKT
 62
     1
 10
61.5000000000001066
 20
-128.9998957656648884
 30
0.0000000000000286
 11
61.5000000000001066
 21
-130.9998957656648884
 31
0.0000000000000291
210
0.0
220
1.0
230
-0.0000000000000002
  0
LINE
  5
1985E
  8
0
  6
VERDECKT
 62
     1
 10
-61.4999999999998792
 20
-128.9998957656648884
 30
0.0000000000000286
 11
-61.4999999999998792
 21
-130.9998957656648884
 31
0.0000000000000291
210
0.0
220
1.0
230
-0.0000000000000002
  0
ARC
  5
1985F
  8
0
  6
VERDECKT
 62
     1
 10
61.4999999999999076
 20
-122.9998957656649026
 30
0.0
 40
5.9999999999999707
210
0.0
220
-0.0000000000000002
230
-1.0
 50
270.0
 51
0.0000000000005471
  0
ARC
  5
19860
  8
0
  6
VERDECKT
 62
     1
 10
-61.5000000000001421
 20
-122.9998957656649026
 30
0.0
 40
5.9999999999999707
210
0.0
220
-0.0000000000000002
230
-1.0
 50
179.9999999999996874
 51
270.0000000000002274
  0
LINE
  5
19861
  8
0
  6
VERDECKT
 62
     1
 10
67.5000000000001137
 20
-106.9998957656649026
 30
0.0000000000000238
 11
67.5000000000001137
 21
-122.9998957656649026
 31
0.0000000000000273
210
0.0
220
1.0
230
-0.0000000000000002
  0
LINE
  5
19862
  8
0
  6
VERDECKT
 62
     1
 10
-67.4999999999998863
 20
-106.9998957656649026
 30
0.0000000000000238
 11
-67.4999999999998863
 21
-122.9998957656649026
 31
0.0000000000000273
210
0.0
220
1.0
230
-0.0000000000000002
  0
LINE
  5
19863
  8
0
  6
VERDECKT
 62
     1
 10
-67.4999999999999005
 20
-106.9998957656649026
 30
0.0000000000000238
 11
-68.819567599749405
 21
-102.0752024393779038
 31
0.0000000000000227
210
0.0
220
1.0
230
-0.0000000000000002
  0
LINE
  5
19864
  8
0
  6
VERDECKT
 62
     1
 10
67.5000000000001279
 20
-106.9998957656649026
 30
0.0000000000000238
 11
68.8195675997496323
 21
-102.0752024393779038
 31
0.0000000000000227
210
0.0
220
1.0
230
-0.0000000000000002
  0
ARC
  5
19865
  8
0
  6
VERDECKT
 62
     1
 10
71.5241599133588153
 20
-102.7998957656648997
 30
0.0
 40
2.8000000000000269
210
0.0
220
-0.0000000000000002
230
-1.0
 50
90.4943850879311782
 51
165.0
  0
ARC
  5
19866
  8
0
  6
VERDECKT
 62
     1
 10
-71.524159913359
 20
-102.7998957656648997
 30
0.0
 40
2.7999999999999741
210
0.0
220
-0.0000000000000002
230
-1.0
 50
14.9999999999988205
 51
89.5056149120696745
  0
ENDBLK
  5
19868
  8
0
  0
ENDSEC
  0
SECTION
  2
ENTITIES
  0
TEXT
  5
416B
  8
VOLL
 10
441.2467849443549994
 20
195.2108867802037935
 30
0.0
 40
1.8
  1

  7
GREEKS
  0
INSERT
  5
46F1
  8
ADSK_ASSOC_ENTITY_BACKUPS
  2
*S0
 10
0.0
 20
0.0
 30
0.0
  0
INSERT
  5
197F6
  8
STEMPEL
  2
A$C282E8AB4
 10
0.0
 20
-330.9998957656649168
 30
0.0000000000000291
  0
INSERT
  5
19869
  8
STEMPEL
  2
A$CE94EF3CB
 10
0.0
 20
0.0
 30
0.0
  0
VIEWPORT
  5
46D0
 67
     1
  8
0
 10
145.4877850092773031
 20
205.712116492919904
 30
0.0
 40
798.1701256077442395
 41
426.3698209718668863
 68
     1
 69
     1
1001
ACAD
1000
MVIEW
1002
{
1070
    16
1010
0.0
1020
0.0
1030
0.0
1010
0.0
1020
0.0
1030
1.0
1040
0.0
1040
426.3698209718668863
1040
145.4877850092773031
1040
205.712116492919904
1040
50.0
1040
0.0
1040
0.0
1070
     0
1070
  1500
1070
     1
1070
     1
1070
     0
1070
     0
1070
     0
1070
     0
1040
0.0
1040
0.0
1040
0.0
1040
10.0
1040
10.0
1040
10.0
1040
10.0
1070
     0
1002
{
1002
}
1002
}
  0
ENDSEC
  0
EOF
