  0
SECTION
  2
HEADER
  9
$ACADVER
  1
AC1009
  9
$INSBASE
 10
0.0
 20
0.0
 30
0.0
  9
$EXTMIN
 10
-122.5165545230460964
 20
-422.0292726672827825
 30
-0.0098928984834856
  9
$EXTMAX
 10
122.5090798962733061
 20
270.0247128999615143
 30
0.0166417308346354
  9
$LIMMIN
 10
0.0
 20
0.0
  9
$LIMMAX
 10
419.9999999999998863
 20
594.0
  9
$ORTHOMODE
 70
     1
  9
$REGENMODE
 70
     1
  9
$FILLMODE
 70
     1
  9
$QTEXTMODE
 70
     0
  9
$MIRRTEXT
 70
     1
  9
$DRAGMODE
 70
     2
  9
$LTSCALE
 40
10.0
  9
$OSMODE
 70
   511
  9
$ATTMODE
 70
     1
  9
$TEXTSIZE
 40
3.5
  9
$TRACEWID
 40
1.0
  9
$TEXTSTYLE
  7
STANDARD
  9
$CLAYER
  8
STEMPEL
  9
$CELTYPE
  6
BYLAYER
  9
$CECOLOR
 62
   256
  9
$DIMSCALE
 40
1.0
  9
$DIMASZ
 40
3.5
  9
$DIMEXO
 40
1.0
  9
$DIMDLI
 40
0.38
  9
$DIMRND
 40
0.0
  9
$DIMDLE
 40
0.0
  9
$DIMEXE
 40
1.0
  9
$DIMTP
 40
0.0
  9
$DIMTM
 40
0.000000001
  9
$DIMTXT
 40
3.5
  9
$DIMCEN
 40
0.09
  9
$DIMTSZ
 40
0.0
  9
$DIMTOL
 70
     0
  9
$DIMLIM
 70
     0
  9
$DIMTIH
 70
     0
  9
$DIMTOH
 70
     0
  9
$DIMSE1
 70
     0
  9
$DIMSE2
 70
     0
  9
$DIMTAD
 70
     1
  9
$DIMZIN
 70
     8
  9
$DIMBLK
  1

  9
$DIMASO
 70
     1
  9
$DIMSHO
 70
     0
  9
$DIMPOST
  1

  9
$DIMAPOST
  1

  9
$DIMALT
 70
     0
  9
$DIMALTD
 70
     2
  9
$DIMALTF
 40
25.3999999999999986
  9
$DIMLFAC
 40
2.0
  9
$DIMTOFL
 70
     1
  9
$DIMTVP
 40
0.0
  9
$DIMTIX
 70
     0
  9
$DIMSOXD
 70
     0
  9
$DIMSAH
 70
     0
  9
$DIMBLK1
  1

  9
$DIMBLK2
  1

  9
$DIMSTYLE
  2
LORO
  9
$DIMCLRD
 70
     0
  9
$DIMCLRE
 70
     0
  9
$DIMCLRT
 70
     1
  9
$DIMTFAC
 40
0.5
  9
$DIMGAP
 40
1.5
  9
$LUNITS
 70
     2
  9
$LUPREC
 70
     2
  9
$SKETCHINC
 40
1.0
  9
$FILLETRAD
 40
2.0
  9
$AUNITS
 70
     0
  9
$AUPREC
 70
     0
  9
$MENU
  1
ACAD
  9
$ELEVATION
 40
0.0
  9
$PELEVATION
 40
0.0
  9
$THICKNESS
 40
0.0
  9
$LIMCHECK
 70
     0
  9
$BLIPMODE
 70
     0
  9
$CHAMFERA
 40
0.0
  9
$CHAMFERB
 40
0.0
  9
$SKPOLY
 70
     0
  9
$TDCREATE
 40
2455397.867048610933125
  9
$TDUPDATE
 40
2459710.6208564820699394
  9
$TDINDWG
 40
0.4829337153
  9
$TDUSRTIMER
 40
0.4829337153
  9
$USRTIMER
 70
     1
  9
$ANGBASE
 50
0.0
  9
$ANGDIR
 70
     0
  9
$PDMODE
 70
     0
  9
$PDSIZE
 40
0.0
  9
$PLINEWID
 40
0.0
  9
$COORDS
 70
     1
  9
$SPLFRAME
 70
     0
  9
$SPLINETYPE
 70
     6
  9
$SPLINESEGS
 70
     8
  9
$ATTDIA
 70
     1
  9
$ATTREQ
 70
     1
  9
$HANDLING
 70
     1
  9
$HANDSEED
  5
3273
  9
$SURFTAB1
 70
     6
  9
$SURFTAB2
 70
     6
  9
$SURFTYPE
 70
     6
  9
$SURFU
 70
     6
  9
$SURFV
 70
     6
  9
$UCSNAME
  2

  9
$UCSORG
 10
0.0
 20
0.0
 30
0.0
  9
$UCSXDIR
 10
1.0
 20
0.0
 30
0.0
  9
$UCSYDIR
 10
0.0
 20
1.0
 30
0.0
  9
$PUCSNAME
  2

  9
$PUCSORG
 10
0.0
 20
0.0
 30
0.0
  9
$PUCSXDIR
 10
1.0
 20
0.0
 30
0.0
  9
$PUCSYDIR
 10
0.0
 20
1.0
 30
0.0
  9
$USERI1
 70
     0
  9
$USERI2
 70
     0
  9
$USERI3
 70
     0
  9
$USERI4
 70
     0
  9
$USERI5
 70
     0
  9
$USERR1
 40
0.0
  9
$USERR2
 40
0.0
  9
$USERR3
 40
0.0
  9
$USERR4
 40
0.0
  9
$USERR5
 40
0.0
  9
$WORLDVIEW
 70
     1
  9
$SHADEDGE
 70
     3
  9
$SHADEDIF
 70
    70
  9
$TILEMODE
 70
     1
  9
$MAXACTVP
 70
    16
  9
$PLIMCHECK
 70
     0
  9
$PEXTMIN
 10
1.0000000000000000E+20
 20
1.0000000000000000E+20
 30
1.0000000000000000E+20
  9
$PEXTMAX
 10
-1.0000000000000000E+20
 20
-1.0000000000000000E+20
 30
-1.0000000000000000E+20
  9
$PLIMMIN
 10
-3.0123733769531489
 20
-4.2878284228516073
  9
$PLIMMAX
 10
293.9876266230468218
 20
415.7121715771482968
  9
$UNITMODE
 70
     0
  9
$VISRETAIN
 70
     0
  9
$PLINEGEN
 70
     0
  9
$PSLTSCALE
 70
     0
  0
ENDSEC
  0
SECTION
  2
TABLES
  0
TABLE
  2
VPORT
 70
     1
  0
VPORT
  2
*ACTIVE
 70
     0
 10
0.0
 20
0.0
 11
1.0
 21
1.0
 12
-0.0037373133864094
 22
-149.7565523445981057
 13
0.0
 23
0.0
 14
1.0
 24
1.0
 15
10.0
 25
10.0
 16
-0.0000000000002646
 26
0.0
 36
1191.6943971853420408
 17
0.0
 27
73.7542724609375
 37
-0.0000000000000214
 40
695.5939036519871479
 41
1.8720136518771331
 42
50.0
 43
0.0
 44
0.0
 50
0.0
 51
0.0
 71
     0
 72
  1500
 73
     1
 74
     0
 75
     0
 76
     0
 77
     0
 78
     0
  0
ENDTAB
  0
TABLE
  2
LTYPE
 70
     3
  0
LTYPE
  2
CONTINUOUS
 70
     0
  3
Solid line
 72
    65
 73
     0
 40
0.0
  0
LTYPE
  2
STRICHPUNKT
 70
     0
  3
__ . __ . __ . __ . __ . __ . __ . __ . __ . __
 72
    65
 73
     4
 40
1.0
 49
0.5
 49
-0.25
 49
0.0
 49
-0.25
  0
LTYPE
  2
VERDECKT
 70
     0
  3
Verdeckt __ __ __ __ __ __ __ __ __ __ __ __ __
 72
    65
 73
     2
 40
0.375
 49
0.25
 49
-0.125
  0
ENDTAB
  0
TABLE
  2
LAYER
 70
     9
  0
LAYER
  2
0
 70
     0
 62
     7
  6
CONTINUOUS
  0
LAYER
  2
VOLL
 70
     0
 62
     1
  6
CONTINUOUS
  0
LAYER
  2
BEM
 70
     0
 62
     7
  6
CONTINUOUS
  0
LAYER
  2
STEMPEL
 70
     0
 62
     3
  6
CONTINUOUS
  0
LAYER
  2
TEXT
 70
     0
 62
     7
  6
CONTINUOUS
  0
LAYER
  2
DEFPOINTS
 70
     0
 62
     7
  6
CONTINUOUS
  0
LAYER
  2
ADSK_ASSOC_ENTITY_BACKUPS
 70
     1
 62
    -7
  6
CONTINUOUS
  0
ENDTAB
  0
TABLE
  2
STYLE
 70
     3
  0
STYLE
  2
STANDARD
 70
     0
 40
0.0
 41
0.8
 50
0.0
 71
     0
 42
3.5
  3
simplex.shx
  4

  0
STYLE
  2
GREEKS
 70
     0
 40
0.0
 41
0.8
 50
0.0
 71
     0
 42
2.5
  3
SIMPLEX.shx
  4

  0
ENDTAB
  0
TABLE
  2
VIEW
 70
     0
  0
ENDTAB
  0
TABLE
  2
UCS
 70
     0
  0
ENDTAB
  0
TABLE
  2
APPID
 70
    21
  0
APPID
  2
ACAD
 70
     0
  0
APPID
  2
ACAECLAYERSTANDARD
 70
     0
  0
APPID
  2
ACCMTRANSPARENCY
 70
     0
  0
APPID
  2
ACAD_NAV_VCDISPLAY
 70
     0
  0
APPID
  2
ACAD_PSEXT
 70
     0
  0
APPID
  2
ACAD_EXEMPT_FROM_CAD_STANDARDS
 70
     0
  0
APPID
  2
ACSYNERGY
 70
     0
  0
APPID
  2
SYNERGY_BODY_TBR_ID
 70
     0
  0
APPID
  2
ACAD_VIEW_EDGE_ID
 70
     0
  0
APPID
  2
ACSYNERGYSKETCH
 70
     0
  0
APPID
  2
ACAD_MODELDOC_XFORM
 70
     0
  0
APPID
  2
ACAD_MLEADERVER
 70
     0
  0
APPID
  2
ACADANNOMONITORALERTICONDI
 70
     0
  0
APPID
  2
ACAD_DSTYLE_DIMJAG
 70
     0
  0
APPID
  2
ACAD_DSTYLE_DIMTALN
 70
     0
  0
APPID
  2
ACDBDYNAMICBLOCKGUID
 70
     0
  0
APPID
  2
ACADANNOPO
 70
     0
  0
APPID
  2
ACADANNOAV
 70
     0
  0
APPID
  2
ACAD_STEPID
 70
     0
  0
APPID
  2
ACAD_TC
 70
     0
  0
APPID
  2
ACAD_DSTYLE_DIMBREAK
 70
     0
  0
ENDTAB
  0
TABLE
  2
DIMSTYLE
 70
     2
  0
DIMSTYLE
  2
STANDARD
 70
     0
  3

  4

  5

  6

  7

 40
1.0
 41
0.18
 42
0.0625
 43
0.38
 44
0.18
 45
0.0
 46
0.0
 47
0.0
 48
0.0
140
0.18
141
0.09
142
0.0
143
25.3999999999999986
144
1.0
145
0.0
146
1.0
147
0.09
 71
     0
 72
     0
 73
     1
 74
     1
 75
     0
 76
     0
 77
     0
 78
     0
170
     0
171
     2
172
     0
173
     0
174
     0
175
     0
176
     0
177
     0
178
     0
  0
DIMSTYLE
  2
LORO
 70
     0
  3

  4

  5

  6

  7

 40
1.0
 41
3.5
 42
1.0
 43
0.38
 44
1.0
 45
0.0
 46
0.0
 47
0.0
 48
0.000000001
140
3.5
141
0.09
142
0.0
143
25.3999999999999986
144
2.0
145
0.0
146
0.5
147
1.5
 71
     0
 72
     0
 73
     0
 74
     0
 75
     0
 76
     0
 77
     1
 78
     8
170
     0
171
     2
172
     1
173
     0
174
     0
175
     0
176
     0
177
     0
178
     1
  0
ENDTAB
  0
ENDSEC
  0
SECTION
  2
BLOCKS
  0
BLOCK
  8
0
  2
$MODEL_SPACE
 70
     0
 10
0.0
 20
0.0
 30
0.0
  3
$MODEL_SPACE
  1

  0
ENDBLK
  5
38
  8
0
  0
BLOCK
 67
     1
  8
0
  2
$PAPER_SPACE
 70
     0
 10
0.0
 20
0.0
 30
0.0
  3
$PAPER_SPACE
  1

  0
ENDBLK
  5
36
 67
     1
  8
0
  0
BLOCK
  8
0
  2
*S0
 70
     1
 10
0.0
 20
0.0
 30
0.0
  3
*S0
  1

  0
ENDBLK
  5
ACE
  8
0
  0
BLOCK
  8
0
  2
_NONE
 70
     0
 10
0.0
 20
0.0
 30
0.0
  3
_NONE
  1

  0
ENDBLK
  5
158A
  8
0
  0
BLOCK
  8
0
  2
A$CBF684EDF
 70
     0
 10
0.0
 20
0.0
 30
0.0
  3
A$CBF684EDF
  1

  0
CIRCLE
  5
31A3
  8
0
  6
CONTINUOUS
 62
     3
 10
0.0000000000000401
 20
0.0016575748095102
 30
0.0
 40
47.5
  0
CIRCLE
  5
31A4
  8
0
  6
CONTINUOUS
 62
     3
 10
-0.0000000000002274
 20
0.0000000000000142
 30
0.0
 40
49.2074442146850117
  0
CIRCLE
  5
31A5
  8
0
  6
CONTINUOUS
 62
     3
 10
-0.0000000000001766
 20
0.0000000000000167
 30
0.0
 40
50.0
  0
CIRCLE
  5
31A6
  8
0
  6
CONTINUOUS
 62
     3
 10
-0.0000000000001719
 20
0.0000000000000185
 30
0.0
 40
59.0
  0
CIRCLE
  5
31A7
  8
0
  6
CONTINUOUS
 62
     3
 10
-0.0000000000001719
 20
0.0000000000000185
 30
0.0
 40
60.5
  0
CIRCLE
  5
31A8
  8
0
  6
CONTINUOUS
 62
     3
 10
-0.0000000000001679
 20
-0.0000000000000142
 30
0.0
 40
122.5
  0
CIRCLE
  5
31A9
  8
0
  6
VERDECKT
 62
     1
 10
0.0000000000000435
 20
0.0016575748095112
 30
0.0
 40
51.8000000000000114
  0
CIRCLE
  5
31AA
  8
0
  6
VERDECKT
 62
     1
 10
-0.0000000000000147
 20
-0.0000000000000006
 30
0.0
 40
57.75
  0
CIRCLE
  5
31AB
  8
0
  6
VERDECKT
 62
     1
 10
-0.0000000000000157
 20
-0.0000000000000009
 30
0.0
 40
57.1171444324796695
  0
CIRCLE
  5
31AC
  8
0
  6
VERDECKT
 62
     1
 10
-0.0000000000000167
 20
-0.0000000000000011
 30
0.0
 40
60.0
  0
CIRCLE
  5
31AD
  8
0
  6
VERDECKT
 62
     1
 10
-0.0000000000000167
 20
-0.0000000000000011
 30
0.0
 40
58.0
  0
CIRCLE
  5
31AE
  8
0
  6
VERDECKT
 62
     1
 10
-0.0000000000000162
 20
-0.000000000000001
 30
0.0
 40
56.5995849235806077
  0
CIRCLE
  5
31AF
  8
0
  6
VERDECKT
 62
     1
 10
-0.0000000000000162
 20
-0.000000000000001
 30
0.0
 40
54.3989794855663717
  0
CIRCLE
  5
31B0
  8
0
  6
VERDECKT
 62
     1
 10
-0.0000000000000127
 20
0.0
 30
0.0
 40
59.5
  0
CIRCLE
  5
31B1
  8
0
  6
VERDECKT
 62
     1
 10
-0.0000000000000128
 20
0.0
 30
0.0
 40
54.8394515204001891
  0
CIRCLE
  5
31B2
  8
0
  6
VERDECKT
 62
     1
 10
-0.0000000000001766
 20
0.0000000000000167
 30
0.0
 40
51.4999999999999929
  0
CIRCLE
  5
31B3
  8
0
  6
VERDECKT
 62
     1
 10
-0.0000000000002274
 20
0.0000000000000142
 30
0.0
 40
50.7000000000000028
  0
CIRCLE
  5
31B4
  8
0
  6
VERDECKT
 62
     1
 10
-0.0000000000001705
 20
-0.0000000000000221
 30
0.0
 40
59.4027289799050706
  0
CIRCLE
  5
31B5
  8
0
  6
VERDECKT
 62
     1
 10
-0.0000000000001708
 20
-0.0000000000000223
 30
0.0
 40
61.0
  0
ENDBLK
  5
31B7
  8
0
  0
BLOCK
  8
0
  2
A$C5FD7A949
 70
     0
 10
0.0
 20
0.0
 30
0.0
  3
A$C5FD7A949
  1

  0
LINE
  5
31BB
  8
0
  6
CONTINUOUS
 62
     3
 10
-55.6090464708852323
 20
-49.9999999999999005
 30
0.0000000000000111
 11
55.6090464708852323
 21
-49.9999999999999005
 31
0.0000000000000111
210
0.0
220
1.0
230
-0.0000000000000002
  0
LINE
  5
31BC
  8
0
  6
CONTINUOUS
 62
     3
 10
-57.75
 20
-65.9999999999999858
 30
0.0000000000000147
 11
57.75
 21
-65.9999999999999858
 31
0.0000000000000147
210
0.0
220
1.0
230
-0.0000000000000002
  0
LINE
  5
31BD
  8
0
  6
CONTINUOUS
 62
     3
 10
-59.5
 20
-67.5000000000000426
 30
0.000000000000015
 11
59.5
 21
-67.5000000000000426
 31
0.000000000000015
210
0.0
220
1.0
230
-0.0000000000000002
  0
LINE
  5
31BE
  8
0
  6
CONTINUOUS
 62
     3
 10
-59.5
 20
-68.5000000000000142
 30
0.0000000000000152
 11
59.5
 21
-68.5000000000000142
 31
0.0000000000000152
210
0.0
220
1.0
230
-0.0000000000000002
  0
LINE
  5
31BF
  8
0
  6
CONTINUOUS
 62
     3
 10
-57.1171444324796624
 20
-70.882855567520366
 30
0.0000000000000157
 11
57.1171444324796624
 21
-70.882855567520366
 31
0.0000000000000157
210
0.0
220
1.0
230
-0.0000000000000002
  0
LINE
  5
31C0
  8
0
  6
CONTINUOUS
 62
     3
 10
-60.0
 20
-74.9999999999999574
 30
0.0000000000000167
 11
60.0
 21
-74.9999999999999574
 31
0.0000000000000167
210
0.0
220
1.0
230
-0.0000000000000002
  0
LINE
  5
31C1
  8
0
  6
CONTINUOUS
 62
     3
 10
-49.5
 20
-76.9999999999999858
 30
0.0000000000000171
 11
49.5
 21
-76.9999999999999858
 31
0.0000000000000171
210
0.0
220
1.0
230
-0.0000000000000002
  0
LINE
  5
31C2
  8
0
  6
CONTINUOUS
 62
     3
 10
-59.5
 20
-57.0000000000000071
 30
0.0000000000000127
 11
59.5
 21
-57.0000000000000071
 31
0.0000000000000127
210
0.0
220
1.0
230
-0.0000000000000002
  0
ARC
  5
31C3
  8
0
  6
CONTINUOUS
 62
     3
 10
55.6394515204002005
 20
-57.8000000000000398
 30
0.0
 40
0.8000000000000042
210
0.0
220
-0.0000000000000002
230
-1.0
 50
89.9999999999959357
 51
199.8552143693231073
  0
ARC
  5
31C4
  8
0
  6
CONTINUOUS
 62
     3
 10
-55.6394515204002005
 20
-57.8000000000000398
 30
0.0
 40
0.8000000000000133
210
0.0
220
-0.0000000000000002
230
-1.0
 50
340.144785630676779
 51
90.0000000000040643
  0
LINE
  5
31C5
  8
0
  6
CONTINUOUS
 62
     3
 10
54.887008400646863
 20
-58.0717155710221107
 30
0.0000000000000129
 11
57.7500000000000284
 21
-65.9999999999999716
 31
0.0000000000000147
210
0.0
220
1.0
230
-0.0000000000000002
  0
LINE
  5
31C6
  8
0
  6
CONTINUOUS
 62
     3
 10
-54.887008400646863
 20
-58.0717155710221107
 30
0.0000000000000129
 11
-57.7500000000000284
 21
-65.9999999999999716
 31
0.0000000000000147
210
0.0
220
1.0
230
-0.0000000000000002
  0
LINE
  5
31C7
  8
0
  6
CONTINUOUS
 62
     3
 10
57.75
 20
-65.9999999999999858
 30
0.0000000000000147
 11
59.5
 21
-67.5000000000000426
 31
0.000000000000015
210
0.0
220
1.0
230
-0.0000000000000002
  0
LINE
  5
31C8
  8
0
  6
CONTINUOUS
 62
     3
 10
-57.75
 20
-65.9999999999999858
 30
0.0000000000000147
 11
-59.5
 21
-67.5000000000000426
 31
0.000000000000015
210
0.0
220
1.0
230
-0.0000000000000002
  0
LINE
  5
31C9
  8
0
  6
CONTINUOUS
 62
     3
 10
59.5
 20
-67.5000000000000426
 30
0.000000000000015
 11
59.5
 21
-68.5000000000000142
 31
0.0000000000000152
210
0.0
220
1.0
230
-0.0000000000000002
  0
LINE
  5
31CA
  8
0
  6
CONTINUOUS
 62
     3
 10
-59.5
 20
-67.5000000000000426
 30
0.000000000000015
 11
-59.5
 21
-68.5000000000000142
 31
0.0000000000000152
210
0.0
220
1.0
230
-0.0000000000000002
  0
LINE
  5
31CB
  8
0
  6
CONTINUOUS
 62
     3
 10
-57.1171444324796624
 20
-70.882855567520366
 30
0.0000000000000157
 11
-59.4999999999999929
 21
-68.5000000000000142
 31
0.0000000000000152
210
0.0
220
1.0
230
-0.0000000000000002
  0
LINE
  5
31CC
  8
0
  6
CONTINUOUS
 62
     3
 10
57.1171444324796624
 20
-70.882855567520366
 30
0.0000000000000157
 11
59.4999999999999929
 21
-68.5000000000000142
 31
0.0000000000000152
210
0.0
220
1.0
230
-0.0000000000000002
  0
LINE
  5
31CD
  8
0
  6
CONTINUOUS
 62
     3
 10
57.1171444324796624
 20
-70.882855567520366
 30
0.0000000000000157
 11
60.0
 21
-74.9999999999999574
 31
0.0000000000000167
210
0.0
220
1.0
230
-0.0000000000000002
  0
LINE
  5
31CE
  8
0
  6
CONTINUOUS
 62
     3
 10
-57.1171444324796624
 20
-70.882855567520366
 30
0.0000000000000157
 11
-60.0
 21
-74.9999999999999574
 31
0.0000000000000167
210
0.0
220
1.0
230
-0.0000000000000002
  0
ARC
  5
31CF
  8
0
  6
CONTINUOUS
 62
     3
 10
49.4999999999999503
 20
-71.9999999999999147
 30
0.0
 40
5.0000000000000853
210
0.0
220
-0.0000000000000002
230
-1.0
 50
270.0
 51
323.1301023541556106
  0
ARC
  5
31D0
  8
0
  6
CONTINUOUS
 62
     3
 10
-49.4999999999999503
 20
-71.9999999999999147
 30
0.0
 40
5.000000000000087
210
0.0
220
-0.0000000000000002
230
-1.0
 50
216.8698976458439063
 51
269.9999999999994884
  0
ARC
  5
31D1
  8
0
  6
CONTINUOUS
 62
     3
 10
55.6090464708852323
 20
-51.4999999999998508
 30
0.0
 40
1.4999999999999469
210
0.0
220
-0.0000000000000002
230
-1.0
 50
25.8941133784704611
 51
90.0
  0
ARC
  5
31D2
  8
0
  6
CONTINUOUS
 62
     3
 10
-55.6090464708852323
 20
-51.4999999999998508
 30
0.0
 40
1.49999999999995
210
0.0
220
-0.0000000000000002
230
-1.0
 50
90.0
 51
154.1058866215294927
  0
LINE
  5
31D3
  8
0
  6
CONTINUOUS
 62
     3
 10
56.9584504483275325
 20
-50.8449359530069813
 30
0.0000000000000113
 11
59.0984106065128501
 21
-55.2531625413520899
 31
0.0000000000000123
210
0.0
220
1.0
230
-0.0000000000000002
  0
LINE
  5
31D4
  8
0
  6
CONTINUOUS
 62
     3
 10
-56.9584504483275325
 20
-50.8449359530069813
 30
0.0000000000000113
 11
-59.0984106065128501
 21
-55.2531625413520899
 31
0.0000000000000123
210
0.0
220
1.0
230
-0.0000000000000002
  0
ARC
  5
31D5
  8
0
  6
CONTINUOUS
 62
     3
 10
55.4999999999989626
 20
-57.0000000000003268
 30
0.0
 40
4.0000000000010374
210
0.0
220
-0.0000000000000002
230
-1.0
 50
0.0000000000044782
 51
25.8941133784711894
  0
ARC
  5
31D6
  8
0
  6
CONTINUOUS
 62
     3
 10
-55.4999999999989626
 20
-57.0000000000003268
 30
0.0
 40
4.0000000000010374
210
0.0
220
-0.0000000000000002
230
-1.0
 50
154.1058866215288106
 51
179.9999999999955094
  0
LINE
  5
31D7
  8
0
  6
CONTINUOUS
 62
     3
 10
-50.7000000000002089
 20
0.0000000000000284
 30
0.0
 11
50.6999999999997684
 21
0.0000000000000284
 31
0.0
210
0.0
220
1.0
230
-0.0000000000000002
  0
LINE
  5
31D8
  8
0
  6
CONTINUOUS
 62
     3
 10
-60.5000000000002487
 20
270.0000000000001137
 30
-0.00000000000006
 11
60.4999999999997726
 21
270.0000000000001137
 31
-0.00000000000006
210
0.0
220
1.0
230
-0.0000000000000002
  0
ARC
  5
31D9
  8
0
  6
CONTINUOUS
 62
     3
 10
50.5000000000025295
 20
8.0498756211207585
 30
0.0
 40
0.9999999999976907
210
0.0
220
-0.0000000000000002
230
-1.0
 50
354.2894068624951842
 51
0.0000000000074298
  0
ARC
  5
31DA
  8
0
  6
CONTINUOUS
 62
     3
 10
-50.5000000000015419
 20
8.0498756211207905
 30
0.0
 40
0.9999999999982307
210
0.0
220
-0.0000000000000002
230
-1.0
 50
179.9999999999926104
 51
185.7105931375031957
  0
LINE
  5
31DB
  8
0
  6
CONTINUOUS
 62
     3
 10
51.4999999999997584
 20
240.0000000000001137
 30
-0.0000000000000533
 11
51.4999999999997726
 21
8.0498756211209201
 31
-0.0000000000000018
210
0.0
220
1.0
230
-0.0000000000000002
  0
LINE
  5
31DC
  8
0
  6
CONTINUOUS
 62
     3
 10
-51.5000000000002416
 20
240.0000000000001137
 30
-0.0000000000000533
 11
-51.5000000000002274
 21
8.0498756211208917
 31
-0.0000000000000018
210
0.0
220
1.0
230
-0.0000000000000002
  0
LINE
  5
31DD
  8
0
  6
CONTINUOUS
 62
     3
 10
-50.7000000000002302
 20
0.0000000000000253
 30
0.0
 11
-51.4950371902102191
 21
7.9503719020999011
 31
-0.0000000000000018
210
0.0
220
1.0
230
-0.0000000000000002
  0
LINE
  5
31DE
  8
0
  6
CONTINUOUS
 62
     3
 10
50.6999999999997826
 20
0.0000000000000284
 30
0.0
 11
51.4950371902097714
 21
7.9503719020999037
 31
-0.0000000000000018
210
0.0
220
1.0
230
-0.0000000000000002
  0
LINE
  5
31DF
  8
0
  6
CONTINUOUS
 62
     3
 10
-52.8415189189041072
 20
245.0030695945889931
 30
-0.0000000000000544
 11
-58.617975329917499
 21
255.0000000000005116
 31
-0.0000000000000566
210
0.0
220
1.0
230
-0.0000000000000002
  0
LINE
  5
31E0
  8
0
  6
CONTINUOUS
 62
     3
 10
52.8415189189036596
 20
245.0030695945889931
 30
-0.0000000000000544
 11
58.6179753299170514
 21
255.0000000000005116
 31
-0.0000000000000566
210
0.0
220
1.0
230
-0.0000000000000002
  0
ARC
  5
31E1
  8
0
  6
CONTINUOUS
 62
     3
 10
61.5000000000004334
 20
240.0
 30
0.0
 40
10.0000000000002096
210
0.0
220
-0.0000000000000002
230
-1.0
 50
149.9796896468810132
 51
179.9999999999996021
  0
ARC
  5
31E2
  8
0
  6
CONTINUOUS
 62
     3
 10
-61.4999999999997726
 20
240.0000000000001137
 30
0.0
 40
10.0
210
0.0
220
-0.0000000000000002
230
-1.0
 50
0.0
 51
30.0203103531192497
  0
LINE
  5
31E3
  8
0
  6
CONTINUOUS
 62
     3
 10
60.4999999999997726
 20
270.0000000000001137
 30
-0.00000000000006
 11
60.4999999999997726
 21
268.0000000000003979
 31
-0.0000000000000595
210
0.0
220
1.0
230
-0.0000000000000002
  0
LINE
  5
31E4
  8
0
  6
CONTINUOUS
 62
     3
 10
-60.5000000000002416
 20
270.0000000000001137
 30
-0.00000000000006
 11
-60.5000000000002416
 21
268.0000000000003979
 31
-0.0000000000000595
210
0.0
220
1.0
230
-0.0000000000000002
  0
LINE
  5
31E5
  8
0
  6
CONTINUOUS
 62
     3
 10
60.9999999999997868
 20
255.0000000000005116
 30
-0.0000000000000566
 11
-61.0000000000002203
 21
255.0000000000005116
 31
-0.0000000000000566
210
0.0
220
1.0
230
-0.0000000000000002
  0
LINE
  5
31E6
  8
0
  6
CONTINUOUS
 62
     3
 10
-122.500000000000199
 20
268.0000000000003979
 30
-0.0000000000000595
 11
122.4999999999997016
 21
268.0000000000003979
 31
-0.0000000000000595
210
0.0
220
1.0
230
-0.0000000000000002
  0
LINE
  5
31E7
  8
0
  6
CONTINUOUS
 62
     3
 10
-122.500000000000199
 20
266.0000000000002274
 30
-0.0000000000000591
 11
122.4999999999997016
 21
266.0000000000002274
 31
-0.0000000000000591
210
0.0
220
1.0
230
-0.0000000000000002
  0
LINE
  5
31E8
  8
0
  6
CONTINUOUS
 62
     3
 10
-61.0000000000002203
 20
255.0000000000005116
 30
-0.0000000000000566
 11
-68.6889867471425077
 21
265.2036300463045109
 31
-0.0000000000000589
210
0.0
220
1.0
230
-0.0000000000000002
  0
LINE
  5
31E9
  8
0
  6
CONTINUOUS
 62
     3
 10
60.9999999999997584
 20
255.0000000000005116
 30
-0.0000000000000566
 11
68.6889867471420246
 21
265.2036300463045109
 31
-0.0000000000000589
210
0.0
220
1.0
230
-0.0000000000000002
  0
ARC
  5
31EA
  8
0
  6
CONTINUOUS
 62
     3
 10
-70.2862577672365347
 20
264.0000000000005116
 30
0.0
 40
1.999999999999881
210
0.0
220
-0.0000000000000002
230
-1.0
 50
36.9999999999990692
 51
89.9999999999995879
  0
ARC
  5
31EB
  8
0
  6
CONTINUOUS
 62
     3
 10
70.2862577672369611
 20
264.0000000000006253
 30
0.0
 40
1.999999999999772
210
0.0
220
-0.0000000000000002
230
-1.0
 50
89.9999999999995879
 51
143.0000000000048033
  0
LINE
  5
31EC
  8
0
  6
CONTINUOUS
 62
     3
 10
122.4999999999997016
 20
268.0000000000003979
 30
-0.0000000000000595
 11
122.4999999999997016
 21
266.0000000000002274
 31
-0.0000000000000591
210
0.0
220
1.0
230
-0.0000000000000002
  0
LINE
  5
31ED
  8
0
  6
CONTINUOUS
 62
     3
 10
-122.500000000000199
 20
268.0000000000003979
 30
-0.0000000000000595
 11
-122.500000000000199
 21
266.0000000000002274
 31
-0.0000000000000591
210
0.0
220
1.0
230
-0.0000000000000002
  0
LINE
  5
31EE
  8
0
  6
VERDECKT
 62
     1
 10
-51.7999999999999616
 20
-59.9132265073572086
 30
0.0000000000000133
 11
51.8000000000000611
 21
-59.9132265073572086
 31
0.0000000000000133
210
0.0
220
1.0
230
-0.0000000000000002
  0
LINE
  5
31EF
  8
0
  6
VERDECKT
 62
     1
 10
47.5000000000000568
 20
-75.4439840251518063
 30
0.0000000000000168
 11
-47.4999999999999432
 21
-75.4439840251518063
 31
0.0000000000000168
210
0.0
220
1.0
230
-0.0000000000000002
  0
LINE
  5
31F0
  8
0
  6
VERDECKT
 62
     1
 10
-56.5995849235806077
 20
-72.9999999999999289
 30
0.0000000000000162
 11
56.5995849235806077
 21
-72.9999999999999289
 31
0.0000000000000162
210
0.0
220
1.0
230
-0.0000000000000002
  0
ARC
  5
31F1
  8
0
  6
VERDECKT
 62
     1
 10
55.6090464708851684
 20
-51.4932265073571287
 30
0.0
 40
1.499999999999968
210
0.0
220
-0.0000000000000002
230
-1.0
 50
95.4470566892314451
 51
165.0000000000017906
  0
ARC
  5
31F2
  8
0
  6
VERDECKT
 62
     1
 10
-55.6090464708852892
 20
-51.4932265073571287
 30
0.0
 40
1.499999999999968
210
0.0
220
-0.0000000000000002
230
-1.0
 50
14.9999999999981704
 51
84.5529433107685549
  0
LINE
  5
31F3
  8
0
  6
VERDECKT
 62
     1
 10
-51.7999999999999474
 20
-59.9132265073572086
 30
0.0000000000000133
 11
-54.1601577314515907
 21
-51.1049979397034022
 31
0.0000000000000113
210
0.0
220
1.0
230
-0.0000000000000002
  0
LINE
  5
31F4
  8
0
  6
VERDECKT
 62
     1
 10
51.8000000000000611
 20
-59.9132265073572086
 30
0.0000000000000133
 11
54.1601577314516973
 21
-51.1049979397034022
 31
0.0000000000000113
210
0.0
220
1.0
230
-0.0000000000000002
  0
LINE
  5
31F5
  8
0
  6
VERDECKT
 62
     1
 10
51.8000000000000611
 20
-59.9132265073572086
 30
0.0000000000000133
 11
51.8000000000000611
 21
-70.4932265073571926
 31
0.0000000000000157
210
0.0
220
1.0
230
-0.0000000000000002
  0
LINE
  5
31F6
  8
0
  6
VERDECKT
 62
     1
 10
-51.7999999999999616
 20
-59.9132265073572086
 30
0.0000000000000133
 11
-51.7999999999999616
 21
-70.4932265073571926
 31
0.0000000000000157
210
0.0
220
1.0
230
-0.0000000000000002
  0
ARC
  5
31F7
  8
0
  6
VERDECKT
 62
     1
 10
46.7999999999999119
 20
-70.4932265073571358
 30
0.0
 40
5.0000000000000488
210
0.0
220
-0.0000000000000002
230
-1.0
 50
278.0478462473117816
 51
359.9999999999993179
  0
ARC
  5
31F8
  8
0
  6
VERDECKT
 62
     1
 10
-46.8000000000000185
 20
-70.4932265073571358
 30
0.0
 40
5.0000000000000417
210
0.0
220
-0.0000000000000002
230
-1.0
 50
180.0000000000005969
 51
261.9521537526882184
  0
LINE
  5
31F9
  8
0
  6
VERDECKT
 62
     1
 10
-47.4999999999999432
 20
-76.9999999999999858
 30
0.0000000000000171
 11
-47.4999999999999432
 21
-75.4439840251518063
 31
0.0000000000000168
210
0.0
220
1.0
230
-0.0000000000000002
  0
LINE
  5
31FA
  8
0
  6
VERDECKT
 62
     1
 10
47.5000000000000568
 20
-76.9999999999999858
 30
0.0000000000000171
 11
47.5000000000000568
 21
-75.4439840251518063
 31
0.0000000000000168
210
0.0
220
1.0
230
-0.0000000000000002
  0
LINE
  5
31FB
  8
0
  6
VERDECKT
 62
     1
 10
56.5995849235805721
 20
-72.9999999999999432
 30
0.0000000000000162
 11
57.9999999999999716
 21
-74.9999999999999716
 31
0.0000000000000167
210
0.0
220
1.0
230
-0.0000000000000002
  0
LINE
  5
31FC
  8
0
  6
VERDECKT
 62
     1
 10
-56.5995849235805721
 20
-72.9999999999999432
 30
0.0000000000000162
 11
-57.9999999999999716
 21
-74.9999999999999716
 31
0.0000000000000167
210
0.0
220
1.0
230
-0.0000000000000002
  0
ARC
  5
31FD
  8
0
  6
VERDECKT
 62
     1
 10
49.5000000000000924
 20
-72.0000000000000142
 30
0.0
 40
4.9999999999999121
210
0.0
220
-0.0000000000000002
230
-1.0
 50
323.130102354156179
 51
348.4630409671851226
  0
ARC
  5
31FE
  8
0
  6
VERDECKT
 62
     1
 10
-49.5000000000000924
 20
-72.0000000000000142
 30
0.0
 40
4.9999999999999103
210
0.0
220
-0.0000000000000002
230
-1.0
 50
191.5369590328147922
 51
216.8698976458437926
  0
LINE
  5
31FF
  8
0
  6
VERDECKT
 62
     1
 10
-49.2074442146852604
 20
0.1492555785315233
 30
0.0
 11
49.2074442146847915
 21
0.1492555785315233
 31
0.0
210
0.0
220
1.0
230
-0.0000000000000002
  0
ARC
  5
3200
  8
0
  6
VERDECKT
 62
     1
 10
48.9999999999991402
 20
8.1246890528023776
 30
0.0
 40
1.0000000000010869
210
0.0
220
-0.0000000000000002
230
-1.0
 50
354.2894068625008117
 51
359.9999999999952252
  0
ARC
  5
3201
  8
0
  6
VERDECKT
 62
     1
 10
-48.9999999999986784
 20
8.1246890528023812
 30
0.0
 40
1.0000000000010869
210
0.0
220
-0.0000000000000002
230
-1.0
 50
180.0000000000046896
 51
185.710593137499103
  0
LINE
  5
3202
  8
0
  6
VERDECKT
 62
     1
 10
-49.2074442146852391
 20
0.1492555785315206
 30
0.0
 11
-49.9950371902102191
 21
8.0251853337812786
 31
-0.0000000000000018
210
0.0
220
1.0
230
-0.0000000000000002
  0
LINE
  5
3203
  8
0
  6
VERDECKT
 62
     1
 10
49.2074442146847915
 20
0.1492555785315237
 30
0.0
 11
49.9950371902097572
 21
8.0251853337812822
 31
-0.0000000000000018
210
0.0
220
1.0
230
-0.0000000000000002
  0
LINE
  5
3204
  8
0
  6
VERDECKT
 62
     1
 10
49.9999999999997584
 20
240.0000000000001137
 30
-0.0000000000000533
 11
49.9999999999997726
 21
8.1246890528022977
 31
-0.0000000000000018
210
0.0
220
1.0
230
-0.0000000000000002
  0
LINE
  5
3205
  8
0
  6
VERDECKT
 62
     1
 10
-50.0000000000002416
 20
240.0000000000001137
 30
-0.0000000000000533
 11
-50.0000000000002274
 21
8.1246890528022977
 31
-0.0000000000000018
210
0.0
220
1.0
230
-0.0000000000000002
  0
LINE
  5
3206
  8
0
  6
VERDECKT
 62
     1
 10
49.2074442146847915
 20
0.1492555785315286
 30
0.0
 11
50.6999999999997826
 21
0.0000000000000301
 31
0.0
210
0.0
220
1.0
230
-0.0000000000000002
  0
LINE
  5
3207
  8
0
  6
VERDECKT
 62
     1
 10
-49.2074442146852391
 20
0.1492555785315224
 30
0.0
 11
-50.7000000000002302
 21
0.0000000000000236
 31
0.0
210
0.0
220
1.0
230
-0.0000000000000002
  0
ARC
  5
3208
  8
0
  6
VERDECKT
 62
     1
 10
54.0000000000003624
 20
260.0
 30
0.0
 40
6.4999999999998632
210
0.0
220
-0.0000000000000002
230
-1.0
 50
329.9796896468808995
 51
0.0000000000005089
  0
ARC
  5
3209
  8
0
  6
VERDECKT
 62
     1
 10
-53.9999999999998934
 20
260.0
 30
0.0
 40
6.4999999999998721
210
0.0
220
-0.0000000000000002
230
-1.0
 50
179.9999999999994884
 51
210.0203103531189868
  0
LINE
  5
320A
  8
0
  6
VERDECKT
 62
     1
 10
-58.617975329917499
 20
255.0000000000005116
 30
-0.0000000000000566
 11
-59.6280127027127307
 21
256.7480047635172014
 31
-0.000000000000057
210
0.0
220
1.0
230
-0.0000000000000002
  0
LINE
  5
320B
  8
0
  6
VERDECKT
 62
     1
 10
58.6179753299170514
 20
255.0000000000005116
 30
-0.0000000000000566
 11
59.6280127027122688
 21
256.7480047635172014
 31
-0.000000000000057
210
0.0
220
1.0
230
-0.0000000000000002
  0
ARC
  5
320C
  8
0
  6
VERDECKT
 62
     1
 10
61.5000000000001634
 20
240.0000000000001137
 30
0.0
 40
11.4999999999999201
210
0.0
220
-0.0000000000000002
230
-1.0
 50
149.9796896468807859
 51
180.0000000000001137
  0
ARC
  5
320D
  8
0
  6
VERDECKT
 62
     1
 10
-61.4999999999997016
 20
240.0000000000001137
 30
0.0
 40
11.4999999999999307
210
0.0
220
-0.0000000000000002
230
-1.0
 50
359.9999999999997726
 51
30.0203103531191502
  0
LINE
  5
320E
  8
0
  6
VERDECKT
 62
     1
 10
-51.5427467567396818
 20
245.7535300337773094
 30
-0.0000000000000546
 11
-58.3292405405483123
 21
257.4984652027055745
 31
-0.0000000000000572
210
0.0
220
1.0
230
-0.0000000000000002
  0
LINE
  5
320F
  8
0
  6
VERDECKT
 62
     1
 10
51.542746756739227
 20
245.7535300337773094
 30
-0.0000000000000546
 11
58.3292405405478505
 21
257.4984652027055745
 31
-0.0000000000000572
210
0.0
220
1.0
230
-0.0000000000000002
  0
ARC
  5
3210
  8
0
  6
VERDECKT
 62
     1
 10
54.0000000000003411
 20
260.0
 30
0.0
 40
4.9999999999998792
210
0.0
220
-0.0000000000000002
230
-1.0
 50
329.9796896468815248
 51
0.0000000000006616
  0
ARC
  5
3211
  8
0
  6
VERDECKT
 62
     1
 10
-53.9999999999995168
 20
260.0000000000001137
 30
0.0
 40
5.0000000000002478
210
0.0
220
-0.0000000000000002
230
-1.0
 50
180.0000000000005969
 51
210.0203103531183899
  0
LINE
  5
3212
  8
0
  6
VERDECKT
 62
     1
 10
58.9999999999997726
 20
270.0000000000001137
 30
-0.00000000000006
 11
58.9999999999997726
 21
260.0
 31
-0.0000000000000577
210
0.0
220
1.0
230
-0.0000000000000002
  0
LINE
  5
3213
  8
0
  6
VERDECKT
 62
     1
 10
-59.0000000000002274
 20
270.0000000000001137
 30
-0.00000000000006
 11
-59.0000000000002274
 21
260.0
 31
-0.0000000000000577
210
0.0
220
1.0
230
-0.0000000000000002
  0
LINE
  5
3214
  8
0
  6
VERDECKT
 62
     1
 10
60.4999999999997726
 20
268.0000000000003979
 30
-0.0000000000000595
 11
60.4999999999997726
 21
260.0
 31
-0.0000000000000577
210
0.0
220
1.0
230
-0.0000000000000002
  0
LINE
  5
3215
  8
0
  6
VERDECKT
 62
     1
 10
-60.5000000000002416
 20
268.0000000000003979
 30
-0.0000000000000595
 11
-60.5000000000002416
 21
260.0
 31
-0.0000000000000577
210
0.0
220
1.0
230
-0.0000000000000002
  0
LINE
  5
3216
  8
0
  6
VERDECKT
 62
     1
 10
59.402728979904829
 20
256.2036300463045109
 30
-0.0000000000000569
 11
-59.402728979905298
 21
256.2036300463045109
 31
-0.0000000000000569
210
0.0
220
1.0
230
-0.0000000000000002
  0
LINE
  5
3217
  8
0
  6
VERDECKT
 62
     1
 10
59.402728979904829
 20
256.2036300463045109
 30
-0.0000000000000569
 11
60.9999999999997726
 21
255.0000000000005116
 31
-0.0000000000000566
210
0.0
220
1.0
230
-0.0000000000000002
  0
LINE
  5
3218
  8
0
  6
VERDECKT
 62
     1
 10
-59.4027289799052909
 20
256.2036300463045109
 30
-0.0000000000000569
 11
-61.0000000000002203
 21
255.0000000000005116
 31
-0.0000000000000566
210
0.0
220
1.0
230
-0.0000000000000002
  0
ARC
  5
3219
  8
0
  6
VERDECKT
 62
     1
 10
-70.2862577672364637
 20
264.0000000000006821
 30
0.0
 40
3.9999999999997269
210
0.0
220
-0.0000000000000002
230
-1.0
 50
36.9999999999933635
 51
90.0000000000006253
  0
ARC
  5
321A
  8
0
  6
VERDECKT
 62
     1
 10
70.2862577672369326
 20
264.0000000000006821
 30
0.0
 40
3.9999999999997149
210
0.0
220
-0.0000000000000002
230
-1.0
 50
89.9999999999993889
 51
143.0000000000067075
  0
LINE
  5
321B
  8
0
  6
VERDECKT
 62
     1
 10
-59.4027289799053193
 20
256.2036300463045109
 30
-0.0000000000000569
 11
-67.0917157270477134
 21
266.4072600926083965
 31
-0.0000000000000592
210
0.0
220
1.0
230
-0.0000000000000002
  0
LINE
  5
321C
  8
0
  6
VERDECKT
 62
     1
 10
59.4027289799048717
 20
256.2036300463045109
 30
-0.0000000000000569
 11
67.0917157270472728
 21
266.4072600926083965
 31
-0.0000000000000592
210
0.0
220
1.0
230
-0.0000000000000002
  0
ENDBLK
  5
321E
  8
0
  0
ENDSEC
  0
SECTION
  2
ENTITIES
  0
TEXT
  5
3D7
  8
VOLL
 10
78.076754716981128
 20
31.025947764705851
 30
0.0
 40
1.8
  1

  7
GREEKS
  0
INSERT
  5
AD0
  8
ADSK_ASSOC_ENTITY_BACKUPS
  2
*S0
 10
0.0
 20
0.0
 30
0.0
  0
INSERT
  5
31B8
  8
STEMPEL
  2
A$CBF684EDF
 10
0.0000000000001604
 20
-299.5
 30
0.0000000000000171
  0
INSERT
  5
321F
  8
STEMPEL
  2
A$C5FD7A949
 10
0.0
 20
0.0
 30
0.0
  0
VIEWPORT
  5
AAD
 67
     1
  8
0
 10
145.4876266230467934
 20
205.7121715771484105
 30
0.0
 40
790.2674510967764263
 41
422.1483375959078899
 68
     1
 69
     1
1001
ACAD
1000
MVIEW
1002
{
1070
    16
1010
0.0
1020
0.0
1030
0.0
1010
0.0
1020
0.0
1030
1.0
1040
0.0
1040
422.1483375959078899
1040
145.4876266230467934
1040
205.7121715771484105
1040
50.0
1040
0.0
1040
0.0
1070
     0
1070
  1500
1070
     1
1070
     1
1070
     0
1070
     0
1070
     0
1070
     0
1040
0.0
1040
0.0
1040
0.0
1040
10.0
1040
10.0
1040
10.0
1040
10.0
1070
     0
1002
{
1002
}
1002
}
  0
TEXT
  5
CB0
 67
     1
  8
VOLL
 10
625.5592565604117681
 20
227.4217200880700887
 30
0.0
 40
3.6000000000000001
  1

  7
GREEKS
  0
INSERT
  5
1D45
 67
     1
  8
BEM
 62
     2
  2
_NONE
 10
132.2576200867661953
 20
204.6114414835367086
 30
0.0
 41
3.0
 42
3.0
 43
3.0
 50
206.5650511770780042
  0
INSERT
  5
1EAE
 67
     1
  8
TEXT
 62
     2
  2
_NONE
 10
82.6227518739434572
 20
105.3856501272404955
 30
0.0
 41
3.0
 42
3.0
 43
3.0
 50
41.6356353743305974
  0
ENDSEC
  0
EOF
