  0
SECTION
  2
HEADER
  9
$ACADVER
  1
AC1009
  9
$INSBASE
 10
0.0
 20
0.0
 30
0.0
  9
$EXTMIN
 10
-149.9999999999998863
 20
-430.9998957656648031
 30
-0.0000000000000173
  9
$EXTMAX
 10
150.0000000000001137
 20
72.9999999999997442
 30
0.000000000000018
  9
$LIMMIN
 10
0.0
 20
0.0
  9
$LIMMAX
 10
1681.9999999999990905
 20
1188.0
  9
$ORTHOMODE
 70
     1
  9
$REGENMODE
 70
     1
  9
$FILLMODE
 70
     1
  9
$QTEXTMODE
 70
     0
  9
$MIRRTEXT
 70
     1
  9
$DRAGMODE
 70
     2
  9
$LTSCALE
 40
20.0
  9
$OSMODE
 70
   511
  9
$ATTMODE
 70
     1
  9
$TEXTSIZE
 40
3.5
  9
$TRACEWID
 40
1.0
  9
$TEXTSTYLE
  7
STANDARD
  9
$CLAYER
  8
STEMPEL
  9
$CELTYPE
  6
BYLAYER
  9
$CECOLOR
 62
   256
  9
$DIMSCALE
 40
1.0
  9
$DIMASZ
 40
3.5
  9
$DIMEXO
 40
1.0
  9
$DIMDLI
 40
0.38
  9
$DIMRND
 40
0.0
  9
$DIMDLE
 40
0.0
  9
$DIMEXE
 40
1.0
  9
$DIMTP
 40
0.0
  9
$DIMTM
 40
0.000000001
  9
$DIMTXT
 40
3.5
  9
$DIMCEN
 40
0.09
  9
$DIMTSZ
 40
0.0
  9
$DIMTOL
 70
     0
  9
$DIMLIM
 70
     0
  9
$DIMTIH
 70
     0
  9
$DIMTOH
 70
     0
  9
$DIMSE1
 70
     0
  9
$DIMSE2
 70
     0
  9
$DIMTAD
 70
     1
  9
$DIMZIN
 70
     8
  9
$DIMBLK
  1

  9
$DIMASO
 70
     1
  9
$DIMSHO
 70
     0
  9
$DIMPOST
  1

  9
$DIMAPOST
  1

  9
$DIMALT
 70
     0
  9
$DIMALTD
 70
     2
  9
$DIMALTF
 40
25.3999999999999986
  9
$DIMLFAC
 40
2.0
  9
$DIMTOFL
 70
     1
  9
$DIMTVP
 40
0.0
  9
$DIMTIX
 70
     0
  9
$DIMSOXD
 70
     0
  9
$DIMSAH
 70
     0
  9
$DIMBLK1
  1

  9
$DIMBLK2
  1

  9
$DIMSTYLE
  2
LORO
  9
$DIMCLRD
 70
     0
  9
$DIMCLRE
 70
     0
  9
$DIMCLRT
 70
     1
  9
$DIMTFAC
 40
0.5
  9
$DIMGAP
 40
1.5
  9
$LUNITS
 70
     2
  9
$LUPREC
 70
     2
  9
$SKETCHINC
 40
1.0
  9
$FILLETRAD
 40
16.0
  9
$AUNITS
 70
     0
  9
$AUPREC
 70
     0
  9
$MENU
  1
ACAD
  9
$ELEVATION
 40
0.0
  9
$PELEVATION
 40
0.0
  9
$THICKNESS
 40
0.0
  9
$LIMCHECK
 70
     0
  9
$BLIPMODE
 70
     0
  9
$CHAMFERA
 40
2.0
  9
$CHAMFERB
 40
2.0
  9
$SKPOLY
 70
     0
  9
$TDCREATE
 40
2455397.867048610933125
  9
$TDUPDATE
 40
2459636.5773379630409181
  9
$TDINDWG
 40
4.0443867593
  9
$TDUSRTIMER
 40
4.0443867593
  9
$USRTIMER
 70
     1
  9
$ANGBASE
 50
0.0
  9
$ANGDIR
 70
     0
  9
$PDMODE
 70
     0
  9
$PDSIZE
 40
0.0
  9
$PLINEWID
 40
0.0
  9
$COORDS
 70
     1
  9
$SPLFRAME
 70
     0
  9
$SPLINETYPE
 70
     6
  9
$SPLINESEGS
 70
     8
  9
$ATTDIA
 70
     1
  9
$ATTREQ
 70
     1
  9
$HANDLING
 70
     1
  9
$HANDSEED
  5
19684
  9
$SURFTAB1
 70
     6
  9
$SURFTAB2
 70
     6
  9
$SURFTYPE
 70
     6
  9
$SURFU
 70
     6
  9
$SURFV
 70
     6
  9
$UCSNAME
  2

  9
$UCSORG
 10
0.0
 20
0.0
 30
0.0
  9
$UCSXDIR
 10
1.0
 20
0.0
 30
0.0
  9
$UCSYDIR
 10
0.0
 20
1.0
 30
0.0
  9
$PUCSNAME
  2

  9
$PUCSORG
 10
0.0
 20
0.0
 30
0.0
  9
$PUCSXDIR
 10
1.0
 20
0.0
 30
0.0
  9
$PUCSYDIR
 10
0.0
 20
1.0
 30
0.0
  9
$USERI1
 70
     0
  9
$USERI2
 70
     0
  9
$USERI3
 70
     0
  9
$USERI4
 70
     0
  9
$USERI5
 70
     0
  9
$USERR1
 40
0.0
  9
$USERR2
 40
0.0
  9
$USERR3
 40
0.0
  9
$USERR4
 40
0.0
  9
$USERR5
 40
0.0
  9
$WORLDVIEW
 70
     1
  9
$SHADEDGE
 70
     3
  9
$SHADEDIF
 70
    70
  9
$TILEMODE
 70
     1
  9
$MAXACTVP
 70
    16
  9
$PLIMCHECK
 70
     0
  9
$PEXTMIN
 10
1.0000000000000000E+20
 20
1.0000000000000000E+20
 30
1.0000000000000000E+20
  9
$PEXTMAX
 10
-1.0000000000000000E+20
 20
-1.0000000000000000E+20
 30
-1.0000000000000000E+20
  9
$PLIMMIN
 10
-3.0331764529324801
 20
-4.2935761623992903
  9
$PLIMMAX
 10
293.9668235470675199
 20
415.7064238376007097
  9
$UNITMODE
 70
     0
  9
$VISRETAIN
 70
     0
  9
$PLINEGEN
 70
     0
  9
$PSLTSCALE
 70
     0
  0
ENDSEC
  0
SECTION
  2
TABLES
  0
TABLE
  2
VPORT
 70
     1
  0
VPORT
  2
*ACTIVE
 70
     0
 10
0.0
 20
0.0
 11
1.0
 21
1.0
 12
108.7873646110975017
 22
-64.4669488493139937
 13
0.0
 23
0.0
 14
1.0
 24
1.0
 15
10.0
 25
10.0
 16
-0.0000000000006821
 26
0.0
 36
3385.2449544899609464
 17
-108.7873646110974022
 27
-114.5329990335184931
 37
-0.0000000000000216
 40
506.5779003475860804
 41
1.8720136518771331
 42
50.0
 43
0.0
 44
0.0
 50
0.0
 51
0.0
 71
     0
 72
  1500
 73
     1
 74
     0
 75
     0
 76
     0
 77
     0
 78
     0
  0
ENDTAB
  0
TABLE
  2
LTYPE
 70
     3
  0
LTYPE
  2
CONTINUOUS
 70
     0
  3
Solid line
 72
    65
 73
     0
 40
0.0
  0
LTYPE
  2
STRICHPUNKT
 70
     0
  3
__ . __ . __ . __ . __ . __ . __ . __ . __ . __
 72
    65
 73
     4
 40
1.0
 49
0.5
 49
-0.25
 49
0.0
 49
-0.25
  0
LTYPE
  2
VERDECKT
 70
     0
  3
Verdeckt __ __ __ __ __ __ __ __ __ __ __ __ __
 72
    65
 73
     2
 40
0.375
 49
0.25
 49
-0.125
  0
ENDTAB
  0
TABLE
  2
LAYER
 70
     7
  0
LAYER
  2
0
 70
     0
 62
     7
  6
CONTINUOUS
  0
LAYER
  2
VOLL
 70
     0
 62
     1
  6
CONTINUOUS
  0
LAYER
  2
STEMPEL
 70
     0
 62
     3
  6
CONTINUOUS
  0
LAYER
  2
DEFPOINTS
 70
     0
 62
     7
  6
CONTINUOUS
  0
LAYER
  2
ADSK_ASSOC_ENTITY_BACKUPS
 70
     1
 62
    -7
  6
CONTINUOUS
  0
ENDTAB
  0
TABLE
  2
STYLE
 70
     3
  0
STYLE
  2
STANDARD
 70
     0
 40
0.0
 41
0.8
 50
0.0
 71
     0
 42
3.5
  3
simplex.shx
  4

  0
STYLE
  2
GREEKS
 70
     0
 40
0.0
 41
0.8
 50
0.0
 71
     0
 42
2.5
  3
SIMPLEX.shx
  4

  0
ENDTAB
  0
TABLE
  2
VIEW
 70
     0
  0
ENDTAB
  0
TABLE
  2
UCS
 70
     0
  0
ENDTAB
  0
TABLE
  2
APPID
 70
    30
  0
APPID
  2
ACAD
 70
     0
  0
APPID
  2
ACAD_EXEMPT_FROM_CAD_STANDARDS
 70
     0
  0
APPID
  2
ACAD_NAV_VCDISPLAY
 70
     0
  0
APPID
  2
GRADIENTCOLOR1ACI
 70
     0
  0
APPID
  2
GRADIENTCOLOR2ACI
 70
     0
  0
APPID
  2
ACAUTHENVIRON
 70
     0
  0
APPID
  2
ACDBDYNAMICBLOCKTRUENAME
 70
     0
  0
APPID
  2
ACDBDYNAMICBLOCKGUID
 70
     0
  0
APPID
  2
ACAD_PSEXT
 70
     0
  0
APPID
  2
ACAD_MLEADERVER
 70
     0
  0
APPID
  2
ACAECLAYERSTANDARD
 70
     0
  0
APPID
  2
ACCMTRANSPARENCY
 70
     0
  0
APPID
  2
ACAD_STEPID
 70
     0
  0
APPID
  2
ACSYNERGY
 70
     0
  0
APPID
  2
SYNERGY_BODY_TBR_ID
 70
     0
  0
APPID
  2
ACAD_VIEW_EDGE_ID
 70
     0
  0
APPID
  2
ACAD_DSTYLE_DIMJAG
 70
     0
  0
APPID
  2
ACAD_DSTYLE_DIMBREAK
 70
     0
  0
APPID
  2
ACAD_DSTYLE_DIMTALN
 70
     0
  0
APPID
  2
ACADANNOMONITORALERTICONDI
 70
     0
  0
APPID
  2
ACAD_DIMASSOC_CALC_DIMLFAC
 70
     0
  0
APPID
  2
ACAD_DIMASSOC_DIMLFAC
 70
     0
  0
APPID
  2
ACAD_DIMASSOC_OVERRIDDEN_D
 70
     0
  0
APPID
  2
ACAD_DSTYLE_DIMRADIAL_EXTENSION
 70
     0
  0
APPID
  2
ACADANNOPO
 70
     0
  0
APPID
  2
ACSYNERGYSKETCH
 70
     0
  0
APPID
  2
ACAD_MODELDOC_XFORM
 70
     0
  0
APPID
  2
SYNERGY_EXCLUDED_FROM_SNAPSHOT
 70
     0
  0
APPID
  2
PLOTTRANSPARENCY
 70
     0
  0
APPID
  2
ACAD_TC
 70
     0
  0
ENDTAB
  0
TABLE
  2
DIMSTYLE
 70
     2
  0
DIMSTYLE
  2
STANDARD
 70
     0
  3

  4

  5

  6

  7

 40
1.0
 41
0.18
 42
0.0625
 43
0.38
 44
0.18
 45
0.0
 46
0.0
 47
0.0
 48
0.0
140
0.18
141
0.09
142
0.0
143
25.3999999999999986
144
1.0
145
0.0
146
1.0
147
0.09
 71
     0
 72
     0
 73
     1
 74
     1
 75
     0
 76
     0
 77
     0
 78
     0
170
     0
171
     2
172
     0
173
     0
174
     0
175
     0
176
     0
177
     0
178
     0
  0
DIMSTYLE
  2
LORO
 70
     0
  3

  4

  5

  6

  7

 40
1.0
 41
3.5
 42
1.0
 43
0.38
 44
1.0
 45
0.0
 46
0.0
 47
0.0
 48
0.000000001
140
3.5
141
0.09
142
0.0
143
25.3999999999999986
144
2.0
145
0.0
146
0.5
147
1.5
 71
     0
 72
     0
 73
     0
 74
     0
 75
     0
 76
     0
 77
     1
 78
     8
170
     0
171
     2
172
     1
173
     0
174
     0
175
     0
176
     0
177
     0
178
     1
  0
ENDTAB
  0
ENDSEC
  0
SECTION
  2
BLOCKS
  0
BLOCK
  8
0
  2
$MODEL_SPACE
 70
     0
 10
0.0
 20
0.0
 30
0.0
  3
$MODEL_SPACE
  1

  0
ENDBLK
  5
38
  8
0
  0
BLOCK
 67
     1
  8
0
  2
$PAPER_SPACE
 70
     0
 10
0.0
 20
0.0
 30
0.0
  3
$PAPER_SPACE
  1

  0
ENDBLK
  5
36
 67
     1
  8
0
  0
BLOCK
  8
0
  2
*S0
 70
     1
 10
0.0
 20
0.0
 30
0.0
  3
*S0
  1

  0
ENDBLK
  5
46EF
  8
0
  0
BLOCK
  8
0
  2
A$CEC4D4BA8
 70
     0
 10
0.0
 20
0.0
 30
0.0
  3
A$CEC4D4BA8
  1

  0
LINE
  5
195A5
  8
0
  6
CONTINUOUS
 62
     3
 10
-72.0000000000483737
 20
72.99999999999973
 30
-0.0000000000000162
 11
72.0000000000486153
 21
72.99999999999973
 31
-0.0000000000000162
210
0.0
220
1.0
230
-0.0000000000000002
  0
LINE
  5
195A6
  8
0
  6
CONTINUOUS
 62
     3
 10
-65.6999999999998749
 20
-0.0000000000002884
 30
0.0
 11
65.7000000000001023
 21
-0.00000000000028
 31
0.0
210
0.0
220
1.0
230
-0.0000000000000002
  0
LINE
  5
195A7
  8
0
  6
CONTINUOUS
 62
     3
 10
-68.4246378256497536
 20
48.2017394338644465
 30
-0.0000000000000107
 11
-69.519430871011636
 21
50.9999999999997371
 31
-0.0000000000000113
210
0.0
220
1.0
230
-0.0000000000000002
  0
LINE
  5
195A8
  8
0
  6
CONTINUOUS
 62
     3
 10
68.424637825649981
 20
48.2017394338644607
 30
-0.0000000000000107
 11
69.5194308710118634
 21
50.99999999999973
 31
-0.0000000000000113
210
0.0
220
1.0
230
-0.0000000000000002
  0
ARC
  5
195A9
  8
0
  6
CONTINUOUS
 62
     3
 10
94.5000000000003979
 20
37.9999999999996021
 30
0.0
 40
28.0000000000005116
210
0.0
220
-0.0000000000000002
230
-1.0
 50
158.6325470100906045
 51
179.9999999999996874
  0
ARC
  5
195AA
  8
0
  6
CONTINUOUS
 62
     3
 10
-94.5000000000001563
 20
37.9999999999997229
 30
0.0
 40
28.0000000000000284
210
0.0
220
-0.0000000000000002
230
-1.0
 50
0.0
 51
21.3674529899094985
  0
LINE
  5
195AB
  8
0
  6
CONTINUOUS
 62
     3
 10
72.0000000000486153
 20
72.99999999999973
 30
-0.0000000000000162
 11
72.0000000000486153
 21
70.9999999999997158
 31
-0.0000000000000158
210
0.0
220
1.0
230
-0.0000000000000002
  0
LINE
  5
195AC
  8
0
  6
CONTINUOUS
 62
     3
 10
-72.0000000000483737
 20
72.99999999999973
 30
-0.0000000000000162
 11
-72.0000000000483737
 21
70.9999999999997158
 31
-0.0000000000000158
210
0.0
220
1.0
230
-0.0000000000000002
  0
ARC
  5
195AD
  8
0
  6
CONTINUOUS
 62
     3
 10
65.5000000000048033
 20
8.0498756211203144
 30
0.0
 40
0.999999999995083
210
0.0
220
-0.0000000000000002
230
-1.0
 50
354.2894068624837018
 51
0.0000000000115009
  0
ARC
  5
195AE
  8
0
  6
CONTINUOUS
 62
     3
 10
-65.5000000000050591
 20
8.0498756211203197
 30
0.0
 40
0.9999999999950546
210
0.0
220
-0.0000000000000002
230
-1.0
 50
179.9999999999884039
 51
185.7105931375162129
  0
LINE
  5
195AF
  8
0
  6
CONTINUOUS
 62
     3
 10
66.5000000000001137
 20
37.9999999999997229
 30
-0.0000000000000084
 11
66.5000000000001137
 21
8.0498756211205222
 31
-0.0000000000000018
210
0.0
220
1.0
230
-0.0000000000000002
  0
LINE
  5
195B0
  8
0
  6
CONTINUOUS
 62
     3
 10
-66.4999999999998863
 20
37.9999999999997087
 30
-0.0000000000000084
 11
-66.4999999999998863
 21
8.0498756211205151
 31
-0.0000000000000018
210
0.0
220
1.0
230
-0.0000000000000002
  0
LINE
  5
195B1
  8
0
  6
CONTINUOUS
 62
     3
 10
-65.6999999999998892
 20
-0.0000000000002891
 30
0.0
 11
-66.4950371902098709
 21
7.9503719020995147
 31
-0.0000000000000018
210
0.0
220
1.0
230
-0.0000000000000002
  0
LINE
  5
195B2
  8
0
  6
CONTINUOUS
 62
     3
 10
65.7000000000001165
 20
-0.0000000000002847
 30
0.0
 11
66.4950371902100983
 21
7.9503719020995236
 31
-0.0000000000000018
210
0.0
220
1.0
230
-0.0000000000000002
  0
LINE
  5
195B3
  8
0
  6
CONTINUOUS
 62
     3
 10
-72.1603532929804317
 20
50.9999999999997371
 30
-0.0000000000000113
 11
72.1603532929806448
 21
50.9999999999997371
 31
-0.0000000000000113
210
0.0
220
1.0
230
-0.0000000000000002
  0
LINE
  5
195B4
  8
0
  6
CONTINUOUS
 62
     3
 10
-149.9999999999998863
 20
70.9999999999997158
 30
-0.0000000000000158
 11
150.0000000000001137
 21
70.9999999999997158
 31
-0.0000000000000158
210
0.0
220
1.0
230
-0.0000000000000002
  0
LINE
  5
195B5
  8
0
  6
CONTINUOUS
 62
     3
 10
-149.9999999999998863
 20
68.9999999999997158
 30
-0.0000000000000153
 11
150.0000000000001137
 21
68.9999999999997158
 31
-0.0000000000000153
210
0.0
220
1.0
230
-0.0000000000000002
  0
ARC
  5
195B6
  8
0
  6
CONTINUOUS
 62
     3
 10
77.4999999999999005
 20
65.49999999999973
 30
0.0
 40
3.5000000000000129
210
0.0
220
-0.0000000000000002
230
-1.0
 50
90.0000000000002416
 51
192.8280495223827984
  0
ARC
  5
195B7
  8
0
  6
CONTINUOUS
 62
     3
 10
-77.5000000000001279
 20
65.49999999999973
 30
0.0
 40
3.5000000000000129
210
0.0
220
-0.0000000000000002
230
-1.0
 50
347.1719504776172016
 51
89.9999999999997584
  0
ARC
  5
195B8
  8
0
  6
CONTINUOUS
 62
     3
 10
57.9673251498184712
 20
61.0522281027256426
 30
0.0
 40
16.5326748501814116
210
0.0
220
-0.0000000000000002
230
-1.0
 50
342.7803027270546181
 51
12.8280495223827504
  0
ARC
  5
195B9
  8
0
  6
CONTINUOUS
 62
     3
 10
-57.9673251498186772
 20
61.0522281027256426
 30
0.0
 40
16.53267485018144
210
0.0
220
-0.0000000000000002
230
-1.0
 50
167.1719504776172016
 51
197.2196972729452966
  0
LINE
  5
195BA
  8
0
  6
CONTINUOUS
 62
     3
 10
-72.1603532929804459
 20
50.9999999999997371
 30
-0.0000000000000113
 11
-73.7589500707289432
 21
56.1579538910472493
 31
-0.0000000000000125
210
0.0
220
1.0
230
-0.0000000000000002
  0
LINE
  5
195BB
  8
0
  6
CONTINUOUS
 62
     3
 10
72.1603532929806732
 20
50.9999999999997371
 30
-0.0000000000000113
 11
73.7589500707291705
 21
56.1579538910472493
 31
-0.0000000000000125
210
0.0
220
1.0
230
-0.0000000000000002
  0
LINE
  5
195BC
  8
0
  6
CONTINUOUS
 62
     3
 10
150.0000000000001137
 20
70.9999999999997158
 30
-0.0000000000000158
 11
150.0000000000001137
 21
68.9999999999997158
 31
-0.0000000000000153
210
0.0
220
1.0
230
-0.0000000000000002
  0
LINE
  5
195BD
  8
0
  6
CONTINUOUS
 62
     3
 10
-149.9999999999998863
 20
70.9999999999997158
 30
-0.0000000000000158
 11
-149.9999999999998863
 21
68.99999999999973
 31
-0.0000000000000153
210
0.0
220
1.0
230
-0.0000000000000002
  0
LINE
  5
195BE
  8
0
  6
CONTINUOUS
 62
     3
 10
-75.4999999999998863
 20
-56.999895765664867
 30
0.0000000000000127
 11
75.5000000000001137
 21
-56.999895765664867
 31
0.0000000000000127
210
0.0
220
1.0
230
-0.0000000000000002
  0
LINE
  5
195BF
  8
0
  6
CONTINUOUS
 62
     3
 10
-71.4801488286689164
 20
-59.9998957656648813
 30
0.0000000000000133
 11
71.4801488286691438
 21
-59.9998957656648813
 31
0.0000000000000133
210
0.0
220
1.0
230
-0.0000000000000002
  0
LINE
  5
195C0
  8
0
  6
CONTINUOUS
 62
     3
 10
-73.2999999999998835
 20
-64.9998957656648741
 30
0.0000000000000144
 11
73.3000000000001108
 21
-64.9998957656648741
 31
0.0000000000000144
210
0.0
220
1.0
230
-0.0000000000000002
  0
LINE
  5
195C1
  8
0
  6
CONTINUOUS
 62
     3
 10
-73.2999999999998835
 20
-68.0998957656648969
 30
0.0000000000000151
 11
73.3000000000001108
 21
-68.0998957656648969
 31
0.0000000000000151
210
0.0
220
1.0
230
-0.0000000000000002
  0
LINE
  5
195C2
  8
0
  6
CONTINUOUS
 62
     3
 10
-75.6999999999999318
 20
-70.4998957656648741
 30
0.0000000000000157
 11
75.7000000000001592
 21
-70.4998957656648741
 31
0.0000000000000157
210
0.0
220
1.0
230
-0.0000000000000002
  0
LINE
  5
195C3
  8
0
  6
CONTINUOUS
 62
     3
 10
-75.6999999999999318
 20
-71.4998957656648741
 30
0.0000000000000159
 11
75.7000000000001592
 21
-71.4998957656648741
 31
0.0000000000000159
210
0.0
220
1.0
230
-0.0000000000000002
  0
LINE
  5
195C4
  8
0
  6
CONTINUOUS
 62
     3
 10
-73.4999999999998863
 20
-73.6998957656649196
 30
0.0000000000000164
 11
73.5000000000001137
 21
-73.6998957656649196
 31
0.0000000000000164
210
0.0
220
1.0
230
-0.0000000000000002
  0
LINE
  5
195C5
  8
0
  6
CONTINUOUS
 62
     3
 10
-73.4999999999998863
 20
-76.1893839890133364
 30
0.0000000000000169
 11
73.5000000000001137
 21
-76.1893839890133364
 31
0.0000000000000169
210
0.0
220
1.0
230
-0.0000000000000002
  0
LINE
  5
195C6
  8
0
  6
CONTINUOUS
 62
     3
 10
-75.6999999999999318
 20
-79.9998957656648741
 30
0.0000000000000178
 11
75.7000000000001592
 21
-79.9998957656648741
 31
0.0000000000000178
210
0.0
220
1.0
230
-0.0000000000000002
  0
LINE
  5
195C7
  8
0
  6
CONTINUOUS
 62
     3
 10
-64.4999999999997726
 20
-80.9998957656648884
 30
0.000000000000018
 11
64.5
 21
-80.9998957656648884
 31
0.000000000000018
210
0.0
220
1.0
230
-0.0000000000000002
  0
LINE
  5
195C8
  8
0
  6
CONTINUOUS
 62
     3
 10
-71.4999999999999716
 20
-50.0000000000002913
 30
0.0000000000000111
 11
71.5000000000001847
 21
-50.0000000000002913
 31
0.0000000000000111
210
0.0
220
1.0
230
-0.0000000000000002
  0
ARC
  5
195C9
  8
0
  6
CONTINUOUS
 62
     3
 10
70.9999999999998721
 20
-57.9998957656648599
 30
0.0
 40
0.9999999999999857
210
0.0
220
-0.0000000000000002
230
-1.0
 50
89.9999999999992042
 51
180.0000000000007105
  0
ARC
  5
195CA
  8
0
  6
CONTINUOUS
 62
     3
 10
-71.0000000000000995
 20
-57.9998957656648599
 30
0.0
 40
0.9999999999999857
210
0.0
220
-0.0000000000000002
230
-1.0
 50
359.9999999999992042
 51
90.00000000000081
  0
LINE
  5
195CB
  8
0
  6
CONTINUOUS
 62
     3
 10
70.0000000000001137
 20
-57.999895765664867
 30
0.0000000000000129
 11
70.0000000000001137
 21
-58.999895765664867
 31
0.0000000000000131
210
0.0
220
1.0
230
-0.0000000000000002
  0
LINE
  5
195CC
  8
0
  6
CONTINUOUS
 62
     3
 10
-69.9999999999998863
 20
-57.999895765664867
 30
0.0000000000000129
 11
-69.9999999999998863
 21
-58.999895765664867
 31
0.0000000000000131
210
0.0
220
1.0
230
-0.0000000000000002
  0
ARC
  5
195CD
  8
0
  6
CONTINUOUS
 62
     3
 10
70.9999999999998721
 20
-58.9998957656648884
 30
0.0
 40
0.9999999999999857
210
0.0
220
-0.0000000000000002
230
-1.0
 50
179.9999999999992042
 51
270.0000000000007958
  0
ARC
  5
195CE
  8
0
  6
CONTINUOUS
 62
     3
 10
-71.0000000000000995
 20
-58.9998957656648884
 30
0.0
 40
0.9999999999999857
210
0.0
220
-0.0000000000000002
230
-1.0
 50
270.0
 51
0.0000000000016284
  0
LINE
  5
195CF
  8
0
  6
CONTINUOUS
 62
     3
 10
71.4801488286691438
 20
-59.9998957656648813
 30
0.0000000000000133
 11
73.3000000000001251
 21
-64.9998957656648741
 31
0.0000000000000144
210
0.0
220
1.0
230
-0.0000000000000002
  0
LINE
  5
195D0
  8
0
  6
CONTINUOUS
 62
     3
 10
-71.4801488286689164
 20
-59.9998957656648813
 30
0.0000000000000133
 11
-73.2999999999998977
 21
-64.9998957656648741
 31
0.0000000000000144
210
0.0
220
1.0
230
-0.0000000000000002
  0
LINE
  5
195D1
  8
0
  6
CONTINUOUS
 62
     3
 10
73.3000000000001251
 20
-64.9998957656648741
 30
0.0000000000000144
 11
73.3000000000001251
 21
-68.0998957656648969
 31
0.0000000000000151
210
0.0
220
1.0
230
-0.0000000000000002
  0
LINE
  5
195D2
  8
0
  6
CONTINUOUS
 62
     3
 10
-73.2999999999998977
 20
-64.9998957656648741
 30
0.0000000000000144
 11
-73.2999999999998977
 21
-68.0998957656648969
 31
0.0000000000000151
210
0.0
220
1.0
230
-0.0000000000000002
  0
LINE
  5
195D3
  8
0
  6
CONTINUOUS
 62
     3
 10
73.3000000000001251
 20
-68.0998957656648969
 30
0.0000000000000151
 11
75.7000000000001592
 21
-70.4998957656648741
 31
0.0000000000000157
210
0.0
220
1.0
230
-0.0000000000000002
  0
LINE
  5
195D4
  8
0
  6
CONTINUOUS
 62
     3
 10
-73.2999999999998977
 20
-68.0998957656648969
 30
0.0000000000000151
 11
-75.6999999999999318
 21
-70.4998957656648741
 31
0.0000000000000157
210
0.0
220
1.0
230
-0.0000000000000002
  0
LINE
  5
195D5
  8
0
  6
CONTINUOUS
 62
     3
 10
75.7000000000001592
 20
-70.4998957656648741
 30
0.0000000000000157
 11
75.7000000000001592
 21
-71.4998957656648741
 31
0.0000000000000159
210
0.0
220
1.0
230
-0.0000000000000002
  0
LINE
  5
195D6
  8
0
  6
CONTINUOUS
 62
     3
 10
-75.6999999999999318
 20
-70.4998957656648741
 30
0.0000000000000157
 11
-75.6999999999999318
 21
-71.4998957656648741
 31
0.0000000000000159
210
0.0
220
1.0
230
-0.0000000000000002
  0
LINE
  5
195D7
  8
0
  6
CONTINUOUS
 62
     3
 10
-73.4999999999998863
 20
-73.6998957656649196
 30
0.0000000000000164
 11
-75.6999999999999318
 21
-71.4998957656648741
 31
0.0000000000000159
210
0.0
220
1.0
230
-0.0000000000000002
  0
LINE
  5
195D8
  8
0
  6
CONTINUOUS
 62
     3
 10
73.5000000000001137
 20
-73.6998957656649196
 30
0.0000000000000164
 11
75.7000000000001592
 21
-71.4998957656648741
 31
0.0000000000000159
210
0.0
220
1.0
230
-0.0000000000000002
  0
LINE
  5
195D9
  8
0
  6
CONTINUOUS
 62
     3
 10
73.5000000000001137
 20
-73.6998957656649196
 30
0.0000000000000164
 11
73.5000000000001137
 21
-76.1893839890133364
 31
0.0000000000000169
210
0.0
220
1.0
230
-0.0000000000000002
  0
LINE
  5
195DA
  8
0
  6
CONTINUOUS
 62
     3
 10
-73.4999999999998863
 20
-73.6998957656649196
 30
0.0000000000000164
 11
-73.4999999999998863
 21
-76.1893839890133364
 31
0.0000000000000169
210
0.0
220
1.0
230
-0.0000000000000002
  0
LINE
  5
195DB
  8
0
  6
CONTINUOUS
 62
     3
 10
73.5000000000001137
 20
-76.1893839890133364
 30
0.0000000000000169
 11
75.7000000000001592
 21
-79.9998957656648741
 31
0.0000000000000178
210
0.0
220
1.0
230
-0.0000000000000002
  0
LINE
  5
195DC
  8
0
  6
CONTINUOUS
 62
     3
 10
-73.4999999999998863
 20
-76.1893839890133364
 30
0.0000000000000169
 11
-75.6999999999999318
 21
-79.9998957656648741
 31
0.0000000000000178
210
0.0
220
1.0
230
-0.0000000000000002
  0
ARC
  5
195DD
  8
0
  6
CONTINUOUS
 62
     3
 10
64.4999999999997726
 20
-74.9998957656649736
 30
0.0
 40
5.9999999999998996
210
0.0
220
-0.0000000000000002
230
-1.0
 50
270.0
 51
303.5573097619210898
  0
ARC
  5
195DE
  8
0
  6
CONTINUOUS
 62
     3
 10
-64.5
 20
-74.9998957656649736
 30
0.0
 40
5.9999999999999041
210
0.0
220
-0.0000000000000002
230
-1.0
 50
236.4426902380789102
 51
270.0
  0
ARC
  5
195DF
  8
0
  6
CONTINUOUS
 62
     3
 10
71.4758400866409431
 20
-52.7998957656648926
 30
0.0
 40
2.8000000000000078
210
0.0
220
-0.0000000000000002
230
-1.0
 50
15.0000000000002895
 51
89.5056149120656244
  0
ARC
  5
195E0
  8
0
  6
CONTINUOUS
 62
     3
 10
-71.4758400866411563
 20
-52.7998957656649068
 30
0.0
 40
2.8000000000000211
210
0.0
220
-0.0000000000000002
230
-1.0
 50
90.4943850879346599
 51
164.9999999999996021
  0
LINE
  5
195E1
  8
0
  6
CONTINUOUS
 62
     3
 10
74.180432400250524
 20
-52.0752024393778186
 30
0.0000000000000116
 11
75.5000000000001137
 21
-56.999895765664867
 31
0.0000000000000127
210
0.0
220
1.0
230
-0.0000000000000002
  0
LINE
  5
195E2
  8
0
  6
CONTINUOUS
 62
     3
 10
-74.1804324002503108
 20
-52.0752024393778186
 30
0.0000000000000116
 11
-75.4999999999998863
 21
-56.999895765664867
 31
0.0000000000000127
210
0.0
220
1.0
230
-0.0000000000000002
  0
LINE
  5
195E3
  8
0
  6
VERDECKT
 62
     1
 10
-63.7099256195316528
 20
0.1990074380465372
 30
0.0
 11
63.7099256195318731
 21
0.1990074380465453
 31
0.0
210
0.0
220
1.0
230
-0.0000000000000002
  0
ARC
  5
195E4
  8
0
  6
VERDECKT
 62
     1
 10
41.9999999999994671
 20
62.9999999999998082
 30
0.0
 40
30.0000000000004086
210
0.0
220
-0.0000000000000002
230
-1.0
 50
338.6325470100906045
 51
359.9999999999997726
  0
ARC
  5
195E5
  8
0
  6
VERDECKT
 62
     1
 10
-42.0000000000001634
 20
62.9999999999997087
 30
0.0
 40
29.9999999999999503
210
0.0
220
-0.0000000000000002
230
-1.0
 50
179.9999999999998863
 51
201.3674529899095091
  0
LINE
  5
195E6
  8
0
  6
VERDECKT
 62
     1
 10
-69.519430871011636
 20
50.9999999999997371
 30
-0.0000000000000113
 11
-69.9378880439464439
 21
52.0695648922875165
 31
-0.0000000000000116
210
0.0
220
1.0
230
-0.0000000000000002
  0
LINE
  5
195E7
  8
0
  6
VERDECKT
 62
     1
 10
69.5194308710118634
 20
50.99999999999973
 30
-0.0000000000000113
 11
69.937888043946657
 21
52.0695648922875307
 31
-0.0000000000000116
210
0.0
220
1.0
230
-0.0000000000000002
  0
ARC
  5
195E8
  8
0
  6
VERDECKT
 62
     1
 10
94.5000000000001563
 20
37.9999999999997371
 30
0.0
 40
30.0000000000002593
210
0.0
220
-0.0000000000000002
230
-1.0
 50
158.6325470100906045
 51
180.0
  0
ARC
  5
195E9
  8
0
  6
VERDECKT
 62
     1
 10
-94.4999999999994458
 20
37.9999999999999218
 30
0.0
 40
29.9999999999993108
210
0.0
220
-0.0000000000000002
230
-1.0
 50
0.0
 51
21.3674529899101309
  0
LINE
  5
195EA
  8
0
  6
VERDECKT
 62
     1
 10
-66.5621119560533288
 20
48.9304351077119719
 30
-0.0000000000000109
 11
-68.075362174350019
 21
52.7982605661350206
 31
-0.0000000000000117
210
0.0
220
1.0
230
-0.0000000000000002
  0
LINE
  5
195EB
  8
0
  6
VERDECKT
 62
     1
 10
66.5621119560535561
 20
48.9304351077119932
 30
-0.0000000000000109
 11
68.0753621743502322
 21
52.7982605661350206
 31
-0.0000000000000117
210
0.0
220
1.0
230
-0.0000000000000002
  0
ARC
  5
195EC
  8
0
  6
VERDECKT
 62
     1
 10
42.0000000000001776
 20
62.9999999999997016
 30
0.0
 40
27.9999999999997016
210
0.0
220
-0.0000000000000002
230
-1.0
 50
338.6325470100903203
 51
0.0000000000000763
  0
ARC
  5
195ED
  8
0
  6
VERDECKT
 62
     1
 10
-42.0000000000000426
 20
62.9999999999997513
 30
0.0
 40
28.0000000000000604
210
0.0
220
-0.0000000000000002
230
-1.0
 50
180.0
 51
201.3674529899093955
  0
LINE
  5
195EE
  8
0
  6
VERDECKT
 62
     1
 10
70.0000000000001137
 20
72.9999999999997442
 30
-0.0000000000000162
 11
70.0000000000001137
 21
62.9999999999997371
 31
-0.000000000000014
210
0.0
220
1.0
230
-0.0000000000000002
  0
LINE
  5
195EF
  8
0
  6
VERDECKT
 62
     1
 10
-69.9999999999998863
 20
72.99999999999973
 30
-0.0000000000000162
 11
-69.9999999999998863
 21
62.9999999999997371
 31
-0.000000000000014
210
0.0
220
1.0
230
-0.0000000000000002
  0
LINE
  5
195F0
  8
0
  6
VERDECKT
 62
     1
 10
72.0000000000486153
 20
70.9999999999997158
 30
-0.0000000000000158
 11
72.0000000000486153
 21
62.99999999999973
 31
-0.000000000000014
210
0.0
220
1.0
230
-0.0000000000000002
  0
LINE
  5
195F1
  8
0
  6
VERDECKT
 62
     1
 10
-72.0000000000483737
 20
70.9999999999997158
 30
-0.0000000000000158
 11
-72.0000000000483737
 21
62.99999999999973
 31
-0.000000000000014
210
0.0
220
1.0
230
-0.0000000000000002
  0
ARC
  5
195F2
  8
0
  6
VERDECKT
 62
     1
 10
63.4999999999805524
 20
8.1496268636070202
 30
0.0
 40
0.9999999999950759
210
0.0
220
-0.0000000000000002
230
-1.0
 50
354.2894068624837018
 51
0.0000000000115136
  0
ARC
  5
195F3
  8
0
  6
VERDECKT
 62
     1
 10
-63.4999999999808225
 20
8.1496268636070308
 30
0.0
 40
0.9999999999950404
210
0.0
220
-0.0000000000000002
230
-1.0
 50
179.9999999999886029
 51
185.7105931375164118
  0
LINE
  5
195F4
  8
0
  6
VERDECKT
 62
     1
 10
-63.7099256195316528
 20
0.1990074380465359
 30
0.0
 11
-64.495037190185613
 21
8.0501231445862231
 31
-0.0000000000000018
210
0.0
220
1.0
230
-0.0000000000000002
  0
LINE
  5
195F5
  8
0
  6
VERDECKT
 62
     1
 10
63.7099256195318802
 20
0.1990074380465395
 30
0.0
 11
64.4950371901858404
 21
8.0501231445862338
 31
-0.0000000000000018
210
0.0
220
1.0
230
-0.0000000000000002
  0
LINE
  5
195F6
  8
0
  6
VERDECKT
 62
     1
 10
64.4999999999758558
 20
37.9999999999997371
 30
-0.0000000000000084
 11
64.4999999999758558
 21
8.1496268636072298
 31
-0.0000000000000018
210
0.0
220
1.0
230
-0.0000000000000002
  0
LINE
  5
195F7
  8
0
  6
VERDECKT
 62
     1
 10
-64.4999999999756284
 20
37.99999999999973
 30
-0.0000000000000084
 11
-64.4999999999756284
 21
8.1496268636072227
 31
-0.0000000000000018
210
0.0
220
1.0
230
-0.0000000000000002
  0
LINE
  5
195F8
  8
0
  6
VERDECKT
 62
     1
 10
63.7099256195318731
 20
0.199007438046541
 30
0.0
 11
65.7000000000001165
 21
-0.0000000000002832
 31
0.0
210
0.0
220
1.0
230
-0.0000000000000002
  0
LINE
  5
195F9
  8
0
  6
VERDECKT
 62
     1
 10
-63.7099256195316528
 20
0.199007438046533
 30
0.0
 11
-65.6999999999998892
 21
-0.0000000000002915
 31
0.0
210
0.0
220
1.0
230
-0.0000000000000002
  0
LINE
  5
195FA
  8
0
  6
VERDECKT
 62
     1
 10
-70.2499999999998863
 20
51.5920728806473434
 30
-0.0000000000000115
 11
70.2500000000001137
 21
51.5920728806473434
 31
-0.0000000000000115
210
0.0
220
1.0
230
-0.0000000000000002
  0
LINE
  5
195FB
  8
0
  6
VERDECKT
 62
     1
 10
70.2500000000001137
 20
51.5920728806473505
 30
-0.0000000000000115
 11
72.1603532929806732
 21
50.9999999999997513
 31
-0.0000000000000113
210
0.0
220
1.0
230
-0.0000000000000002
  0
LINE
  5
195FC
  8
0
  6
VERDECKT
 62
     1
 10
-70.2499999999998863
 20
51.5920728806473505
 30
-0.0000000000000115
 11
-72.1603532929804459
 21
50.9999999999997513
 31
-0.0000000000000113
210
0.0
220
1.0
230
-0.0000000000000002
  0
LINE
  5
195FD
  8
0
  6
VERDECKT
 62
     1
 10
-70.2499999999998863
 20
51.5920728806473434
 30
-0.0000000000000115
 11
-71.8485967777483836
 21
56.7500267716948485
 31
-0.0000000000000126
210
0.0
220
1.0
230
-0.0000000000000002
  0
LINE
  5
195FE
  8
0
  6
VERDECKT
 62
     1
 10
70.2500000000001137
 20
51.5920728806473434
 30
-0.0000000000000115
 11
71.848596777748611
 21
56.7500267716948485
 31
-0.0000000000000126
210
0.0
220
1.0
230
-0.0000000000000002
  0
ARC
  5
195FF
  8
0
  6
VERDECKT
 62
     1
 10
57.9673251498186417
 20
61.0522281027256213
 30
0.0
 40
14.5326748501812499
210
0.0
220
-0.0000000000000002
230
-1.0
 50
342.7803027270546181
 51
12.8280495223830204
  0
ARC
  5
19600
  8
0
  6
VERDECKT
 62
     1
 10
-57.967325149818862
 20
61.0522281027256213
 30
0.0
 40
14.5326748501812499
210
0.0
220
-0.0000000000000002
230
-1.0
 50
167.171950477616889
 51
197.2196972729454103
  0
ARC
  5
19601
  8
0
  6
VERDECKT
 62
     1
 10
77.4999999999999005
 20
65.49999999999973
 30
0.0
 40
5.5000000000000284
210
0.0
220
-0.0000000000000002
230
-1.0
 50
90.0000000000001705
 51
192.8280495223827131
  0
ARC
  5
19602
  8
0
  6
VERDECKT
 62
     1
 10
-77.5000000000001279
 20
65.49999999999973
 30
0.0
 40
5.5000000000000249
210
0.0
220
-0.0000000000000002
230
-1.0
 50
347.1719504776173153
 51
89.9999999999998437
  0
LINE
  5
19603
  8
0
  6
VERDECKT
 62
     1
 10
-70.6999999999999318
 20
-76.9998957656648741
 30
0.0000000000000171
 11
70.7000000000001592
 21
-76.9998957656648741
 31
0.0000000000000171
210
0.0
220
1.0
230
-0.0000000000000002
  0
LINE
  5
19604
  8
0
  6
VERDECKT
 62
     1
 10
-61.4999999999998792
 20
-78.9998957656648741
 30
0.0000000000000175
 11
61.5000000000001066
 21
-78.9998957656648741
 31
0.0000000000000175
210
0.0
220
1.0
230
-0.0000000000000002
  0
LINE
  5
19605
  8
0
  6
VERDECKT
 62
     1
 10
70.7000000000001592
 20
-76.9998957656648741
 30
0.0000000000000171
 11
73.7000000000001592
 21
-79.9998957656648741
 31
0.0000000000000178
210
0.0
220
1.0
230
-0.0000000000000002
  0
LINE
  5
19606
  8
0
  6
VERDECKT
 62
     1
 10
-70.6999999999999318
 20
-76.9998957656648741
 30
0.0000000000000171
 11
-73.6999999999999318
 21
-79.9998957656648741
 31
0.0000000000000178
210
0.0
220
1.0
230
-0.0000000000000002
  0
ARC
  5
19607
  8
0
  6
VERDECKT
 62
     1
 10
64.4999999999997868
 20
-74.9998957656649736
 30
0.0
 40
5.9999999999998836
210
0.0
220
-0.0000000000000002
230
-1.0
 50
303.5573097619209761
 51
340.5287793655102178
  0
ARC
  5
19608
  8
0
  6
VERDECKT
 62
     1
 10
-64.4999999999998437
 20
-74.9998957656648599
 30
0.0
 40
6.0000000000000773
210
0.0
220
-0.0000000000000002
230
-1.0
 50
199.4712206344902086
 51
236.4426902380783986
  0
LINE
  5
19609
  8
0
  6
VERDECKT
 62
     1
 10
61.5000000000001066
 20
-78.9998957656648741
 30
0.0000000000000175
 11
61.5000000000001066
 21
-80.9998957656648741
 31
0.000000000000018
210
0.0
220
1.0
230
-0.0000000000000002
  0
LINE
  5
1960A
  8
0
  6
VERDECKT
 62
     1
 10
-61.4999999999998792
 20
-78.9998957656648741
 30
0.0000000000000175
 11
-61.4999999999998792
 21
-80.9998957656648741
 31
0.000000000000018
210
0.0
220
1.0
230
-0.0000000000000002
  0
ARC
  5
1960B
  8
0
  6
VERDECKT
 62
     1
 10
61.4999999999999076
 20
-72.9998957656648741
 30
0.0
 40
5.9999999999999849
210
0.0
220
-0.0000000000000002
230
-1.0
 50
270.0
 51
0.0000000000003435
  0
ARC
  5
1960C
  8
0
  6
VERDECKT
 62
     1
 10
-61.5000000000001279
 20
-72.9998957656648741
 30
0.0
 40
5.9999999999999778
210
0.0
220
-0.0000000000000002
230
-1.0
 50
179.999999999999801
 51
270.0000000000002274
  0
LINE
  5
1960D
  8
0
  6
VERDECKT
 62
     1
 10
67.5000000000001137
 20
-56.999895765664867
 30
0.0000000000000127
 11
67.5000000000001137
 21
-72.9998957656648741
 31
0.0000000000000162
210
0.0
220
1.0
230
-0.0000000000000002
  0
LINE
  5
1960E
  8
0
  6
VERDECKT
 62
     1
 10
-67.4999999999998863
 20
-56.999895765664867
 30
0.0000000000000127
 11
-67.4999999999998863
 21
-72.9998957656648741
 31
0.0000000000000162
210
0.0
220
1.0
230
-0.0000000000000002
  0
LINE
  5
1960F
  8
0
  6
VERDECKT
 62
     1
 10
-67.4999999999998863
 20
-56.999895765664867
 30
0.0000000000000127
 11
-68.8195675997493908
 21
-52.075202439377847
 31
0.0000000000000116
210
0.0
220
1.0
230
-0.0000000000000002
  0
LINE
  5
19610
  8
0
  6
VERDECKT
 62
     1
 10
67.5000000000001137
 20
-56.999895765664867
 30
0.0000000000000127
 11
68.8195675997496039
 21
-52.075202439377847
 31
0.0000000000000116
210
0.0
220
1.0
230
-0.0000000000000002
  0
ARC
  5
19611
  8
0
  6
VERDECKT
 62
     1
 10
71.5241599133588153
 20
-52.7998957656649068
 30
0.0
 40
2.8000000000000269
210
0.0
220
-0.0000000000000002
230
-1.0
 50
90.4943850879311782
 51
165.0
  0
ARC
  5
19612
  8
0
  6
VERDECKT
 62
     1
 10
-71.5241599133590427
 20
-52.7998957656649068
 30
0.0
 40
2.800000000000034
210
0.0
220
-0.0000000000000002
230
-1.0
 50
15.0
 51
89.5056149120688076
  0
ENDBLK
  5
19614
  8
0
  0
BLOCK
  8
0
  2
A$C873C008D
 70
     0
 10
0.0
 20
0.0
 30
0.0
  3
A$C873C008D
  1

  0
CIRCLE
  5
19618
  8
0
  6
CONTINUOUS
 62
     3
 10
0.0000000000001199
 20
0.0000000000000021
 30
0.0
 40
64.5
  0
CIRCLE
  5
19619
  8
0
  6
CONTINUOUS
 62
     3
 10
0.0000000000001255
 20
0.0000000000000043
 30
0.0
 40
69.9999999999999858
  0
CIRCLE
  5
1961A
  8
0
  6
CONTINUOUS
 62
     3
 10
0.0000000000001255
 20
0.0000000000000043
 30
0.0
 40
72.0000000000485016
  0
CIRCLE
  5
1961B
  8
0
  6
CONTINUOUS
 62
     3
 10
0.0000000000001137
 20
0.0
 30
0.0
 40
63.7099256195317594
  0
CIRCLE
  5
1961C
  8
0
  6
CONTINUOUS
 62
     3
 10
0.0000000000001295
 20
0.0000000000000042
 30
0.0
 40
150.0
  0
CIRCLE
  5
1961D
  8
0
  6
CONTINUOUS
 62
     3
 10
0.0000000000000961
 20
0.0000000000000018
 30
0.0
 40
61.5
  0
CIRCLE
  5
1961E
  8
0
  6
VERDECKT
 62
     1
 10
0.0000000000001199
 20
0.0000000000000021
 30
0.0
 40
66.5
  0
CIRCLE
  5
1961F
  8
0
  6
VERDECKT
 62
     1
 10
0.0000000000001137
 20
0.0
 30
0.0
 40
65.7000000000000028
  0
CIRCLE
  5
19620
  8
0
  6
VERDECKT
 62
     1
 10
0.000000000000125
 20
0.0000000000000314
 30
0.0
 40
72.1603532929805596
  0
CIRCLE
  5
19621
  8
0
  6
VERDECKT
 62
     1
 10
0.0000000000001251
 20
0.0000000000000314
 30
0.0
 40
70.25
  0
CIRCLE
  5
19622
  8
0
  6
VERDECKT
 62
     1
 10
0.0000000000001282
 20
0.0000000000000322
 30
0.0
 40
74.0
  0
CIRCLE
  5
19623
  8
0
  6
VERDECKT
 62
     1
 10
0.0000000000001272
 20
0.000000000000032
 30
0.0
 40
74.5
  0
CIRCLE
  5
19624
  8
0
  6
VERDECKT
 62
     1
 10
0.0000000000001272
 20
0.000000000000032
 30
0.0
 40
72.5
  0
CIRCLE
  5
19625
  8
0
  6
VERDECKT
 62
     1
 10
0.000000000000101
 20
0.0000000000000031
 30
0.0
 40
75.5
  0
CIRCLE
  5
19626
  8
0
  6
VERDECKT
 62
     1
 10
0.0000000000001004
 20
0.0000000000000029
 30
0.0
 40
71.4801488286690301
  0
CIRCLE
  5
19627
  8
0
  6
VERDECKT
 62
     1
 10
0.0000000000000993
 20
0.0000000000000026
 30
0.0
 40
73.3000000000000114
  0
CIRCLE
  5
19628
  8
0
  6
VERDECKT
 62
     1
 10
0.000000000000098
 20
0.0000000000000023
 30
0.0
 40
75.7000000000000455
  0
CIRCLE
  5
19629
  8
0
  6
VERDECKT
 62
     1
 10
0.0000000000000973
 20
0.0000000000000021
 30
0.0
 40
73.5
  0
CIRCLE
  5
1962A
  8
0
  6
VERDECKT
 62
     1
 10
0.0000000000000959
 20
0.0000000000000017
 30
0.0
 40
73.7000000000000455
  0
CIRCLE
  5
1962B
  8
0
  6
VERDECKT
 62
     1
 10
0.0000000000000966
 20
0.0000000000000019
 30
0.0
 40
70.7000000000000455
  0
CIRCLE
  5
1962C
  8
0
  6
VERDECKT
 62
     1
 10
0.0000000000000966
 20
0.0000000000000019
 30
0.0
 40
70.1568542494921985
  0
CIRCLE
  5
1962D
  8
0
  6
VERDECKT
 62
     1
 10
0.000000000000101
 20
0.0000000000000031
 30
0.0
 40
67.5
  0
ENDBLK
  5
1962F
  8
0
  0
ENDSEC
  0
SECTION
  2
ENTITIES
  0
TEXT
  5
416B
  8
VOLL
 10
441.2467849443549994
 20
195.2108867802037935
 30
0.0
 40
1.8
  1

  7
GREEKS
  0
INSERT
  5
46F1
  8
ADSK_ASSOC_ENTITY_BACKUPS
  2
*S0
 10
0.0
 20
0.0
 30
0.0
  0
INSERT
  5
19615
  8
STEMPEL
  2
A$CEC4D4BA8
 10
0.0
 20
0.0
 30
0.0
  0
INSERT
  5
19630
  8
STEMPEL
  2
A$C873C008D
 10
0.0
 20
-280.9998957656649168
 30
0.000000000000018
  0
VIEWPORT
  5
46D0
 67
     1
  8
0
 10
145.4668235470674915
 20
205.7064238376007097
 30
0.0
 40
790.2674510967764263
 41
422.1483375959078899
 68
     1
 69
     1
1001
ACAD
1000
MVIEW
1002
{
1070
    16
1010
0.0
1020
0.0
1030
0.0
1010
0.0
1020
0.0
1030
1.0
1040
0.0
1040
422.1483375959078899
1040
145.4668235470674915
1040
205.7064238376007097
1040
50.0
1040
0.0
1040
0.0
1070
     0
1070
  1500
1070
     1
1070
     1
1070
     0
1070
     0
1070
     0
1070
     0
1040
0.0
1040
0.0
1040
0.0
1040
10.0
1040
10.0
1040
10.0
1040
10.0
1070
     0
1002
{
1002
}
1002
}
  0
ENDSEC
  0
EOF
