  0
SECTION
  2
HEADER
  9
$ACADVER
  1
AC1009
  9
$INSBASE
 10
0.0
 20
0.0
 30
0.0
  9
$EXTMIN
 10
-122.5165545230458974
 20
-422.0292726672827825
 30
-0.0015258207003583
  9
$EXTMAX
 10
122.5090798962733061
 20
70.0068980308797109
 30
0.0000000349246037
  9
$LIMMIN
 10
0.0
 20
0.0
  9
$LIMMAX
 10
419.9999999999998863
 20
594.0
  9
$ORTHOMODE
 70
     1
  9
$REGENMODE
 70
     1
  9
$FILLMODE
 70
     1
  9
$QTEXTMODE
 70
     0
  9
$MIRRTEXT
 70
     1
  9
$DRAGMODE
 70
     2
  9
$LTSCALE
 40
20.0
  9
$OSMODE
 70
   511
  9
$ATTMODE
 70
     1
  9
$TEXTSIZE
 40
3.5
  9
$TRACEWID
 40
1.0
  9
$TEXTSTYLE
  7
STANDARD
  9
$CLAYER
  8
STEMPEL
  9
$CELTYPE
  6
BYLAYER
  9
$CECOLOR
 62
   256
  9
$DIMSCALE
 40
1.0
  9
$DIMASZ
 40
3.5
  9
$DIMEXO
 40
1.0
  9
$DIMDLI
 40
0.38
  9
$DIMRND
 40
0.0
  9
$DIMDLE
 40
0.0
  9
$DIMEXE
 40
1.0
  9
$DIMTP
 40
0.0
  9
$DIMTM
 40
0.000000001
  9
$DIMTXT
 40
3.5
  9
$DIMCEN
 40
0.09
  9
$DIMTSZ
 40
0.0
  9
$DIMTOL
 70
     0
  9
$DIMLIM
 70
     0
  9
$DIMTIH
 70
     0
  9
$DIMTOH
 70
     0
  9
$DIMSE1
 70
     0
  9
$DIMSE2
 70
     0
  9
$DIMTAD
 70
     1
  9
$DIMZIN
 70
     8
  9
$DIMBLK
  1

  9
$DIMASO
 70
     1
  9
$DIMSHO
 70
     0
  9
$DIMPOST
  1

  9
$DIMAPOST
  1

  9
$DIMALT
 70
     0
  9
$DIMALTD
 70
     2
  9
$DIMALTF
 40
25.3999999999999986
  9
$DIMLFAC
 40
2.0
  9
$DIMTOFL
 70
     1
  9
$DIMTVP
 40
0.0
  9
$DIMTIX
 70
     0
  9
$DIMSOXD
 70
     0
  9
$DIMSAH
 70
     0
  9
$DIMBLK1
  1

  9
$DIMBLK2
  1

  9
$DIMSTYLE
  2
LORO
  9
$DIMCLRD
 70
     0
  9
$DIMCLRE
 70
     0
  9
$DIMCLRT
 70
     1
  9
$DIMTFAC
 40
0.5
  9
$DIMGAP
 40
1.5
  9
$LUNITS
 70
     2
  9
$LUPREC
 70
     2
  9
$SKETCHINC
 40
1.0
  9
$FILLETRAD
 40
2.0
  9
$AUNITS
 70
     0
  9
$AUPREC
 70
     0
  9
$MENU
  1
ACAD
  9
$ELEVATION
 40
0.0
  9
$PELEVATION
 40
0.0
  9
$THICKNESS
 40
0.0
  9
$LIMCHECK
 70
     0
  9
$BLIPMODE
 70
     0
  9
$CHAMFERA
 40
0.0
  9
$CHAMFERB
 40
0.0
  9
$SKPOLY
 70
     0
  9
$TDCREATE
 40
2455397.867048610933125
  9
$TDUPDATE
 40
2459710.6200578701682389
  9
$TDINDWG
 40
0.5929337153000001
  9
$TDUSRTIMER
 40
0.5929337153000001
  9
$USRTIMER
 70
     1
  9
$ANGBASE
 50
0.0
  9
$ANGDIR
 70
     0
  9
$PDMODE
 70
     0
  9
$PDSIZE
 40
0.0
  9
$PLINEWID
 40
0.0
  9
$COORDS
 70
     1
  9
$SPLFRAME
 70
     0
  9
$SPLINETYPE
 70
     6
  9
$SPLINESEGS
 70
     8
  9
$ATTDIA
 70
     1
  9
$ATTREQ
 70
     1
  9
$HANDLING
 70
     1
  9
$HANDSEED
  5
2CC1
  9
$SURFTAB1
 70
     6
  9
$SURFTAB2
 70
     6
  9
$SURFTYPE
 70
     6
  9
$SURFU
 70
     6
  9
$SURFV
 70
     6
  9
$UCSNAME
  2

  9
$UCSORG
 10
0.0
 20
0.0
 30
0.0
  9
$UCSXDIR
 10
1.0
 20
0.0
 30
0.0
  9
$UCSYDIR
 10
0.0
 20
1.0
 30
0.0
  9
$PUCSNAME
  2

  9
$PUCSORG
 10
0.0
 20
0.0
 30
0.0
  9
$PUCSXDIR
 10
1.0
 20
0.0
 30
0.0
  9
$PUCSYDIR
 10
0.0
 20
1.0
 30
0.0
  9
$USERI1
 70
     0
  9
$USERI2
 70
     0
  9
$USERI3
 70
     0
  9
$USERI4
 70
     0
  9
$USERI5
 70
     0
  9
$USERR1
 40
0.0
  9
$USERR2
 40
0.0
  9
$USERR3
 40
0.0
  9
$USERR4
 40
0.0
  9
$USERR5
 40
0.0
  9
$WORLDVIEW
 70
     1
  9
$SHADEDGE
 70
     3
  9
$SHADEDIF
 70
    70
  9
$TILEMODE
 70
     1
  9
$MAXACTVP
 70
    16
  9
$PLIMCHECK
 70
     0
  9
$PEXTMIN
 10
1.0000000000000000E+20
 20
1.0000000000000000E+20
 30
1.0000000000000000E+20
  9
$PEXTMAX
 10
-1.0000000000000000E+20
 20
-1.0000000000000000E+20
 30
-1.0000000000000000E+20
  9
$PLIMMIN
 10
-3.0252633531555371
 20
-4.2951718992451333
  9
$PLIMMAX
 10
293.9747366468445193
 20
415.7048281007548098
  9
$UNITMODE
 70
     0
  9
$VISRETAIN
 70
     0
  9
$PLINEGEN
 70
     0
  9
$PSLTSCALE
 70
     0
  0
ENDSEC
  0
SECTION
  2
TABLES
  0
TABLE
  2
VPORT
 70
     1
  0
VPORT
  2
*ACTIVE
 70
     0
 10
0.0
 20
0.0
 11
1.0
 21
1.0
 12
-0.0037373133862957
 22
-176.0111873182015074
 13
0.0
 23
0.0
 14
1.0
 24
1.0
 15
10.0
 25
10.0
 16
-0.0000000000001981
 26
0.0
 36
892.3769019873643629
 17
0.0
 27
0.0
 37
0.0000000000000008
 40
494.5529797554420952
 41
1.8720136518771331
 42
50.0
 43
0.0
 44
0.0
 50
0.0
 51
0.0
 71
     0
 72
  1500
 73
     1
 74
     0
 75
     0
 76
     0
 77
     0
 78
     0
  0
ENDTAB
  0
TABLE
  2
LTYPE
 70
     3
  0
LTYPE
  2
CONTINUOUS
 70
     0
  3
Solid line
 72
    65
 73
     0
 40
0.0
  0
LTYPE
  2
STRICHPUNKT
 70
     0
  3
__ . __ . __ . __ . __ . __ . __ . __ . __ . __
 72
    65
 73
     4
 40
1.0
 49
0.5
 49
-0.25
 49
0.0
 49
-0.25
  0
LTYPE
  2
VERDECKT
 70
     0
  3
Verdeckt __ __ __ __ __ __ __ __ __ __ __ __ __
 72
    65
 73
     2
 40
0.375
 49
0.25
 49
-0.125
  0
ENDTAB
  0
TABLE
  2
LAYER
 70
     7
  0
LAYER
  2
0
 70
     0
 62
     7
  6
CONTINUOUS
  0
LAYER
  2
VOLL
 70
     0
 62
     1
  6
CONTINUOUS
  0
LAYER
  2
STEMPEL
 70
     0
 62
     3
  6
CONTINUOUS
  0
LAYER
  2
DEFPOINTS
 70
     0
 62
     7
  6
CONTINUOUS
  0
LAYER
  2
ADSK_ASSOC_ENTITY_BACKUPS
 70
     1
 62
    -7
  6
CONTINUOUS
  0
ENDTAB
  0
TABLE
  2
STYLE
 70
     3
  0
STYLE
  2
STANDARD
 70
     0
 40
0.0
 41
0.8
 50
0.0
 71
     0
 42
3.5
  3
simplex.shx
  4

  0
STYLE
  2
GREEKS
 70
     0
 40
0.0
 41
0.8
 50
0.0
 71
     0
 42
2.5
  3
SIMPLEX.shx
  4

  0
ENDTAB
  0
TABLE
  2
VIEW
 70
     0
  0
ENDTAB
  0
TABLE
  2
UCS
 70
     0
  0
ENDTAB
  0
TABLE
  2
APPID
 70
    21
  0
APPID
  2
ACAD
 70
     0
  0
APPID
  2
ACAECLAYERSTANDARD
 70
     0
  0
APPID
  2
ACCMTRANSPARENCY
 70
     0
  0
APPID
  2
ACAD_NAV_VCDISPLAY
 70
     0
  0
APPID
  2
ACAD_PSEXT
 70
     0
  0
APPID
  2
ACAD_EXEMPT_FROM_CAD_STANDARDS
 70
     0
  0
APPID
  2
ACSYNERGY
 70
     0
  0
APPID
  2
SYNERGY_BODY_TBR_ID
 70
     0
  0
APPID
  2
ACAD_VIEW_EDGE_ID
 70
     0
  0
APPID
  2
ACSYNERGYSKETCH
 70
     0
  0
APPID
  2
ACAD_MODELDOC_XFORM
 70
     0
  0
APPID
  2
ACAD_MLEADERVER
 70
     0
  0
APPID
  2
ACADANNOMONITORALERTICONDI
 70
     0
  0
APPID
  2
ACAD_DSTYLE_DIMJAG
 70
     0
  0
APPID
  2
ACAD_DSTYLE_DIMTALN
 70
     0
  0
APPID
  2
ACAD_DSTYLE_DIMBREAK
 70
     0
  0
APPID
  2
ACAD_STEPID
 70
     0
  0
APPID
  2
ACAD_TC
 70
     0
  0
APPID
  2
ACDBDYNAMICBLOCKGUID
 70
     0
  0
APPID
  2
ACADANNOPO
 70
     0
  0
APPID
  2
PLOTTRANSPARENCY
 70
     0
  0
ENDTAB
  0
TABLE
  2
DIMSTYLE
 70
     2
  0
DIMSTYLE
  2
STANDARD
 70
     0
  3

  4

  5

  6

  7

 40
1.0
 41
0.18
 42
0.0625
 43
0.38
 44
0.18
 45
0.0
 46
0.0
 47
0.0
 48
0.0
140
0.18
141
0.09
142
0.0
143
25.3999999999999986
144
1.0
145
0.0
146
1.0
147
0.09
 71
     0
 72
     0
 73
     1
 74
     1
 75
     0
 76
     0
 77
     0
 78
     0
170
     0
171
     2
172
     0
173
     0
174
     0
175
     0
176
     0
177
     0
178
     0
  0
DIMSTYLE
  2
LORO
 70
     0
  3

  4

  5

  6

  7

 40
1.0
 41
3.5
 42
1.0
 43
0.38
 44
1.0
 45
0.0
 46
0.0
 47
0.0
 48
0.000000001
140
3.5
141
0.09
142
0.0
143
25.3999999999999986
144
2.0
145
0.0
146
0.5
147
1.5
 71
     0
 72
     0
 73
     0
 74
     0
 75
     0
 76
     0
 77
     1
 78
     8
170
     0
171
     2
172
     1
173
     0
174
     0
175
     0
176
     0
177
     0
178
     1
  0
ENDTAB
  0
ENDSEC
  0
SECTION
  2
BLOCKS
  0
BLOCK
  8
0
  2
$MODEL_SPACE
 70
     0
 10
0.0
 20
0.0
 30
0.0
  3
$MODEL_SPACE
  1

  0
ENDBLK
  5
38
  8
0
  0
BLOCK
 67
     1
  8
0
  2
$PAPER_SPACE
 70
     0
 10
0.0
 20
0.0
 30
0.0
  3
$PAPER_SPACE
  1

  0
ENDBLK
  5
36
 67
     1
  8
0
  0
BLOCK
  8
0
  2
*S0
 70
     1
 10
0.0
 20
0.0
 30
0.0
  3
*S0
  1

  0
ENDBLK
  5
ACE
  8
0
  0
BLOCK
  8
0
  2
A$C6D02350B
 70
     0
 10
0.0
 20
0.0
 30
0.0
  3
A$C6D02350B
  1

  0
CIRCLE
  5
2BED
  8
0
  6
CONTINUOUS
 62
     3
 10
-0.0000000000000168
 20
0.0000000000000018
 30
0.0
 40
47.5
  0
CIRCLE
  5
2BEE
  8
0
  6
CONTINUOUS
 62
     3
 10
0.0000000000000853
 20
0.0
 30
0.0
 40
49.2074442146850117
  0
CIRCLE
  5
2BEF
  8
0
  6
CONTINUOUS
 62
     3
 10
0.0000000000000916
 20
0.0000000000000024
 30
0.0
 40
50.0
  0
CIRCLE
  5
2BF0
  8
0
  6
CONTINUOUS
 62
     3
 10
0.0000000000000964
 20
0.0000000000000043
 30
0.0
 40
59.0
  0
CIRCLE
  5
2BF1
  8
0
  6
CONTINUOUS
 62
     3
 10
0.0000000000000964
 20
0.0000000000000043
 30
0.0
 40
60.5
  0
CIRCLE
  5
2BF2
  8
0
  6
CONTINUOUS
 62
     3
 10
-0.0000000000000133
 20
0.0
 30
0.0
 40
122.5
  0
CIRCLE
  5
2BF3
  8
0
  6
VERDECKT
 62
     1
 10
-0.0000000000000133
 20
0.0000000000000028
 30
0.0
 40
51.8000000000000114
  0
CIRCLE
  5
2BF4
  8
0
  6
VERDECKT
 62
     1
 10
-0.0000000000000715
 20
-0.0016575748095089
 30
0.0
 40
57.75
  0
CIRCLE
  5
2BF5
  8
0
  6
VERDECKT
 62
     1
 10
-0.0000000000000726
 20
-0.0016575748095092
 30
0.0
 40
57.1171444324796695
  0
CIRCLE
  5
2BF6
  8
0
  6
VERDECKT
 62
     1
 10
-0.0000000000000735
 20
-0.0016575748095095
 30
0.0
 40
60.0
  0
CIRCLE
  5
2BF7
  8
0
  6
VERDECKT
 62
     1
 10
-0.0000000000000735
 20
-0.0016575748095095
 30
0.0
 40
58.0
  0
CIRCLE
  5
2BF8
  8
0
  6
VERDECKT
 62
     1
 10
-0.0000000000000731
 20
-0.0016575748095094
 30
0.0
 40
56.5995849235806077
  0
CIRCLE
  5
2BF9
  8
0
  6
VERDECKT
 62
     1
 10
-0.0000000000000731
 20
-0.0016575748095094
 30
0.0
 40
54.3989794855663717
  0
CIRCLE
  5
2BFA
  8
0
  6
VERDECKT
 62
     1
 10
-0.0000000000000695
 20
-0.0016575748095084
 30
0.0
 40
59.5
  0
CIRCLE
  5
2BFB
  8
0
  6
VERDECKT
 62
     1
 10
-0.0000000000000697
 20
-0.0016575748095084
 30
0.0
 40
54.8394515204001891
  0
CIRCLE
  5
2BFC
  8
0
  6
VERDECKT
 62
     1
 10
0.0000000000000916
 20
0.0000000000000024
 30
0.0
 40
51.4999999999999929
  0
CIRCLE
  5
2BFD
  8
0
  6
VERDECKT
 62
     1
 10
0.0000000000000853
 20
0.0
 30
0.0
 40
50.7000000000000028
  0
CIRCLE
  5
2BFE
  8
0
  6
VERDECKT
 62
     1
 10
-0.0000000000000159
 20
-0.0000000000000079
 30
0.0
 40
59.4027289799050706
  0
CIRCLE
  5
2BFF
  8
0
  6
VERDECKT
 62
     1
 10
-0.0000000000000162
 20
-0.0000000000000081
 30
0.0
 40
61.0
  0
ENDBLK
  5
2C01
  8
0
  0
BLOCK
  8
0
  2
A$C4D987CD8
 70
     0
 10
0.0
 20
0.0
 30
0.0
  3
A$C4D987CD8
  1

  0
LINE
  5
2C05
  8
0
  6
CONTINUOUS
 62
     3
 10
-55.6090464708852892
 20
-50.0000000000000071
 30
0.0000000000000111
 11
55.6090464708851684
 21
-50.0000000000000071
 31
0.0000000000000111
210
0.0
220
1.0
230
-0.0000000000000002
  0
LINE
  5
2C06
  8
0
  6
CONTINUOUS
 62
     3
 10
-57.7500000000000497
 20
-66.0000000000000995
 30
0.0000000000000147
 11
57.7499999999999503
 21
-66.0000000000000995
 31
0.0000000000000147
210
0.0
220
1.0
230
-0.0000000000000002
  0
LINE
  5
2C07
  8
0
  6
CONTINUOUS
 62
     3
 10
-59.5000000000000568
 20
-67.5000000000001563
 30
0.000000000000015
 11
59.4999999999999432
 21
-67.5000000000001563
 31
0.000000000000015
210
0.0
220
1.0
230
-0.0000000000000002
  0
LINE
  5
2C08
  8
0
  6
CONTINUOUS
 62
     3
 10
-59.5000000000000568
 20
-68.5000000000001137
 30
0.0000000000000152
 11
59.4999999999999432
 21
-68.5000000000001137
 31
0.0000000000000152
210
0.0
220
1.0
230
-0.0000000000000002
  0
LINE
  5
2C09
  8
0
  6
CONTINUOUS
 62
     3
 10
-57.1171444324797335
 20
-70.8828555675204655
 30
0.0000000000000157
 11
57.1171444324796127
 21
-70.8828555675204655
 31
0.0000000000000157
210
0.0
220
1.0
230
-0.0000000000000002
  0
LINE
  5
2C0A
  8
0
  6
CONTINUOUS
 62
     3
 10
-60.0000000000000568
 20
-75.0000000000000711
 30
0.0000000000000167
 11
59.9999999999999432
 21
-75.0000000000000711
 31
0.0000000000000167
210
0.0
220
1.0
230
-0.0000000000000002
  0
LINE
  5
2C0B
  8
0
  6
CONTINUOUS
 62
     3
 10
-49.5000000000000568
 20
-77.0000000000000853
 30
0.0000000000000171
 11
49.4999999999999432
 21
-77.0000000000000853
 31
0.0000000000000171
210
0.0
220
1.0
230
-0.0000000000000002
  0
LINE
  5
2C0C
  8
0
  6
CONTINUOUS
 62
     3
 10
-59.5000000000000568
 20
-57.0000000000001279
 30
0.0000000000000127
 11
59.4999999999999432
 21
-57.0000000000001279
 31
0.0000000000000127
210
0.0
220
1.0
230
-0.0000000000000002
  0
ARC
  5
2C0D
  8
0
  6
CONTINUOUS
 62
     3
 10
55.6394515204002573
 20
-57.8000000000001606
 30
0.0
 40
0.8000000000000042
210
0.0
220
-0.0000000000000002
230
-1.0
 50
89.9999999999959357
 51
199.8552143693231073
  0
ARC
  5
2C0E
  8
0
  6
CONTINUOUS
 62
     3
 10
-55.6394515204001365
 20
-57.8000000000001606
 30
0.0
 40
0.8000000000000133
210
0.0
220
-0.0000000000000002
230
-1.0
 50
340.144785630676779
 51
90.0000000000040643
  0
LINE
  5
2C0F
  8
0
  6
CONTINUOUS
 62
     3
 10
54.8870084006467991
 20
-58.0717155710222315
 30
0.0000000000000129
 11
57.7499999999999716
 21
-66.0000000000000853
 31
0.0000000000000147
210
0.0
220
1.0
230
-0.0000000000000002
  0
LINE
  5
2C10
  8
0
  6
CONTINUOUS
 62
     3
 10
-54.8870084006469199
 20
-58.0717155710222315
 30
0.0000000000000129
 11
-57.7500000000000924
 21
-66.0000000000000853
 31
0.0000000000000147
210
0.0
220
1.0
230
-0.0000000000000002
  0
LINE
  5
2C11
  8
0
  6
CONTINUOUS
 62
     3
 10
57.7499999999999503
 20
-66.0000000000000995
 30
0.0000000000000147
 11
59.4999999999999432
 21
-67.5000000000001563
 31
0.000000000000015
210
0.0
220
1.0
230
-0.0000000000000002
  0
LINE
  5
2C12
  8
0
  6
CONTINUOUS
 62
     3
 10
-57.7500000000000497
 20
-66.0000000000000995
 30
0.0000000000000147
 11
-59.5000000000000568
 21
-67.5000000000001563
 31
0.000000000000015
210
0.0
220
1.0
230
-0.0000000000000002
  0
LINE
  5
2C13
  8
0
  6
CONTINUOUS
 62
     3
 10
59.4999999999999432
 20
-67.5000000000001563
 30
0.000000000000015
 11
59.4999999999999432
 21
-68.5000000000001137
 31
0.0000000000000152
210
0.0
220
1.0
230
-0.0000000000000002
  0
LINE
  5
2C14
  8
0
  6
CONTINUOUS
 62
     3
 10
-59.5000000000000568
 20
-67.5000000000001563
 30
0.000000000000015
 11
-59.5000000000000568
 21
-68.5000000000001137
 31
0.0000000000000152
210
0.0
220
1.0
230
-0.0000000000000002
  0
LINE
  5
2C15
  8
0
  6
CONTINUOUS
 62
     3
 10
-57.1171444324797335
 20
-70.8828555675204655
 30
0.0000000000000157
 11
-59.5000000000000497
 21
-68.5000000000001137
 31
0.0000000000000152
210
0.0
220
1.0
230
-0.0000000000000002
  0
LINE
  5
2C16
  8
0
  6
CONTINUOUS
 62
     3
 10
57.1171444324796127
 20
-70.8828555675204655
 30
0.0000000000000157
 11
59.4999999999999289
 21
-68.5000000000001137
 31
0.0000000000000152
210
0.0
220
1.0
230
-0.0000000000000002
  0
LINE
  5
2C17
  8
0
  6
CONTINUOUS
 62
     3
 10
57.1171444324796127
 20
-70.8828555675204655
 30
0.0000000000000157
 11
59.9999999999999289
 21
-75.0000000000000711
 31
0.0000000000000167
210
0.0
220
1.0
230
-0.0000000000000002
  0
LINE
  5
2C18
  8
0
  6
CONTINUOUS
 62
     3
 10
-57.1171444324797335
 20
-70.8828555675204655
 30
0.0000000000000157
 11
-60.0000000000000497
 21
-75.0000000000000711
 31
0.0000000000000167
210
0.0
220
1.0
230
-0.0000000000000002
  0
ARC
  5
2C19
  8
0
  6
CONTINUOUS
 62
     3
 10
49.5000000000000071
 20
-72.0000000000000142
 30
0.0
 40
5.0000000000000853
210
0.0
220
-0.0000000000000002
230
-1.0
 50
270.0
 51
323.1301023541556106
  0
ARC
  5
2C1A
  8
0
  6
CONTINUOUS
 62
     3
 10
-49.4999999999999005
 20
-72.0000000000000142
 30
0.0
 40
5.000000000000087
210
0.0
220
-0.0000000000000002
230
-1.0
 50
216.8698976458439063
 51
269.9999999999994884
  0
ARC
  5
2C1B
  8
0
  6
CONTINUOUS
 62
     3
 10
55.6090464708852892
 20
-51.4999999999999574
 30
0.0
 40
1.4999999999999469
210
0.0
220
-0.0000000000000002
230
-1.0
 50
25.8941133784704611
 51
90.0
  0
ARC
  5
2C1C
  8
0
  6
CONTINUOUS
 62
     3
 10
-55.6090464708851684
 20
-51.4999999999999574
 30
0.0
 40
1.49999999999995
210
0.0
220
-0.0000000000000002
230
-1.0
 50
90.0
 51
154.1058866215294927
  0
LINE
  5
2C1D
  8
0
  6
CONTINUOUS
 62
     3
 10
56.9584504483274685
 20
-50.8449359530071021
 30
0.0000000000000113
 11
59.0984106065127932
 21
-55.2531625413522107
 31
0.0000000000000123
210
0.0
220
1.0
230
-0.0000000000000002
  0
LINE
  5
2C1E
  8
0
  6
CONTINUOUS
 62
     3
 10
-56.9584504483275893
 20
-50.8449359530071021
 30
0.0000000000000113
 11
-59.0984106065129069
 21
-55.2531625413522107
 31
0.0000000000000123
210
0.0
220
1.0
230
-0.0000000000000002
  0
ARC
  5
2C1F
  8
0
  6
CONTINUOUS
 62
     3
 10
55.4999999999990195
 20
-57.0000000000004405
 30
0.0
 40
4.0000000000010374
210
0.0
220
-0.0000000000000002
230
-1.0
 50
0.0000000000044782
 51
25.8941133784711894
  0
ARC
  5
2C20
  8
0
  6
CONTINUOUS
 62
     3
 10
-55.4999999999988987
 20
-57.0000000000004405
 30
0.0
 40
4.0000000000010374
210
0.0
220
-0.0000000000000002
230
-1.0
 50
154.1058866215288106
 51
179.9999999999955094
  0
LINE
  5
2C21
  8
0
  6
CONTINUOUS
 62
     3
 10
-50.6999999999998892
 20
-0.0000000000000103
 30
0.0
 11
50.700000000000081
 21
-0.0000000000000039
 31
0.0
210
0.0
220
1.0
230
-0.0000000000000002
  0
LINE
  5
2C22
  8
0
  6
CONTINUOUS
 62
     3
 10
-60.4999999999999432
 20
70.0000000000000142
 30
-0.0000000000000155
 11
60.5000000000000782
 21
70.0000000000000142
 31
-0.0000000000000155
210
0.0
220
1.0
230
-0.0000000000000002
  0
ARC
  5
2C23
  8
0
  6
CONTINUOUS
 62
     3
 10
50.4999999999963123
 20
8.0498756211210178
 30
0.0
 40
1.0000000000036089
210
0.0
220
-0.0000000000000002
230
-1.0
 50
354.2894068625121804
 51
359.9999999999910756
  0
ARC
  5
2C24
  8
0
  6
CONTINUOUS
 62
     3
 10
-50.4999999999965183
 20
8.0498756211210232
 30
0.0
 40
1.000000000003566
210
0.0
220
-0.0000000000000002
230
-1.0
 50
180.000000000008697
 51
185.7105931374879049
  0
LINE
  5
2C25
  8
0
  6
CONTINUOUS
 62
     3
 10
51.5000000000000924
 20
40.0
 30
-0.0000000000000089
 11
51.5000000000000924
 21
8.0498756211208704
 31
-0.0000000000000018
210
0.0
220
1.0
230
-0.0000000000000002
  0
LINE
  5
2C26
  8
0
  6
CONTINUOUS
 62
     3
 10
-51.4999999999999076
 20
40.0
 30
-0.0000000000000089
 11
-51.4999999999999076
 21
8.0498756211208633
 31
-0.0000000000000018
210
0.0
220
1.0
230
-0.0000000000000002
  0
LINE
  5
2C27
  8
0
  6
CONTINUOUS
 62
     3
 10
-50.6999999999999176
 20
-0.0000000000000102
 30
0.0
 11
-51.4950371902099135
 21
7.9503719020998647
 31
-0.0000000000000018
210
0.0
220
1.0
230
-0.0000000000000002
  0
LINE
  5
2C28
  8
0
  6
CONTINUOUS
 62
     3
 10
50.7000000000000881
 20
-0.0000000000000075
 30
0.0
 11
51.495037190210077
 21
7.9503719020998718
 31
-0.0000000000000018
210
0.0
220
1.0
230
-0.0000000000000002
  0
LINE
  5
2C29
  8
0
  6
CONTINUOUS
 62
     3
 10
-52.8415189189038017
 20
45.0030695945889505
 30
-0.00000000000001
 11
-58.6179753299169732
 21
55.0000000000000071
 31
-0.0000000000000122
210
0.0
220
1.0
230
-0.0000000000000002
  0
LINE
  5
2C2A
  8
0
  6
CONTINUOUS
 62
     3
 10
52.841518918903958
 20
45.0030695945889505
 30
-0.00000000000001
 11
58.6179753299171225
 21
55.0000000000000071
 31
-0.0000000000000122
210
0.0
220
1.0
230
-0.0000000000000002
  0
ARC
  5
2C2B
  8
0
  6
CONTINUOUS
 62
     3
 10
61.4999999999998721
 20
40.0
 30
0.0
 40
9.9999999999999645
210
0.0
220
-0.0000000000000002
230
-1.0
 50
149.9796896468805869
 51
179.9999999999998863
  0
ARC
  5
2C2C
  8
0
  6
CONTINUOUS
 62
     3
 10
-61.5000000000002629
 20
39.9999999999999574
 30
0.0
 40
10.0000000000001705
210
0.0
220
-0.0000000000000002
230
-1.0
 50
0.0000000000002036
 51
30.0203103531188908
  0
LINE
  5
2C2D
  8
0
  6
CONTINUOUS
 62
     3
 10
60.5000000000000782
 20
70.0000000000000142
 30
-0.0000000000000155
 11
60.5000000000000782
 21
67.9999999999999574
 31
-0.0000000000000151
210
0.0
220
1.0
230
-0.0000000000000002
  0
LINE
  5
2C2E
  8
0
  6
CONTINUOUS
 62
     3
 10
-60.4999999999999289
 20
70.0000000000000142
 30
-0.0000000000000155
 11
-60.4999999999999289
 21
67.9999999999999574
 31
-0.0000000000000151
210
0.0
220
1.0
230
-0.0000000000000002
  0
LINE
  5
2C2F
  8
0
  6
CONTINUOUS
 62
     3
 10
60.9999999999999787
 20
55.0000000000000071
 30
-0.0000000000000122
 11
-61.0000000000000284
 21
55.0000000000000071
 31
-0.0000000000000122
210
0.0
220
1.0
230
-0.0000000000000002
  0
LINE
  5
2C30
  8
0
  6
CONTINUOUS
 62
     3
 10
-122.5
 20
67.9999999999999574
 30
-0.0000000000000151
 11
122.4999999999999005
 21
67.9999999999999574
 31
-0.0000000000000151
210
0.0
220
1.0
230
-0.0000000000000002
  0
LINE
  5
2C31
  8
0
  6
CONTINUOUS
 62
     3
 10
-122.5
 20
65.9999999999997584
 30
-0.0000000000000147
 11
122.4999999999999005
 21
65.9999999999997584
 31
-0.0000000000000147
210
0.0
220
1.0
230
-0.0000000000000002
  0
LINE
  5
2C32
  8
0
  6
CONTINUOUS
 62
     3
 10
-61.0000000000000213
 20
55.0000000000000213
 30
-0.0000000000000122
 11
-68.6889867471422662
 21
65.2036300463040135
 31
-0.0000000000000145
210
0.0
220
1.0
230
-0.0000000000000002
  0
LINE
  5
2C33
  8
0
  6
CONTINUOUS
 62
     3
 10
60.9999999999999574
 20
55.0000000000000213
 30
-0.0000000000000122
 11
68.6889867471422093
 21
65.2036300463040135
 31
-0.0000000000000145
210
0.0
220
1.0
230
-0.0000000000000002
  0
ARC
  5
2C34
  8
0
  6
CONTINUOUS
 62
     3
 10
-70.2862577672367337
 20
64.0000000000001137
 30
0.0
 40
1.999999999999835
210
0.0
220
-0.0000000000000002
230
-1.0
 50
36.9999999999959996
 51
89.9999999999995879
  0
ARC
  5
2C35
  8
0
  6
CONTINUOUS
 62
     3
 10
70.2862577672367905
 20
64.0000000000001137
 30
0.0
 40
1.999999999999829
210
0.0
220
-0.0000000000000002
230
-1.0
 50
90.0000000000003979
 51
143.0000000000040075
  0
LINE
  5
2C36
  8
0
  6
CONTINUOUS
 62
     3
 10
122.4999999999999005
 20
67.9999999999999574
 30
-0.0000000000000151
 11
122.4999999999999005
 21
65.9999999999997584
 31
-0.0000000000000147
210
0.0
220
1.0
230
-0.0000000000000002
  0
LINE
  5
2C37
  8
0
  6
CONTINUOUS
 62
     3
 10
-122.5
 20
67.9999999999999574
 30
-0.0000000000000151
 11
-122.5
 21
65.9999999999997584
 31
-0.0000000000000147
210
0.0
220
1.0
230
-0.0000000000000002
  0
LINE
  5
2C38
  8
0
  6
VERDECKT
 62
     1
 10
-51.8000000000000114
 20
-59.9132265073573222
 30
0.0000000000000133
 11
51.8000000000000114
 21
-59.9132265073573222
 31
0.0000000000000133
210
0.0
220
1.0
230
-0.0000000000000002
  0
LINE
  5
2C39
  8
0
  6
VERDECKT
 62
     1
 10
47.5
 20
-75.44398402515192
 30
0.0000000000000168
 11
-47.5
 21
-75.44398402515192
 31
0.0000000000000168
210
0.0
220
1.0
230
-0.0000000000000002
  0
LINE
  5
2C3A
  8
0
  6
VERDECKT
 62
     1
 10
-56.5995849235806574
 20
-73.0000000000000426
 30
0.0000000000000162
 11
56.5995849235805508
 21
-73.0000000000000426
 31
0.0000000000000162
210
0.0
220
1.0
230
-0.0000000000000002
  0
ARC
  5
2C3B
  8
0
  6
VERDECKT
 62
     1
 10
55.6090464708852323
 20
-51.4932265073572495
 30
0.0
 40
1.499999999999968
210
0.0
220
-0.0000000000000002
230
-1.0
 50
95.4470566892314451
 51
165.0000000000017906
  0
ARC
  5
2C3C
  8
0
  6
VERDECKT
 62
     1
 10
-55.6090464708852323
 20
-51.4932265073572495
 30
0.0
 40
1.499999999999968
210
0.0
220
-0.0000000000000002
230
-1.0
 50
14.9999999999981704
 51
84.5529433107685549
  0
LINE
  5
2C3D
  8
0
  6
VERDECKT
 62
     1
 10
-51.7999999999999972
 20
-59.9132265073573222
 30
0.0000000000000133
 11
-54.1601577314516476
 21
-51.104997939703523
 31
0.0000000000000113
210
0.0
220
1.0
230
-0.0000000000000002
  0
LINE
  5
2C3E
  8
0
  6
VERDECKT
 62
     1
 10
51.7999999999999972
 20
-59.9132265073573222
 30
0.0000000000000133
 11
54.1601577314516476
 21
-51.104997939703523
 31
0.0000000000000113
210
0.0
220
1.0
230
-0.0000000000000002
  0
LINE
  5
2C3F
  8
0
  6
VERDECKT
 62
     1
 10
51.8000000000000114
 20
-59.9132265073573222
 30
0.0000000000000133
 11
51.8000000000000114
 21
-70.4932265073573063
 31
0.0000000000000157
210
0.0
220
1.0
230
-0.0000000000000002
  0
LINE
  5
2C40
  8
0
  6
VERDECKT
 62
     1
 10
-51.8000000000000114
 20
-59.9132265073573222
 30
0.0000000000000133
 11
-51.8000000000000114
 21
-70.4932265073573063
 31
0.0000000000000157
210
0.0
220
1.0
230
-0.0000000000000002
  0
ARC
  5
2C41
  8
0
  6
VERDECKT
 62
     1
 10
46.7999999999999687
 20
-70.4932265073572353
 30
0.0
 40
5.0000000000000488
210
0.0
220
-0.0000000000000002
230
-1.0
 50
278.0478462473117816
 51
359.9999999999993179
  0
ARC
  5
2C42
  8
0
  6
VERDECKT
 62
     1
 10
-46.7999999999999687
 20
-70.4932265073572353
 30
0.0
 40
5.0000000000000417
210
0.0
220
-0.0000000000000002
230
-1.0
 50
180.0000000000005969
 51
261.9521537526882184
  0
LINE
  5
2C43
  8
0
  6
VERDECKT
 62
     1
 10
-47.5
 20
-77.0000000000000853
 30
0.0000000000000171
 11
-47.5
 21
-75.44398402515192
 31
0.0000000000000168
210
0.0
220
1.0
230
-0.0000000000000002
  0
LINE
  5
2C44
  8
0
  6
VERDECKT
 62
     1
 10
47.5
 20
-77.0000000000000853
 30
0.0000000000000171
 11
47.5
 21
-75.44398402515192
 31
0.0000000000000168
210
0.0
220
1.0
230
-0.0000000000000002
  0
LINE
  5
2C45
  8
0
  6
VERDECKT
 62
     1
 10
56.5995849235805224
 20
-73.0000000000000568
 30
0.0000000000000162
 11
57.9999999999999076
 21
-75.0000000000000853
 31
0.0000000000000167
210
0.0
220
1.0
230
-0.0000000000000002
  0
LINE
  5
2C46
  8
0
  6
VERDECKT
 62
     1
 10
-56.5995849235806432
 20
-73.0000000000000568
 30
0.0000000000000162
 11
-58.0000000000000284
 21
-75.0000000000000853
 31
0.0000000000000167
210
0.0
220
1.0
230
-0.0000000000000002
  0
ARC
  5
2C47
  8
0
  6
VERDECKT
 62
     1
 10
49.5000000000001492
 20
-72.0000000000001421
 30
0.0
 40
4.9999999999999121
210
0.0
220
-0.0000000000000002
230
-1.0
 50
323.130102354156179
 51
348.4630409671851226
  0
ARC
  5
2C48
  8
0
  6
VERDECKT
 62
     1
 10
-49.5000000000000284
 20
-72.0000000000001421
 30
0.0
 40
4.9999999999999103
210
0.0
220
-0.0000000000000002
230
-1.0
 50
191.5369590328147922
 51
216.8698976458437926
  0
LINE
  5
2C49
  8
0
  6
VERDECKT
 62
     1
 10
-49.2074442146849407
 20
0.1492555785314918
 30
0.0
 11
49.207444214685097
 21
0.149255578531498
 31
0.0
210
0.0
220
1.0
230
-0.0000000000000002
  0
ARC
  5
2C4A
  8
0
  6
VERDECKT
 62
     1
 10
48.9999999999962412
 20
8.1246890528024078
 30
0.0
 40
1.0000000000036731
210
0.0
220
-0.0000000000000002
230
-1.0
 50
354.2894068625122941
 51
359.9999999999909051
  0
ARC
  5
2C4B
  8
0
  6
VERDECKT
 62
     1
 10
-48.9999999999964118
 20
8.1246890528024132
 30
0.0
 40
1.0000000000036731
210
0.0
220
-0.0000000000000002
230
-1.0
 50
180.0000000000090097
 51
185.7105931374877059
  0
LINE
  5
2C4C
  8
0
  6
VERDECKT
 62
     1
 10
-49.2074442146849265
 20
0.1492555785314922
 30
0.0
 11
-49.9950371902098993
 21
8.0251853337812502
 31
-0.0000000000000018
210
0.0
220
1.0
230
-0.0000000000000002
  0
LINE
  5
2C4D
  8
0
  6
VERDECKT
 62
     1
 10
49.2074442146850899
 20
0.1492555785314918
 30
0.0
 11
49.9950371902100699
 21
8.0251853337812573
 31
-0.0000000000000018
210
0.0
220
1.0
230
-0.0000000000000002
  0
LINE
  5
2C4E
  8
0
  6
VERDECKT
 62
     1
 10
50.0000000000000782
 20
40.0000000000000071
 30
-0.0000000000000089
 11
50.0000000000000782
 21
8.1246890528022551
 31
-0.0000000000000018
210
0.0
220
1.0
230
-0.0000000000000002
  0
LINE
  5
2C4F
  8
0
  6
VERDECKT
 62
     1
 10
-49.9999999999999218
 20
40.0000000000000071
 30
-0.0000000000000089
 11
-49.9999999999999218
 21
8.1246890528022515
 31
-0.0000000000000018
210
0.0
220
1.0
230
-0.0000000000000002
  0
ARC
  5
2C50
  8
0
  6
VERDECKT
 62
     1
 10
53.9999999999999289
 20
60.0
 30
0.0
 40
6.499999999999992
210
0.0
220
-0.0000000000000002
230
-1.0
 50
329.9796896468806722
 51
359.9999999999998863
  0
ARC
  5
2C51
  8
0
  6
VERDECKT
 62
     1
 10
-53.9999999999999574
 20
60.0000000000000284
 30
0.0
 40
6.5000000000001128
210
0.0
220
-0.0000000000000002
230
-1.0
 50
180.000000000000199
 51
210.0203103531187878
  0
LINE
  5
2C52
  8
0
  6
VERDECKT
 62
     1
 10
-58.6179753299169732
 20
55.0000000000000071
 30
-0.0000000000000122
 11
-59.6280127027124109
 21
56.74800476351718
 31
-0.0000000000000126
210
0.0
220
1.0
230
-0.0000000000000002
  0
LINE
  5
2C53
  8
0
  6
VERDECKT
 62
     1
 10
58.6179753299171225
 20
55.0000000000000071
 30
-0.0000000000000122
 11
59.6280127027125673
 21
56.7480047635171871
 31
-0.0000000000000126
210
0.0
220
1.0
230
-0.0000000000000002
  0
LINE
  5
2C54
  8
0
  6
VERDECKT
 62
     1
 10
49.207444214685097
 20
0.1492555785314966
 30
0.0
 11
50.7000000000000881
 21
-0.0000000000000019
 31
0.0
210
0.0
220
1.0
230
-0.0000000000000002
  0
LINE
  5
2C55
  8
0
  6
VERDECKT
 62
     1
 10
-49.2074442146849265
 20
0.1492555785314905
 30
0.0
 11
-50.6999999999999176
 21
-0.0000000000000084
 31
0.0
210
0.0
220
1.0
230
-0.0000000000000002
  0
ARC
  5
2C56
  8
0
  6
VERDECKT
 62
     1
 10
61.5
 20
40.0
 30
0.0
 40
11.5000000000000799
210
0.0
220
-0.0000000000000002
230
-1.0
 50
149.9796896468808995
 51
179.999999999999801
  0
ARC
  5
2C57
  8
0
  6
VERDECKT
 62
     1
 10
-61.5000000000001208
 20
40.0000000000000071
 30
0.0
 40
11.5000000000000302
210
0.0
220
-0.0000000000000002
230
-1.0
 50
360.0
 51
30.0203103531190401
  0
LINE
  5
2C58
  8
0
  6
VERDECKT
 62
     1
 10
-51.5427467567393691
 20
45.7535300337772881
 30
-0.0000000000000102
 11
-58.3292405405479926
 21
57.4984652027055319
 31
-0.0000000000000128
210
0.0
220
1.0
230
-0.0000000000000002
  0
LINE
  5
2C59
  8
0
  6
VERDECKT
 62
     1
 10
51.5427467567395396
 20
45.7535300337772881
 30
-0.0000000000000102
 11
58.3292405405481631
 21
57.4984652027055319
 31
-0.0000000000000128
210
0.0
220
1.0
230
-0.0000000000000002
  0
ARC
  5
2C5A
  8
0
  6
VERDECKT
 62
     1
 10
53.9999999999999503
 20
60.0
 30
0.0
 40
4.9999999999999662
210
0.0
220
-0.0000000000000002
230
-1.0
 50
329.9796896468806722
 51
0.0000000000004071
  0
ARC
  5
2C5B
  8
0
  6
VERDECKT
 62
     1
 10
-54.0000000000001918
 20
60.0
 30
0.0
 40
4.9999999999998854
210
0.0
220
-0.0000000000000002
230
-1.0
 50
179.9999999999994884
 51
210.0203103531194984
  0
LINE
  5
2C5C
  8
0
  6
VERDECKT
 62
     1
 10
59.0000000000000782
 20
70.0000000000000142
 30
-0.0000000000000155
 11
59.0000000000000782
 21
60.0000000000000284
 31
-0.0000000000000133
210
0.0
220
1.0
230
-0.0000000000000002
  0
LINE
  5
2C5D
  8
0
  6
VERDECKT
 62
     1
 10
-58.9999999999999218
 20
70.0000000000000142
 30
-0.0000000000000155
 11
-58.9999999999999218
 21
60.0000000000000284
 31
-0.0000000000000133
210
0.0
220
1.0
230
-0.0000000000000002
  0
LINE
  5
2C5E
  8
0
  6
VERDECKT
 62
     1
 10
60.5000000000000782
 20
67.9999999999999574
 30
-0.0000000000000151
 11
60.5000000000000782
 21
60.0
 31
-0.0000000000000133
210
0.0
220
1.0
230
-0.0000000000000002
  0
LINE
  5
2C5F
  8
0
  6
VERDECKT
 62
     1
 10
-60.4999999999999289
 20
67.9999999999999574
 30
-0.0000000000000151
 11
-60.4999999999999289
 21
60.0
 31
-0.0000000000000133
210
0.0
220
1.0
230
-0.0000000000000002
  0
LINE
  5
2C60
  8
0
  6
VERDECKT
 62
     1
 10
59.402728979905028
 20
56.2036300463040703
 30
-0.0000000000000125
 11
-59.402728979905099
 21
56.2036300463040703
 31
-0.0000000000000125
210
0.0
220
1.0
230
-0.0000000000000002
  0
LINE
  5
2C61
  8
0
  6
VERDECKT
 62
     1
 10
59.4027289799050493
 20
56.2036300463040703
 30
-0.0000000000000125
 11
60.9999999999999716
 21
55.0000000000000071
 31
-0.0000000000000122
210
0.0
220
1.0
230
-0.0000000000000002
  0
LINE
  5
2C62
  8
0
  6
VERDECKT
 62
     1
 10
-59.402728979905099
 20
56.2036300463040703
 30
-0.0000000000000125
 11
-61.0000000000000284
 21
55.0000000000000071
 31
-0.0000000000000122
210
0.0
220
1.0
230
-0.0000000000000002
  0
ARC
  5
2C63
  8
0
  6
VERDECKT
 62
     1
 10
-70.2862577672367337
 20
64.0000000000001137
 30
0.0
 40
3.999999999999861
210
0.0
220
-0.0000000000000002
230
-1.0
 50
36.9999999999952109
 51
89.999999999999801
  0
ARC
  5
2C64
  8
0
  6
VERDECKT
 62
     1
 10
70.2862577672367905
 20
64.0000000000001137
 30
0.0
 40
3.999999999999857
210
0.0
220
-0.0000000000000002
230
-1.0
 50
90.0000000000001847
 51
143.0000000000048033
  0
LINE
  5
2C65
  8
0
  6
VERDECKT
 62
     1
 10
-59.4027289799051132
 20
56.2036300463040632
 30
-0.0000000000000125
 11
-67.0917157270475428
 21
66.4072600926079559
 31
-0.0000000000000147
210
0.0
220
1.0
230
-0.0000000000000002
  0
LINE
  5
2C66
  8
0
  6
VERDECKT
 62
     1
 10
59.4027289799050635
 20
56.2036300463040632
 30
-0.0000000000000125
 11
67.091715727047486
 21
66.4072600926079559
 31
-0.0000000000000147
210
0.0
220
1.0
230
-0.0000000000000002
  0
ENDBLK
  5
2C68
  8
0
  0
ENDSEC
  0
SECTION
  2
ENTITIES
  0
TEXT
  5
3D7
  8
VOLL
 10
78.076754716981128
 20
31.025947764705851
 30
0.0
 40
1.8
  1

  7
GREEKS
  0
INSERT
  5
AD0
  8
ADSK_ASSOC_ENTITY_BACKUPS
  2
*S0
 10
0.0
 20
0.0
 30
0.0
  0
INSERT
  5
2C02
  8
STEMPEL
  2
A$C6D02350B
 10
0.0
 20
-299.5
 30
0.0000000000000171
  0
INSERT
  5
2C69
  8
STEMPEL
  2
A$C4D987CD8
 10
0.0
 20
0.0
 30
0.0
  0
VIEWPORT
  5
AAD
 67
     1
  8
0
 10
145.4747366468444056
 20
205.7048281007548951
 30
0.0
 40
790.2674510967764263
 41
422.1483375959078899
 68
     1
 69
     1
1001
ACAD
1000
MVIEW
1002
{
1070
    16
1010
0.0
1020
0.0
1030
0.0
1010
0.0
1020
0.0
1030
1.0
1040
0.0
1040
422.1483375959078899
1040
145.4747366468444056
1040
205.7048281007548951
1040
50.0
1040
0.0
1040
0.0
1070
     0
1070
  1500
1070
     1
1070
     1
1070
     0
1070
     0
1070
     0
1070
     0
1040
0.0
1040
0.0
1040
0.0
1040
10.0
1040
10.0
1040
10.0
1040
10.0
1070
     0
1002
{
1002
}
1002
}
  0
TEXT
  5
CB0
 67
     1
  8
VOLL
 10
625.5592565604117681
 20
227.4217200880700887
 30
0.0
 40
3.6000000000000001
  1

  7
GREEKS
  0
TEXT
  5
13FD
 67
     1
  8
VOLL
 10
1136.2020779486761057
 20
544.3446897115051115
 30
0.0
 40
1.8
  1

  7
GREEKS
  0
TEXT
  5
13FE
 67
     1
  8
VOLL
 10
1257.6048466178569925
 20
751.6650977567676364
 30
0.0
 40
1.8
  1

  7
GREEKS
  0
TEXT
  5
13FF
 67
     1
  8
VOLL
 10
1587.438057582276997
 20
568.0756737226744235
 30
0.0
 40
1.8
  1

  7
GREEKS
  0
TEXT
  5
1400
 67
     1
  8
VOLL
 10
1583.6057810679399154
 20
556.8718499942134486
 30
0.0
 40
1.8
  1

  7
GREEKS
  0
TEXT
  5
147D
 67
     1
  8
VOLL
 10
541.8878355258799502
 20
83.5838184280439549
 30
0.0
 40
3.6000000000000001
  1

  7
GREEKS
  0
ENDSEC
  0
EOF
