  0
SECTION
  2
HEADER
  9
$ACADVER
  1
AC1009
  9
$INSBASE
 10
0.0
 20
0.0
 30
0.0
  9
$EXTMIN
 10
-122.5
 20
-372.5
 30
-0.0000000000000155
  9
$EXTMAX
 10
122.5
 20
70.0
 30
0.0000000000000165
  9
$LIMMIN
 10
0.0
 20
0.0
  9
$LIMMAX
 10
419.9999999999998863
 20
594.0
  9
$ORTHOMODE
 70
     1
  9
$REGENMODE
 70
     1
  9
$FILLMODE
 70
     1
  9
$QTEXTMODE
 70
     0
  9
$MIRRTEXT
 70
     1
  9
$DRAGMODE
 70
     2
  9
$LTSCALE
 40
10.0
  9
$OSMODE
 70
   511
  9
$ATTMODE
 70
     1
  9
$TEXTSIZE
 40
3.5
  9
$TRACEWID
 40
1.0
  9
$TEXTSTYLE
  7
STANDARD
  9
$CLAYER
  8
STEMPEL
  9
$CELTYPE
  6
BYLAYER
  9
$CECOLOR
 62
   256
  9
$DIMSCALE
 40
1.0
  9
$DIMASZ
 40
3.5
  9
$DIMEXO
 40
1.0
  9
$DIMDLI
 40
0.38
  9
$DIMRND
 40
0.0
  9
$DIMDLE
 40
0.0
  9
$DIMEXE
 40
1.0
  9
$DIMTP
 40
0.0
  9
$DIMTM
 40
0.000000001
  9
$DIMTXT
 40
3.5
  9
$DIMCEN
 40
0.09
  9
$DIMTSZ
 40
0.0
  9
$DIMTOL
 70
     0
  9
$DIMLIM
 70
     0
  9
$DIMTIH
 70
     0
  9
$DIMTOH
 70
     0
  9
$DIMSE1
 70
     0
  9
$DIMSE2
 70
     0
  9
$DIMTAD
 70
     1
  9
$DIMZIN
 70
     8
  9
$DIMBLK
  1

  9
$DIMASO
 70
     1
  9
$DIMSHO
 70
     0
  9
$DIMPOST
  1

  9
$DIMAPOST
  1

  9
$DIMALT
 70
     0
  9
$DIMALTD
 70
     2
  9
$DIMALTF
 40
25.3999999999999986
  9
$DIMLFAC
 40
2.0
  9
$DIMTOFL
 70
     1
  9
$DIMTVP
 40
0.0
  9
$DIMTIX
 70
     0
  9
$DIMSOXD
 70
     0
  9
$DIMSAH
 70
     0
  9
$DIMBLK1
  1

  9
$DIMBLK2
  1

  9
$DIMSTYLE
  2
LORO
  9
$DIMCLRD
 70
     0
  9
$DIMCLRE
 70
     0
  9
$DIMCLRT
 70
     1
  9
$DIMTFAC
 40
0.5
  9
$DIMGAP
 40
1.5
  9
$LUNITS
 70
     2
  9
$LUPREC
 70
     2
  9
$SKETCHINC
 40
1.0
  9
$FILLETRAD
 40
2.0
  9
$AUNITS
 70
     0
  9
$AUPREC
 70
     2
  9
$MENU
  1
ACAD
  9
$ELEVATION
 40
0.0
  9
$PELEVATION
 40
0.0
  9
$THICKNESS
 40
0.0
  9
$LIMCHECK
 70
     0
  9
$BLIPMODE
 70
     0
  9
$CHAMFERA
 40
0.0
  9
$CHAMFERB
 40
0.0
  9
$SKPOLY
 70
     0
  9
$TDCREATE
 40
2455397.867048610933125
  9
$TDUPDATE
 40
2460591.599490740802139
  9
$TDINDWG
 40
0.8079337153
  9
$TDUSRTIMER
 40
0.8079337153
  9
$USRTIMER
 70
     1
  9
$ANGBASE
 50
0.0
  9
$ANGDIR
 70
     0
  9
$PDMODE
 70
     0
  9
$PDSIZE
 40
0.0
  9
$PLINEWID
 40
0.0
  9
$COORDS
 70
     1
  9
$SPLFRAME
 70
     0
  9
$SPLINETYPE
 70
     6
  9
$SPLINESEGS
 70
     8
  9
$ATTDIA
 70
     1
  9
$ATTREQ
 70
     1
  9
$HANDLING
 70
     1
  9
$HANDSEED
  5
3EF4
  9
$SURFTAB1
 70
     6
  9
$SURFTAB2
 70
     6
  9
$SURFTYPE
 70
     6
  9
$SURFU
 70
     6
  9
$SURFV
 70
     6
  9
$UCSNAME
  2

  9
$UCSORG
 10
0.0
 20
0.0
 30
0.0
  9
$UCSXDIR
 10
1.0
 20
0.0
 30
0.0
  9
$UCSYDIR
 10
0.0
 20
1.0
 30
0.0
  9
$PUCSNAME
  2

  9
$PUCSORG
 10
0.0
 20
0.0
 30
0.0
  9
$PUCSXDIR
 10
1.0
 20
0.0
 30
0.0
  9
$PUCSYDIR
 10
0.0
 20
1.0
 30
0.0
  9
$USERI1
 70
     0
  9
$USERI2
 70
     0
  9
$USERI3
 70
     0
  9
$USERI4
 70
     0
  9
$USERI5
 70
     0
  9
$USERR1
 40
0.0
  9
$USERR2
 40
0.0
  9
$USERR3
 40
0.0
  9
$USERR4
 40
0.0
  9
$USERR5
 40
0.0
  9
$WORLDVIEW
 70
     1
  9
$SHADEDGE
 70
     3
  9
$SHADEDIF
 70
    70
  9
$TILEMODE
 70
     1
  9
$MAXACTVP
 70
    16
  9
$PLIMCHECK
 70
     0
  9
$PEXTMIN
 10
1.0000000000000000E+20
 20
1.0000000000000000E+20
 30
1.0000000000000000E+20
  9
$PEXTMAX
 10
-1.0000000000000000E+20
 20
-1.0000000000000000E+20
 30
-1.0000000000000000E+20
  9
$PLIMMIN
 10
-0.2442491696476168
 20
-0.2416736021843917
  9
$PLIMMAX
 10
296.7557508303523832
 20
419.7583263978156083
  9
$UNITMODE
 70
     0
  9
$VISRETAIN
 70
     0
  9
$PLINEGEN
 70
     0
  9
$PSLTSCALE
 70
     0
  0
ENDSEC
  0
SECTION
  2
TABLES
  0
TABLE
  2
VPORT
 70
     1
  0
VPORT
  2
*ACTIVE
 70
     0
 10
0.0
 20
0.0
 11
1.0
 21
1.0
 12
-12.5122528144499405
 22
-25.2337395116112795
 13
0.0
 23
0.0
 14
1.0
 24
1.0
 15
10.0
 25
10.0
 16
-0.0000000000002096
 26
0.0
 36
945.7946987518113247
 17
12.5122528144499405
 27
-126.0162604883886956
 37
0.0000000000000033
 40
444.7809278350515001
 41
1.8847807394668961
 42
50.0
 43
0.0
 44
0.0
 50
0.0
 51
0.0
 71
     0
 72
  1500
 73
     1
 74
     0
 75
     0
 76
     0
 77
     0
 78
     0
  0
ENDTAB
  0
TABLE
  2
LTYPE
 70
     6
  0
LTYPE
  2
CONTINUOUS
 70
     0
  3
Solid line
 72
    65
 73
     0
 40
0.0
  0
LTYPE
  2
STRICHPUNKT
 70
     0
  3
__ . __ . __ . __ . __ . __ . __ . __ . __ . __
 72
    65
 73
     4
 40
1.0
 49
0.5
 49
-0.25
 49
0.0
 49
-0.25
  0
LTYPE
  2
VERDECKT
 70
     0
  3
Verdeckt __ __ __ __ __ __ __ __ __ __ __ __ __
 72
    65
 73
     2
 40
0.375
 49
0.25
 49
-0.125
  0
ENDTAB
  0
TABLE
  2
LAYER
 70
    18
  0
LAYER
  2
0
 70
     0
 62
     7
  6
CONTINUOUS
  0
LAYER
  2
VOLL
 70
     0
 62
     1
  6
CONTINUOUS
  0
LAYER
  2
STEMPEL
 70
     0
 62
     3
  6
CONTINUOUS
  0
LAYER
  2
ADSK_ASSOC_ENTITY_BACKUPS
 70
     1
 62
    -7
  6
CONTINUOUS
  0
ENDTAB
  0
TABLE
  2
STYLE
 70
     4
  0
STYLE
  2
STANDARD
 70
     0
 40
0.0
 41
0.8
 50
0.0
 71
     0
 42
3.5
  3
simplex.shx
  4

  0
STYLE
  2
GREEKS
 70
     0
 40
0.0
 41
0.8
 50
0.0
 71
     0
 42
2.5
  3
SIMPLEX.shx
  4

  0
ENDTAB
  0
TABLE
  2
VIEW
 70
     2
  0
ENDTAB
  0
TABLE
  2
UCS
 70
     0
  0
ENDTAB
  0
TABLE
  2
APPID
 70
    23
  0
APPID
  2
ACAD
 70
     0
  0
APPID
  2
ACAECLAYERSTANDARD
 70
     0
  0
APPID
  2
ACCMTRANSPARENCY
 70
     0
  0
APPID
  2
ACAD_NAV_VCDISPLAY
 70
     0
  0
APPID
  2
ACAD_PSEXT
 70
     0
  0
APPID
  2
ACAD_EXEMPT_FROM_CAD_STANDARDS
 70
     0
  0
APPID
  2
ACSYNERGY
 70
     0
  0
APPID
  2
SYNERGY_BODY_TBR_ID
 70
     0
  0
APPID
  2
ACAD_VIEW_EDGE_ID
 70
     0
  0
APPID
  2
ACSYNERGYSKETCH
 70
     0
  0
APPID
  2
ACAD_MODELDOC_XFORM
 70
     0
  0
APPID
  2
ACAD_MLEADERVER
 70
     0
  0
APPID
  2
ACADANNOMONITORALERTICONDI
 70
     0
  0
APPID
  2
ACAD_DSTYLE_DIMJAG
 70
     0
  0
APPID
  2
ACAD_DSTYLE_DIMTALN
 70
     0
  0
APPID
  2
ACAD_DSTYLE_DIMBREAK
 70
     0
  0
APPID
  2
ACAD_STEPID
 70
     0
  0
APPID
  2
ACAD_TC
 70
     0
  0
APPID
  2
ACDBDYNAMICBLOCKGUID
 70
     0
  0
APPID
  2
ACADANNOPO
 70
     0
  0
APPID
  2
PLOTTRANSPARENCY
 70
     0
  0
APPID
  2
ACADANNOTATIVE
 70
     0
  0
APPID
  2
AcDbAttr
 70
     0
  0
ENDTAB
  0
TABLE
  2
DIMSTYLE
 70
     3
  0
DIMSTYLE
  2
LORO
 70
     0
  3

  4

  5

  6

  7

 40
1.0
 41
3.5
 42
1.0
 43
0.38
 44
1.0
 45
0.0
 46
0.0
 47
0.0
 48
0.000000001
140
3.5
141
0.09
142
0.0
143
25.3999999999999986
144
2.0
145
0.0
146
0.5
147
1.5
 71
     0
 72
     0
 73
     0
 74
     0
 75
     0
 76
     0
 77
     1
 78
     8
170
     0
171
     2
172
     1
173
     0
174
     0
175
     0
176
     0
177
     0
178
     1
  0
ENDTAB
  0
ENDSEC
  0
SECTION
  2
BLOCKS
  0
BLOCK
  8
0
  2
$MODEL_SPACE
 70
     0
 10
0.0
 20
0.0
 30
0.0
  3
$MODEL_SPACE
  1

  0
ENDBLK
  5
38
  8
0
  0
BLOCK
 67
     1
  8
0
  2
$PAPER_SPACE
 70
     0
 10
0.0
 20
0.0
 30
0.0
  3
$PAPER_SPACE
  1

  0
ENDBLK
  5
36
 67
     1
  8
0
  0
BLOCK
  8
0
  2
*S0
 70
     1
 10
0.0
 20
0.0
 30
0.0
  3
*S0
  1

  0
ENDBLK
  5
ACE
  8
0
  0
BLOCK
  8
0
  2
A$CC032B9B0
 70
     0
 10
0.0
 20
0.0
 30
0.0
  3
A$CC032B9B0
  1

  0
CIRCLE
  5
3E03
  8
0
  6
CONTINUOUS
 62
     3
 10
0.0000000000000155
 20
0.0
 30
0.0
 40
50.2000000000000313
  0
CIRCLE
  5
3E04
  8
0
  6
CONTINUOUS
 62
     3
 10
0.0000000000000155
 20
0.0
 30
0.0
 40
49.0000000000000213
  0
CIRCLE
  5
3E05
  8
0
  6
CONTINUOUS
 62
     3
 10
0.0000000000000119
 20
0.0
 30
0.0
 40
39.5000000000000071
  0
CIRCLE
  5
3E06
  8
0
  6
CONTINUOUS
 62
     3
 10
-0.0000000000000126
 20
0.0
 30
0.0
 40
122.5
  0
CIRCLE
  5
3E07
  8
0
  6
CONTINUOUS
 62
     3
 10
0.0000000000000121
 20
0.0
 30
0.0
 40
35.3000000000000114
  0
CIRCLE
  5
3E08
  8
0
  6
CONTINUOUS
 62
     3
 10
0.0000000000000001
 20
0.0
 30
0.0
 40
34.3092665479436008
  0
CIRCLE
  5
3E09
  8
0
  6
CONTINUOUS
 62
     3
 10
-0.0000000000000446
 20
-0.0016575748095115
 30
0.0
 40
32.0
  0
CIRCLE
  5
3E0A
  8
0
  6
VERDECKT
 62
     1
 10
0.0000000000000118
 20
0.0
 30
0.0
 40
40.4663561740293289
  0
CIRCLE
  5
3E0B
  8
0
  6
VERDECKT
 62
     1
 10
-0.0000000000000351
 20
0.0000000000000355
 30
0.0
 40
51.6235332713359725
  0
CIRCLE
  5
3E0C
  8
0
  6
VERDECKT
 62
     1
 10
-0.0000000000000355
 20
0.0000000000000355
 30
0.0
 40
49.75
  0
CIRCLE
  5
3E0D
  8
0
  6
VERDECKT
 62
     1
 10
0.0
 20
0.0
 30
0.0
 40
35.5
  0
CIRCLE
  5
3E0E
  8
0
  6
VERDECKT
 62
     1
 10
0.0000000000000121
 20
0.0
 30
0.0
 40
36.5
  0
CIRCLE
  5
3E0F
  8
0
  6
VERDECKT
 62
     1
 10
0.0000000000000145
 20
0.0
 30
0.0
 40
40.7499999999999929
  0
CIRCLE
  5
3E10
  8
0
  6
VERDECKT
 62
     1
 10
0.0000000000000149
 20
0.0
 30
0.0
 40
39.9347703342132974
  0
CIRCLE
  5
3E11
  8
0
  6
VERDECKT
 62
     1
 10
-0.0000000000000413
 20
-0.0016575748095106
 30
0.0
 40
37.0
  0
CIRCLE
  5
3E12
  8
0
  6
VERDECKT
 62
     1
 10
-0.0000000000000411
 20
-0.0016575748095105
 30
0.0
 40
42.3000000000000114
  0
CIRCLE
  5
3E13
  8
0
  6
VERDECKT
 62
     1
 10
-0.0000000000000423
 20
-0.0016575748095108
 30
0.0
 40
40.4999999999999929
  0
CIRCLE
  5
3E14
  8
0
  6
VERDECKT
 62
     1
 10
-0.0000000000000429
 20
-0.001657574809511
 30
0.0
 40
41.900000000000027
  0
CIRCLE
  5
3E15
  8
0
  6
VERDECKT
 62
     1
 10
-0.0000000000000444
 20
-0.0016575748095114
 30
0.0
 40
42.8000000000000114
  0
CIRCLE
  5
3E16
  8
0
  6
VERDECKT
 62
     1
 10
-0.0000000000000444
 20
-0.0016575748095114
 30
0.0
 40
41.0
  0
CIRCLE
  5
3E17
  8
0
  6
VERDECKT
 62
     1
 10
-0.0000000000000412
 20
-0.0016575748095105
 30
0.0
 40
38.7140740033711026
  0
ENDBLK
  5
3E19
  8
0
  0
BLOCK
  8
0
  2
A$C6BD77AF4
 70
     0
 10
0.0
 20
0.0
 30
0.0
  3
A$C6BD77AF4
  1

  0
LINE
  5
3E1D
  8
0
  6
CONTINUOUS
 62
     3
 10
50.2000000000000171
 20
69.9999999999999858
 30
-0.0000000000000155
 11
-50.2000000000000171
 21
69.9999999999999858
 31
-0.0000000000000155
210
0.0
220
1.0
230
-0.0000000000000002
  0
LINE
  5
3E1E
  8
0
  6
CONTINUOUS
 62
     3
 10
40.4663561740293432
 20
36.5000000000000213
 30
-0.0000000000000081
 11
-40.4663561740293289
 21
36.4999999999999929
 31
-0.0000000000000081
210
0.0
220
1.0
230
-0.0000000000000002
  0
ARC
  5
3E1F
  8
0
  6
CONTINUOUS
 62
     3
 10
-40.2000000000029587
 20
61.9999999999985434
 30
0.0
 40
9.9999999999967457
210
0.0
220
-0.0000000000000002
230
-1.0
 50
203.5781784782001864
 51
209.1143386591446927
  0
ARC
  5
3E20
  8
0
  6
CONTINUOUS
 62
     3
 10
40.199999999997118
 20
62.0000000000014424
 30
0.0
 40
10.0000000000032507
210
0.0
220
-0.0000000000000002
230
-1.0
 50
330.8856613408569842
 51
336.4218215217974262
  0
LINE
  5
3E21
  8
0
  6
CONTINUOUS
 62
     3
 10
-50.2000000000000313
 20
67.9999999999999574
 30
-0.0000000000000151
 11
-50.2000000000000313
 21
69.9999999999999858
 31
-0.0000000000000155
210
0.0
220
1.0
230
-0.0000000000000002
  0
LINE
  5
3E22
  8
0
  6
CONTINUOUS
 62
     3
 10
50.2000000000000313
 20
68.0
 30
-0.0000000000000151
 11
50.2000000000000313
 21
70.0
 31
-0.0000000000000155
210
0.0
220
1.0
230
-0.0000000000000002
  0
ARC
  5
3E23
  8
0
  6
CONTINUOUS
 62
     3
 10
-16.3074518232964714
 20
54.2861558683187013
 30
0.0
 40
29.9999999999997691
210
0.0
220
-0.0000000000000002
230
-1.0
 50
191.2917700051418137
 51
216.3610702188769039
  0
ARC
  5
3E24
  8
0
  6
CONTINUOUS
 62
     3
 10
16.3074518232960983
 20
54.2861558683188505
 30
0.0
 40
30.0000000000001599
210
0.0
220
-0.0000000000000002
230
-1.0
 50
323.6389297811231813
 51
348.7082299948580157
  0
ARC
  5
3E25
  8
0
  6
CONTINUOUS
 62
     3
 10
-75.1460194773271297
 20
42.5378386942690128
 30
0.0
 40
30.0000000000002203
210
0.0
220
-0.0000000000000002
230
-1.0
 50
11.29177000514259
 51
29.1143386591438791
  0
ARC
  5
3E26
  8
0
  6
CONTINUOUS
 62
     3
 10
75.1460194773268881
 20
42.537838694269098
 30
0.0
 40
29.9999999999999609
210
0.0
220
-0.0000000000000002
230
-1.0
 50
150.8856613408561032
 51
168.7082299948575042
  0
LINE
  5
3E27
  8
0
  6
CONTINUOUS
 62
     3
 10
51.6235332713359369
 20
58.0000000000000924
 30
-0.0000000000000129
 11
-51.6235332713360293
 21
58.0
 31
-0.0000000000000129
210
0.0
220
1.0
230
-0.0000000000000002
  0
LINE
  5
3E28
  8
0
  6
CONTINUOUS
 62
     3
 10
-122.5
 20
65.9999999999999574
 30
-0.0000000000000147
 11
122.4999999999999005
 21
66.0000000000000142
 31
-0.0000000000000147
210
0.0
220
1.0
230
-0.0000000000000002
  0
LINE
  5
3E29
  8
0
  6
CONTINUOUS
 62
     3
 10
-122.5
 20
67.9999999999999574
 30
-0.0000000000000151
 11
122.4999999999999005
 21
68.0000000000000142
 31
-0.0000000000000151
210
0.0
220
1.0
230
-0.0000000000000002
  0
LINE
  5
3E2A
  8
0
  6
CONTINUOUS
 62
     3
 10
-51.6235332713360222
 20
58.0000000000000071
 30
-0.0000000000000129
 11
-54.1264667286641128
 21
64.6999093378411203
 31
-0.0000000000000144
210
0.0
220
1.0
230
-0.0000000000000002
  0
LINE
  5
3E2B
  8
0
  6
CONTINUOUS
 62
     3
 10
51.6235332713359227
 20
58.0000000000000924
 30
-0.0000000000000129
 11
54.1264667286640133
 21
64.6999093378412198
 31
-0.0000000000000144
210
0.0
220
1.0
230
-0.0000000000000002
  0
ARC
  5
3E2C
  8
0
  6
CONTINUOUS
 62
     3
 10
-55.9999999999999716
 20
64.0000000000000426
 30
0.0
 40
1.999999999999998
210
0.0
220
-0.0000000000000002
230
-1.0
 50
20.4845424892784003
 51
89.9999999999993889
  0
ARC
  5
3E2D
  8
0
  6
CONTINUOUS
 62
     3
 10
56.0000000000000497
 20
63.9999999999999787
 30
0.0
 40
1.999999999999964
210
0.0
220
-0.0000000000000002
230
-1.0
 50
89.9999999999995879
 51
159.5154575107218875
  0
LINE
  5
3E2E
  8
0
  6
CONTINUOUS
 62
     3
 10
122.4999999999999005
 20
68.0000000000000142
 30
-0.0000000000000151
 11
122.4999999999999005
 21
66.0000000000000142
 31
-0.0000000000000147
210
0.0
220
1.0
230
-0.0000000000000002
  0
LINE
  5
3E2F
  8
0
  6
CONTINUOUS
 62
     3
 10
-122.5
 20
67.9999999999999289
 30
-0.0000000000000151
 11
-122.5
 21
65.9999999999999289
 31
-0.0000000000000147
210
0.0
220
1.0
230
-0.0000000000000002
  0
LINE
  5
3E30
  8
0
  6
CONTINUOUS
 62
     3
 10
35.5
 20
-0.0000000000000064
 30
0.0
 11
-35.5
 21
0.0000000000000064
 31
0.0
210
0.0
220
1.0
230
-0.0000000000000002
  0
LINE
  5
3E31
  8
0
  6
CONTINUOUS
 62
     3
 10
40.75
 20
36.1194316653312697
 30
-0.000000000000008
 11
-40.7499999999999787
 21
36.1194316653312697
 31
-0.000000000000008
210
0.0
220
1.0
230
-0.0000000000000002
  0
ARC
  5
3E32
  8
0
  6
CONTINUOUS
 62
     3
 10
-35.5000000000016698
 20
8.0622577482984088
 30
0.0
 40
0.9999999999983302
210
0.0
220
-0.0000000000000002
230
-1.0
 50
179.9999999999953104
 51
187.1250163489090141
  0
ARC
  5
3E33
  8
0
  6
CONTINUOUS
 62
     3
 10
35.5000000000016414
 20
8.0622577482984248
 30
0.0
 40
0.9999999999983658
210
0.0
220
-0.0000000000000002
230
-1.0
 50
352.8749836510910995
 51
0.000000000004566
  0
LINE
  5
3E34
  8
0
  6
CONTINUOUS
 62
     3
 10
-35.5000000000000071
 20
0.0000000000000053
 30
0.0
 11
-36.492277876713672
 21
7.9382230137092948
 31
-0.0000000000000018
210
0.0
220
1.0
230
-0.0000000000000002
  0
LINE
  5
3E35
  8
0
  6
CONTINUOUS
 62
     3
 10
35.5000000000000071
 20
-0.0000000000000075
 30
0.0
 11
36.492277876713672
 21
7.9382230137092806
 31
-0.0000000000000018
210
0.0
220
1.0
230
-0.0000000000000002
  0
LINE
  5
3E36
  8
0
  6
CONTINUOUS
 62
     3
 10
-36.5
 20
8.0622577482985047
 30
-0.0000000000000018
 11
-36.5
 21
30.0000000000000213
 31
-0.0000000000000067
210
0.0
220
1.0
230
-0.0000000000000002
  0
LINE
  5
3E37
  8
0
  6
CONTINUOUS
 62
     3
 10
36.5
 20
8.0622577482984905
 30
-0.0000000000000018
 11
36.5
 21
30.0
 31
-0.0000000000000067
210
0.0
220
1.0
230
-0.0000000000000002
  0
ARC
  5
3E38
  8
0
  6
CONTINUOUS
 62
     3
 10
-41.5
 20
30.0
 30
0.0
 40
5.0
210
0.0
220
-0.0000000000000002
230
-1.0
 50
0.0
 51
47.2065004727361668
  0
ARC
  5
3E39
  8
0
  6
CONTINUOUS
 62
     3
 10
41.4999999999999503
 20
30.0000000000000284
 30
0.0
 40
4.9999999999999654
210
0.0
220
-0.0000000000000002
230
-1.0
 50
132.7934995272634922
 51
180.0000000000001137
  0
LINE
  5
3E3A
  8
0
  6
CONTINUOUS
 62
     3
 10
-38.1032097258887319
 20
33.6690347277864888
 30
-0.0000000000000075
 11
-40.7499999999999787
 21
36.1194316653312697
 31
-0.000000000000008
210
0.0
220
1.0
230
-0.0000000000000002
  0
LINE
  5
3E3B
  8
0
  6
CONTINUOUS
 62
     3
 10
38.103209725888739
 20
33.6690347277864674
 30
-0.0000000000000075
 11
40.75
 21
36.1194316653312484
 31
-0.000000000000008
210
0.0
220
1.0
230
-0.0000000000000002
  0
LINE
  5
3E3C
  8
0
  6
CONTINUOUS
 62
     3
 10
40.3976700511860827
 20
36.5
 30
-0.0000000000000081
 11
40.7500000000000071
 21
36.1194316653312626
 31
-0.000000000000008
210
0.0
220
1.0
230
-0.0000000000000002
  0
LINE
  5
3E3D
  8
0
  6
CONTINUOUS
 62
     3
 10
-40.3976700511860827
 20
36.5
 30
-0.0000000000000081
 11
-40.7499999999999787
 21
36.1194316653312768
 31
-0.000000000000008
210
0.0
220
1.0
230
-0.0000000000000002
  0
LINE
  5
3E3E
  8
0
  6
CONTINUOUS
 62
     3
 10
-42.3000000000000327
 20
-57.0000000000001279
 30
0.0000000000000127
 11
42.2999999999999829
 21
-57.0000000000001279
 31
0.0000000000000127
210
0.0
220
1.0
230
-0.0000000000000002
  0
LINE
  5
3E3F
  8
0
  6
CONTINUOUS
 62
     3
 10
-40.5000000000000284
 20
-62.4949548389092868
 30
0.0000000000000139
 11
40.4999999999999716
 21
-62.4949548389092868
 31
0.0000000000000139
210
0.0
220
1.0
230
-0.0000000000000002
  0
LINE
  5
3E40
  8
0
  6
CONTINUOUS
 62
     3
 10
-40.5000000000000284
 20
-63.6000000000001009
 30
0.0000000000000141
 11
40.4999999999999716
 21
-63.6000000000001009
 31
0.0000000000000141
210
0.0
220
1.0
230
-0.0000000000000002
  0
LINE
  5
3E41
  8
0
  6
CONTINUOUS
 62
     3
 10
-41.9000000000000625
 20
-65.0000000000001279
 30
0.0000000000000144
 11
41.8999999999999986
 21
-65.0000000000001279
 31
0.0000000000000144
210
0.0
220
1.0
230
-0.0000000000000002
  0
LINE
  5
3E42
  8
0
  6
CONTINUOUS
 62
     3
 10
-41.9000000000000625
 20
-66.0000000000001137
 30
0.0000000000000147
 11
41.8999999999999986
 21
-66.0000000000001137
 31
0.0000000000000147
210
0.0
220
1.0
230
-0.0000000000000002
  0
LINE
  5
3E43
  8
0
  6
CONTINUOUS
 62
     3
 10
-40.5000000000000711
 20
-67.4000000000001052
 30
0.000000000000015
 11
40.5000000000000213
 21
-67.4000000000001052
 31
0.000000000000015
210
0.0
220
1.0
230
-0.0000000000000002
  0
LINE
  5
3E44
  8
0
  6
CONTINUOUS
 62
     3
 10
-40.5000000000000711
 20
-68.0000000000001279
 30
0.0000000000000151
 11
40.5000000000000213
 21
-68.0000000000001279
 31
0.0000000000000151
210
0.0
220
1.0
230
-0.0000000000000002
  0
LINE
  5
3E45
  8
0
  6
CONTINUOUS
 62
     3
 10
-42.8000000000000327
 20
-72.0000000000001279
 30
0.000000000000016
 11
42.7999999999999687
 21
-72.0000000000001279
 31
0.000000000000016
210
0.0
220
1.0
230
-0.0000000000000002
  0
LINE
  5
3E46
  8
0
  6
CONTINUOUS
 62
     3
 10
-34.5000000000000284
 20
-74.5000000000001279
 30
0.0000000000000165
 11
34.4999999999999716
 21
-74.5000000000001279
 31
0.0000000000000165
210
0.0
220
1.0
230
-0.0000000000000002
  0
ARC
  5
3E47
  8
0
  6
CONTINUOUS
 62
     3
 10
38.8970615154280708
 20
-53.0000000000001421
 30
0.0
 40
1.0000000000000271
210
0.0
220
-0.0000000000000002
230
-1.0
 50
29.4119136655303883
 51
89.9999999999992042
  0
ARC
  5
3E48
  8
0
  6
CONTINUOUS
 62
     3
 10
-38.8970615154280068
 20
-53.0000000000001421
 30
0.0
 40
1.000000000000028
210
0.0
220
-0.0000000000000002
230
-1.0
 50
90.00000000000081
 51
150.5880863344696081
  0
LINE
  5
3E49
  8
0
  6
CONTINUOUS
 62
     3
 10
38.897061515428021
 20
-52.0000000000000995
 30
0.0000000000000115
 11
-38.8970615154280779
 21
-52.0000000000000995
 31
0.0000000000000115
210
0.0
220
1.0
230
-0.0000000000000002
  0
LINE
  5
3E4A
  8
0
  6
CONTINUOUS
 62
     3
 10
39.7681732327772792
 20
-52.5089151031677801
 30
0.0000000000000117
 11
42.2999999999999901
 21
-57.0000000000001279
 31
0.0000000000000127
210
0.0
220
1.0
230
-0.0000000000000002
  0
LINE
  5
3E4B
  8
0
  6
CONTINUOUS
 62
     3
 10
-39.7681732327773432
 20
-52.5089151031677801
 30
0.0000000000000117
 11
-42.3000000000000398
 21
-57.0000000000001279
 31
0.0000000000000127
210
0.0
220
1.0
230
-0.0000000000000002
  0
ARC
  5
3E4C
  8
0
  6
CONTINUOUS
 62
     3
 10
39.214074003371131
 20
-57.5000000000000711
 30
0.0
 40
0.5
210
0.0
220
-0.0000000000000002
230
-1.0
 50
90.0000000000016058
 51
199.9999999999990052
  0
ARC
  5
3E4D
  8
0
  6
CONTINUOUS
 62
     3
 10
-39.2140740033710671
 20
-57.5000000000000711
 30
0.0
 40
0.4999999999999987
210
0.0
220
-0.0000000000000002
230
-1.0
 50
339.9999999999998863
 51
89.9999999999983658
  0
LINE
  5
3E4E
  8
0
  6
CONTINUOUS
 62
     3
 10
38.7442276929781002
 20
-57.6710100716628915
 30
0.0000000000000128
 11
40.4999999999999787
 21
-62.4949548389092868
 31
0.0000000000000139
210
0.0
220
1.0
230
-0.0000000000000002
  0
LINE
  5
3E4F
  8
0
  6
CONTINUOUS
 62
     3
 10
-38.7442276929781713
 20
-57.6710100716628986
 30
0.0000000000000128
 11
-40.5000000000000284
 21
-62.4949548389092868
 31
0.0000000000000139
210
0.0
220
1.0
230
-0.0000000000000002
  0
LINE
  5
3E50
  8
0
  6
CONTINUOUS
 62
     3
 10
40.4999999999999716
 20
-62.4949548389092868
 30
0.0000000000000139
 11
40.4999999999999716
 21
-63.6000000000001009
 31
0.0000000000000141
210
0.0
220
1.0
230
-0.0000000000000002
  0
LINE
  5
3E51
  8
0
  6
CONTINUOUS
 62
     3
 10
-40.5000000000000284
 20
-62.4949548389092868
 30
0.0000000000000139
 11
-40.5000000000000284
 21
-63.6000000000001009
 31
0.0000000000000141
210
0.0
220
1.0
230
-0.0000000000000002
  0
LINE
  5
3E52
  8
0
  6
CONTINUOUS
 62
     3
 10
40.4999999999999716
 20
-63.6000000000001009
 30
0.0000000000000141
 11
41.8999999999999986
 21
-65.0000000000001279
 31
0.0000000000000144
210
0.0
220
1.0
230
-0.0000000000000002
  0
LINE
  5
3E53
  8
0
  6
CONTINUOUS
 62
     3
 10
-40.5000000000000284
 20
-63.6000000000001009
 30
0.0000000000000141
 11
-41.9000000000000625
 21
-65.0000000000001279
 31
0.0000000000000144
210
0.0
220
1.0
230
-0.0000000000000002
  0
LINE
  5
3E54
  8
0
  6
CONTINUOUS
 62
     3
 10
41.8999999999999986
 20
-65.0000000000001279
 30
0.0000000000000144
 11
41.8999999999999986
 21
-66.0000000000001137
 31
0.0000000000000147
210
0.0
220
1.0
230
-0.0000000000000002
  0
LINE
  5
3E55
  8
0
  6
CONTINUOUS
 62
     3
 10
-41.9000000000000625
 20
-65.0000000000001279
 30
0.0000000000000144
 11
-41.9000000000000625
 21
-66.0000000000001137
 31
0.0000000000000147
210
0.0
220
1.0
230
-0.0000000000000002
  0
LINE
  5
3E56
  8
0
  6
CONTINUOUS
 62
     3
 10
-40.5000000000000782
 20
-67.4000000000001052
 30
0.000000000000015
 11
-41.9000000000000625
 21
-66.0000000000001137
 31
0.0000000000000147
210
0.0
220
1.0
230
-0.0000000000000002
  0
LINE
  5
3E57
  8
0
  6
CONTINUOUS
 62
     3
 10
40.5000000000000284
 20
-67.4000000000001052
 30
0.000000000000015
 11
41.8999999999999986
 21
-66.0000000000001137
 31
0.0000000000000147
210
0.0
220
1.0
230
-0.0000000000000002
  0
LINE
  5
3E58
  8
0
  6
CONTINUOUS
 62
     3
 10
40.5000000000000284
 20
-67.4000000000001052
 30
0.000000000000015
 11
40.5000000000000284
 21
-68.0000000000001279
 31
0.0000000000000151
210
0.0
220
1.0
230
-0.0000000000000002
  0
LINE
  5
3E59
  8
0
  6
CONTINUOUS
 62
     3
 10
-40.5000000000000782
 20
-67.4000000000001052
 30
0.000000000000015
 11
-40.5000000000000782
 21
-68.0000000000001279
 31
0.0000000000000151
210
0.0
220
1.0
230
-0.0000000000000002
  0
LINE
  5
3E5A
  8
0
  6
CONTINUOUS
 62
     3
 10
40.5000000000000284
 20
-68.0000000000001279
 30
0.0000000000000151
 11
42.7999999999999829
 21
-72.0000000000001279
 31
0.000000000000016
210
0.0
220
1.0
230
-0.0000000000000002
  0
LINE
  5
3E5B
  8
0
  6
CONTINUOUS
 62
     3
 10
-40.5000000000000782
 20
-68.0000000000001279
 30
0.0000000000000151
 11
-42.8000000000000327
 21
-72.0000000000001279
 31
0.000000000000016
210
0.0
220
1.0
230
-0.0000000000000002
  0
ARC
  5
3E5C
  8
0
  6
CONTINUOUS
 62
     3
 10
34.5000000000000568
 20
-70.5000000000001705
 30
0.0
 40
3.9999999999999569
210
0.0
220
-0.0000000000000002
230
-1.0
 50
270.0
 51
337.9756871629587067
  0
ARC
  5
3E5D
  8
0
  6
CONTINUOUS
 62
     3
 10
-34.5
 20
-70.5000000000001705
 30
0.0
 40
3.9999999999999538
210
0.0
220
-0.0000000000000002
230
-1.0
 50
202.0243128370416912
 51
270.0000000000003979
  0
LINE
  5
3E5E
  8
0
  6
VERDECKT
 62
     1
 10
39.5000000000000071
 20
37.2114462347327617
 30
-0.0000000000000083
 11
-39.5
 21
37.2114462347327617
 31
-0.0000000000000083
210
0.0
220
1.0
230
-0.0000000000000002
  0
ARC
  5
3E5F
  8
0
  6
VERDECKT
 62
     1
 10
-40.1999999999999815
 20
62.0
 30
0.0
 40
10.0000000000000497
210
0.0
220
-0.0000000000000002
230
-1.0
 50
180.0
 51
203.5781784782010106
  0
ARC
  5
3E60
  8
0
  6
VERDECKT
 62
     1
 10
40.1999999999997897
 20
62.0000000000000213
 30
0.0
 40
10.0000000000002505
210
0.0
220
-0.0000000000000002
230
-1.0
 50
336.4218215217986199
 51
359.9999999999997158
  0
LINE
  5
3E61
  8
0
  6
VERDECKT
 62
     1
 10
-50.2000000000000313
 20
61.9999999999999787
 30
-0.0000000000000138
 11
-50.2000000000000313
 21
67.9999999999999574
 31
-0.0000000000000151
210
0.0
220
1.0
230
-0.0000000000000002
  0
LINE
  5
3E62
  8
0
  6
VERDECKT
 62
     1
 10
50.2000000000000313
 20
62.0
 30
-0.0000000000000138
 11
50.2000000000000313
 21
68.0
 31
-0.0000000000000151
210
0.0
220
1.0
230
-0.0000000000000002
  0
LINE
  5
3E63
  8
0
  6
VERDECKT
 62
     1
 10
-49.0000000000000213
 20
61.9999999999999787
 30
-0.0000000000000138
 11
-49.0000000000000213
 21
69.9999999999999858
 31
-0.0000000000000155
210
0.0
220
1.0
230
-0.0000000000000002
  0
LINE
  5
3E64
  8
0
  6
VERDECKT
 62
     1
 10
49.0000000000000213
 20
62.0
 30
-0.0000000000000138
 11
49.0000000000000213
 21
70.0
 31
-0.0000000000000155
210
0.0
220
1.0
230
-0.0000000000000002
  0
ARC
  5
3E65
  8
0
  6
VERDECKT
 62
     1
 10
-40.1999999999999602
 20
62.0000000000000071
 30
0.0
 40
8.8000000000000611
210
0.0
220
-0.0000000000000002
230
-1.0
 50
180.0
 51
209.1143386591436979
  0
ARC
  5
3E66
  8
0
  6
VERDECKT
 62
     1
 10
40.2000000000002231
 20
61.9999999999999289
 30
0.0
 40
8.7999999999998035
210
0.0
220
-0.0000000000000002
230
-1.0
 50
330.8856613408559042
 51
0.0000000000003308
  0
ARC
  5
3E67
  8
0
  6
VERDECKT
 62
     1
 10
-75.146019477326746
 20
42.5378386942691691
 30
0.0
 40
31.199999999999811
210
0.0
220
-0.0000000000000002
230
-1.0
 50
11.2917700051424408
 51
29.1143386591439608
  0
ARC
  5
3E68
  8
0
  6
VERDECKT
 62
     1
 10
75.1460194773265187
 20
42.537838694269233
 30
0.0
 40
31.1999999999995801
210
0.0
220
-0.0000000000000002
230
-1.0
 50
150.8856613408559042
 51
168.7082299948575894
  0
ARC
  5
3E69
  8
0
  6
VERDECKT
 62
     1
 10
-16.3074518232962191
 20
54.2861558683187795
 30
0.0
 40
28.8000000000000114
210
0.0
220
-0.0000000000000002
230
-1.0
 50
191.2917700051418137
 51
216.361070218876705
  0
ARC
  5
3E6A
  8
0
  6
VERDECKT
 62
     1
 10
16.3074518232960308
 20
54.286155868318879
 30
0.0
 40
28.800000000000221
210
0.0
220
-0.0000000000000002
230
-1.0
 50
323.638929781123295
 51
348.7082299948580157
  0
LINE
  5
3E6B
  8
0
  6
VERDECKT
 62
     1
 10
39.5000000000000071
 20
37.2114462347327688
 30
-0.0000000000000083
 11
40.4663561740293289
 21
36.5000000000000071
 31
-0.0000000000000081
210
0.0
220
1.0
230
-0.0000000000000002
  0
LINE
  5
3E6C
  8
0
  6
VERDECKT
 62
     1
 10
-39.4999999999999929
 20
37.2114462347327475
 30
-0.0000000000000083
 11
-40.4663561740293289
 21
36.4999999999999929
 31
-0.0000000000000081
210
0.0
220
1.0
230
-0.0000000000000002
  0
LINE
  5
3E6D
  8
0
  6
VERDECKT
 62
     1
 10
49.7499999999999574
 20
58.6999093378412482
 30
-0.000000000000013
 11
-49.7500000000000426
 21
58.6999093378411629
 31
-0.000000000000013
210
0.0
220
1.0
230
-0.0000000000000002
  0
ARC
  5
3E6E
  8
0
  6
VERDECKT
 62
     1
 10
-55.9999999999999716
 20
64.0000000000000568
 30
0.0
 40
3.999999999999988
210
0.0
220
-0.0000000000000002
230
-1.0
 50
20.4845424892778105
 51
89.9999999999998153
  0
ARC
  5
3E6F
  8
0
  6
VERDECKT
 62
     1
 10
56.0000000000000497
 20
63.9999999999999787
 30
0.0
 40
3.999999999999964
210
0.0
220
-0.0000000000000002
230
-1.0
 50
89.999999999999801
 51
159.5154575107220012
  0
LINE
  5
3E70
  8
0
  6
VERDECKT
 62
     1
 10
-49.7500000000000426
 20
58.69990933784117
 30
-0.000000000000013
 11
-52.2529334573281616
 21
65.399818675682269
 31
-0.0000000000000145
210
0.0
220
1.0
230
-0.0000000000000002
  0
LINE
  5
3E71
  8
0
  6
VERDECKT
 62
     1
 10
49.7499999999999432
 20
58.6999093378412482
 30
-0.000000000000013
 11
52.252933457328048
 21
65.3998186756823543
 31
-0.0000000000000145
210
0.0
220
1.0
230
-0.0000000000000002
  0
LINE
  5
3E72
  8
0
  6
VERDECKT
 62
     1
 10
49.7499999999999503
 20
58.6999093378412482
 30
-0.000000000000013
 11
51.6235332713359298
 21
58.0000000000000924
 31
-0.0000000000000129
210
0.0
220
1.0
230
-0.0000000000000002
  0
LINE
  5
3E73
  8
0
  6
VERDECKT
 62
     1
 10
-49.7500000000000426
 20
58.69990933784117
 30
-0.000000000000013
 11
-51.6235332713360293
 21
58.0
 31
-0.0000000000000129
210
0.0
220
1.0
230
-0.0000000000000002
  0
LINE
  5
3E74
  8
0
  6
VERDECKT
 62
     1
 10
34.3092665479436008
 20
0.1488416815070447
 30
0.0
 11
-34.3092665479436008
 21
0.148841681507057
 31
0.0
210
0.0
220
1.0
230
-0.0000000000000002
  0
LINE
  5
3E75
  8
0
  6
VERDECKT
 62
     1
 10
39.9347703342132974
 20
37.0000000000000213
 30
-0.0000000000000082
 11
-39.9347703342132974
 21
37.0000000000000213
 31
-0.0000000000000082
210
0.0
220
1.0
230
-0.0000000000000002
  0
ARC
  5
3E76
  8
0
  6
VERDECKT
 62
     1
 10
-34.3000000000016882
 20
8.1369670462567196
 30
0.0
 40
0.999999999998316
210
0.0
220
-0.0000000000000002
230
-1.0
 50
179.9999999999953104
 51
187.1250163489090141
  0
ARC
  5
3E77
  8
0
  6
VERDECKT
 62
     1
 10
34.3000000000016314
 20
8.1369670462567356
 30
0.0
 40
0.999999999998373
210
0.0
220
-0.0000000000000002
230
-1.0
 50
352.8749836510909859
 51
0.00000000000458
  0
LINE
  5
3E78
  8
0
  6
VERDECKT
 62
     1
 10
-35.3000000000000114
 20
8.1369670462568156
 30
-0.0000000000000018
 11
-35.3000000000000114
 21
30.0000000000000213
 31
-0.0000000000000067
210
0.0
220
1.0
230
-0.0000000000000002
  0
LINE
  5
3E79
  8
0
  6
VERDECKT
 62
     1
 10
35.3000000000000114
 20
8.1369670462568013
 30
-0.0000000000000018
 11
35.3000000000000114
 21
30.0
 31
-0.0000000000000067
210
0.0
220
1.0
230
-0.0000000000000002
  0
LINE
  5
3E7A
  8
0
  6
VERDECKT
 62
     1
 10
-34.3092665479436008
 20
0.1488416815070575
 30
0.0
 11
-35.2922778767136691
 21
8.012932311667603
 31
-0.0000000000000018
210
0.0
220
1.0
230
-0.0000000000000002
  0
LINE
  5
3E7B
  8
0
  6
VERDECKT
 62
     1
 10
34.3092665479436008
 20
0.1488416815070446
 30
0.0
 11
35.2922778767136833
 21
8.0129323116675923
 31
-0.0000000000000018
210
0.0
220
1.0
230
-0.0000000000000002
  0
LINE
  5
3E7C
  8
0
  6
VERDECKT
 62
     1
 10
39.9347703342132974
 20
37.0000000000000071
 30
-0.0000000000000082
 11
40.3976700511860827
 21
36.5
 31
-0.0000000000000081
210
0.0
220
1.0
230
-0.0000000000000002
  0
LINE
  5
3E7D
  8
0
  6
VERDECKT
 62
     1
 10
-39.9347703342132903
 20
37.0000000000000071
 30
-0.0000000000000082
 11
-40.3976700511860827
 21
36.5
 31
-0.0000000000000081
210
0.0
220
1.0
230
-0.0000000000000002
  0
LINE
  5
3E7E
  8
0
  6
VERDECKT
 62
     1
 10
-37.2879800601020222
 20
34.5496030624552404
 30
-0.0000000000000077
 11
-39.9347703342132903
 21
37.0000000000000213
 31
-0.0000000000000082
210
0.0
220
1.0
230
-0.0000000000000002
  0
LINE
  5
3E7F
  8
0
  6
VERDECKT
 62
     1
 10
37.2879800601020293
 20
34.5496030624552191
 30
-0.0000000000000077
 11
39.9347703342132974
 21
37.0
 31
-0.0000000000000082
210
0.0
220
1.0
230
-0.0000000000000002
  0
ARC
  5
3E80
  8
0
  6
VERDECKT
 62
     1
 10
-41.4999999999999787
 20
30.0000000000000107
 30
0.0
 40
6.1999999999999797
210
0.0
220
-0.0000000000000002
230
-1.0
 50
360.0
 51
47.2065004727360886
  0
ARC
  5
3E81
  8
0
  6
VERDECKT
 62
     1
 10
41.4999999999999432
 20
30.0000000000000284
 30
0.0
 40
6.199999999999946
210
0.0
220
-0.0000000000000002
230
-1.0
 50
132.7934995272636058
 51
180.0000000000001137
  0
LINE
  5
3E82
  8
0
  6
VERDECKT
 62
     1
 10
34.3092665479436008
 20
0.1488416815070448
 30
0.0
 11
35.5
 21
-0.0000000000000057
 31
0.0
210
0.0
220
1.0
230
-0.0000000000000002
  0
LINE
  5
3E83
  8
0
  6
VERDECKT
 62
     1
 10
-34.3092665479436008
 20
0.1488416815070571
 30
0.0
 11
-35.5
 21
0.000000000000007
 31
0.0
210
0.0
220
1.0
230
-0.0000000000000002
  0
LINE
  5
3E84
  8
0
  6
VERDECKT
 62
     1
 10
-37.0000000000000284
 20
-58.0000000000001279
 30
0.0000000000000129
 11
36.9999999999999716
 21
-58.0000000000001279
 31
0.0000000000000129
210
0.0
220
1.0
230
-0.0000000000000002
  0
LINE
  5
3E85
  8
0
  6
VERDECKT
 62
     1
 10
-32.0000000000000284
 20
-73.0000000000001279
 30
0.0000000000000162
 11
31.9999999999999716
 21
-73.0000000000001279
 31
0.0000000000000162
210
0.0
220
1.0
230
-0.0000000000000002
  0
LINE
  5
3E86
  8
0
  6
VERDECKT
 62
     1
 10
36.9999999999999716
 20
-58.0000000000001279
 30
0.0000000000000129
 11
36.9999999999999716
 21
-68.0000000000001279
 31
0.0000000000000151
210
0.0
220
1.0
230
-0.0000000000000002
  0
LINE
  5
3E87
  8
0
  6
VERDECKT
 62
     1
 10
-37.0000000000000284
 20
-58.0000000000001279
 30
0.0000000000000129
 11
-37.0000000000000284
 21
-68.0000000000001279
 31
0.0000000000000151
210
0.0
220
1.0
230
-0.0000000000000002
  0
LINE
  5
3E88
  8
0
  6
VERDECKT
 62
     1
 10
-37.0000000000000284
 20
-58.0000000000001279
 30
0.0000000000000129
 11
-37.9122537624158724
 21
-52.8263518223331729
 31
0.0000000000000117
210
0.0
220
1.0
230
-0.0000000000000002
  0
LINE
  5
3E89
  8
0
  6
VERDECKT
 62
     1
 10
36.9999999999999716
 20
-58.0000000000001279
 30
0.0000000000000129
 11
37.9122537624158227
 21
-52.8263518223331729
 31
0.0000000000000117
210
0.0
220
1.0
230
-0.0000000000000002
  0
ARC
  5
3E8A
  8
0
  6
VERDECKT
 62
     1
 10
38.8970615154280921
 20
-53.0000000000001066
 30
0.0
 40
1.0000000000000071
210
0.0
220
-0.0000000000000002
230
-1.0
 50
90.0000000000003979
 51
169.9999999999990052
  0
ARC
  5
3E8B
  8
0
  6
VERDECKT
 62
     1
 10
-38.8970615154280281
 20
-53.0000000000001066
 30
0.0
 40
1.0000000000000071
210
0.0
220
-0.0000000000000002
230
-1.0
 50
10.0000000000009397
 51
89.9999999999995879
  0
LINE
  5
3E8C
  8
0
  6
VERDECKT
 62
     1
 10
40.1756658041690287
 20
-70.4725600474013305
 30
0.0000000000000156
 11
40.9999999999999574
 21
-72.0000000000001279
 31
0.000000000000016
210
0.0
220
1.0
230
-0.0000000000000002
  0
LINE
  5
3E8D
  8
0
  6
VERDECKT
 62
     1
 10
-40.1756658041690784
 20
-70.4725600474013305
 30
0.0000000000000156
 11
-41.0000000000000284
 21
-72.0000000000001279
 31
0.000000000000016
210
0.0
220
1.0
230
-0.0000000000000002
  0
ARC
  5
3E8E
  8
0
  6
VERDECKT
 62
     1
 10
39.3836461788299275
 20
-70.9000000000001336
 30
0.0
 40
0.9000000000000328
210
0.0
220
-0.0000000000000002
230
-1.0
 50
28.3550060284115588
 51
89.9999999999986642
  0
ARC
  5
3E8F
  8
0
  6
VERDECKT
 62
     1
 10
39.3836461788299701
 20
-70.9000000000001336
 30
0.0
 40
0.9000000000000341
210
0.0
220
-0.0000000000000002
230
-1.0
 50
90.0000000000013358
 51
175.3175831377299119
  0
ARC
  5
3E90
  8
0
  6
VERDECKT
 62
     1
 10
-39.3836461788299133
 20
-70.9000000000001336
 30
0.0
 40
0.9000000000000262
210
0.0
220
-0.0000000000000002
230
-1.0
 50
4.6824168622700792
 51
89.9999999999986358
  0
ARC
  5
3E91
  8
0
  6
VERDECKT
 62
     1
 10
-39.3836461788298706
 20
-70.9000000000001336
 30
0.0
 40
0.9000000000000341
210
0.0
220
-0.0000000000000002
230
-1.0
 50
90.0000000000013358
 51
151.6449939715884057
  0
LINE
  5
3E92
  8
0
  6
VERDECKT
 62
     1
 10
39.3836461788298919
 20
-70.0000000000001137
 30
0.0000000000000155
 11
-39.3836461788299488
 21
-70.0000000000001137
 31
0.0000000000000155
210
0.0
220
1.0
230
-0.0000000000000002
  0
ARC
  5
3E93
  8
0
  6
VERDECKT
 62
     1
 10
34.5000000000001776
 20
-70.5000000000001847
 30
0.0
 40
3.999999999999837
210
0.0
220
-0.0000000000000002
230
-1.0
 50
337.9756871629576835
 51
355.3175831377308214
  0
ARC
  5
3E94
  8
0
  6
VERDECKT
 62
     1
 10
-34.5000000000001208
 20
-70.5000000000001847
 30
0.0
 40
3.999999999999837
210
0.0
220
-0.0000000000000002
230
-1.0
 50
184.6824168622690934
 51
202.0243128370422028
  0
LINE
  5
3E95
  8
0
  6
VERDECKT
 62
     1
 10
31.9999999999999716
 20
-73.0000000000001279
 30
0.0000000000000162
 11
31.9999999999999716
 21
-74.5000000000001279
 31
0.0000000000000165
210
0.0
220
1.0
230
-0.0000000000000002
  0
LINE
  5
3E96
  8
0
  6
VERDECKT
 62
     1
 10
-32.0000000000000284
 20
-73.0000000000001279
 30
0.0000000000000162
 11
-32.0000000000000284
 21
-74.5000000000001279
 31
0.0000000000000165
210
0.0
220
1.0
230
-0.0000000000000002
  0
ARC
  5
3E97
  8
0
  6
VERDECKT
 62
     1
 10
32.0000000000000284
 20
-68.0000000000001279
 30
0.0
 40
5.0
210
0.0
220
-0.0000000000000002
230
-1.0
 50
270.0
 51
0.0
  0
ARC
  5
3E98
  8
0
  6
VERDECKT
 62
     1
 10
-31.9999999999999716
 20
-68.0000000000001279
 30
0.0
 40
5.0
210
0.0
220
-0.0000000000000002
230
-1.0
 50
180.0
 51
270.0
  0
ENDBLK
  5
3E9A
  8
0
  0
ENDSEC
  0
SECTION
  2
ENTITIES
  0
TEXT
  5
3D7
  8
VOLL
 10
78.076754716981128
 20
31.025947764705851
 30
0.0
 40
1.8
  1

  7
GREEKS
  0
INSERT
  5
AD0
  8
ADSK_ASSOC_ENTITY_BACKUPS
  2
*S0
 10
0.0
 20
0.0
 30
0.0
  0
INSERT
  5
3E1A
  8
STEMPEL
  2
A$CC032B9B0
 10
0.0
 20
-250.0
 30
0.0
  0
INSERT
  5
3E9B
  8
STEMPEL
  2
A$C6BD77AF4
 10
0.0
 20
0.0
 30
0.0
  0
VIEWPORT
  5
AAD
 67
     1
  8
0
 10
148.2557508303524116
 20
209.7583263978156083
 30
0.0
 40
795.6883637233959234
 41
422.1649484536083037
 68
     1
 69
     1
1001
ACAD
1000
MVIEW
1002
{
1070
    16
1010
0.0
1020
0.0
1030
0.0
1010
0.0
1020
0.0
1030
1.0
1040
0.0
1040
422.1649484536083037
1040
148.2557508303524116
1040
209.7583263978156083
1040
50.0
1040
0.0
1040
0.0
1070
     0
1070
  1500
1070
     1
1070
     1
1070
     0
1070
     0
1070
     0
1070
     0
1040
0.0
1040
0.0
1040
0.0
1040
10.0
1040
10.0
1040
10.0
1040
10.0
1070
     0
1002
{
1002
}
1002
}
  0
TEXT
  5
CB0
 67
     1
  8
VOLL
 10
625.5592565604117681
 20
227.4217200880700887
 30
0.0
 40
3.6000000000000001
  1

  7
GREEKS
  0
TEXT
  5
13FD
 67
     1
  8
VOLL
 10
1136.2020779486761057
 20
544.3446897115051115
 30
0.0
 40
1.8
  1

  7
GREEKS
  0
TEXT
  5
13FE
 67
     1
  8
VOLL
 10
1257.6048466178569925
 20
751.6650977567676364
 30
0.0
 40
1.8
  1

  7
GREEKS
  0
TEXT
  5
13FF
 67
     1
  8
VOLL
 10
1587.438057582276997
 20
568.0756737226744235
 30
0.0
 40
1.8
  1

  7
GREEKS
  0
TEXT
  5
1400
 67
     1
  8
VOLL
 10
1583.6057810679399154
 20
556.8718499942134486
 30
0.0
 40
1.8
  1

  7
GREEKS
  0
TEXT
  5
147D
 67
     1
  8
VOLL
 10
541.8878355258799502
 20
83.5838184280439549
 30
0.0
 40
3.6000000000000001
  1

  7
GREEKS
  0
ENDSEC
  0
EOF
