  0
SECTION
  2
HEADER
  9
$ACADVER
  1
AC1009
  9
$INSBASE
 10
0.0
 20
0.0
 30
0.0
  9
$EXTMIN
 10
1374.6788465725990136
 20
7.144110017829461
 30
101.2512148141134958
  9
$EXTMAX
 10
1635.450590001538103
 20
524.8658630402494509
 30
101.2669311270505972
  9
$LIMMIN
 10
0.0
 20
0.0
  9
$LIMMAX
 10
419.9999999999998863
 20
594.0
  9
$ORTHOMODE
 70
     1
  9
$REGENMODE
 70
     1
  9
$FILLMODE
 70
     1
  9
$QTEXTMODE
 70
     0
  9
$MIRRTEXT
 70
     1
  9
$DRAGMODE
 70
     2
  9
$LTSCALE
 40
10.0
  9
$OSMODE
 70
  2495
  9
$ATTMODE
 70
     1
  9
$TEXTSIZE
 40
3.5
  9
$TRACEWID
 40
0.5
  9
$TEXTSTYLE
  7
STANDARD
  9
$CLAYER
  8
ROHR
  9
$CELTYPE
  6
BYLAYER
  9
$CECOLOR
 62
   256
  9
$DIMSCALE
 40
1.0
  9
$DIMASZ
 40
3.5
  9
$DIMEXO
 40
1.0
  9
$DIMDLI
 40
7.0
  9
$DIMRND
 40
0.0
  9
$DIMDLE
 40
0.0
  9
$DIMEXE
 40
1.0
  9
$DIMTP
 40
0.0
  9
$DIMTM
 40
0.0
  9
$DIMTXT
 40
3.5
  9
$DIMCEN
 40
1.5
  9
$DIMTSZ
 40
0.0
  9
$DIMTOL
 70
     0
  9
$DIMLIM
 70
     0
  9
$DIMTIH
 70
     0
  9
$DIMTOH
 70
     0
  9
$DIMSE1
 70
     0
  9
$DIMSE2
 70
     0
  9
$DIMTAD
 70
     1
  9
$DIMZIN
 70
     8
  9
$DIMBLK
  1

  9
$DIMASO
 70
     1
  9
$DIMSHO
 70
     0
  9
$DIMPOST
  1

  9
$DIMAPOST
  1

  9
$DIMALT
 70
     0
  9
$DIMALTD
 70
     2
  9
$DIMALTF
 40
25.3999999999999986
  9
$DIMLFAC
 40
2.0
  9
$DIMTOFL
 70
     1
  9
$DIMTVP
 40
0.0
  9
$DIMTIX
 70
     0
  9
$DIMSOXD
 70
     0
  9
$DIMSAH
 70
     0
  9
$DIMBLK1
  1

  9
$DIMBLK2
  1

  9
$DIMSTYLE
  2
STANDARD
  9
$DIMCLRD
 70
     0
  9
$DIMCLRE
 70
     0
  9
$DIMCLRT
 70
     1
  9
$DIMTFAC
 40
0.5
  9
$DIMGAP
 40
1.5
  9
$LUNITS
 70
     2
  9
$LUPREC
 70
     2
  9
$SKETCHINC
 40
1.0
  9
$FILLETRAD
 40
0.0
  9
$AUNITS
 70
     0
  9
$AUPREC
 70
     4
  9
$MENU
  1
ACAD
  9
$ELEVATION
 40
0.0
  9
$PELEVATION
 40
0.0
  9
$THICKNESS
 40
0.0
  9
$LIMCHECK
 70
     0
  9
$BLIPMODE
 70
     0
  9
$CHAMFERA
 40
0.0
  9
$CHAMFERB
 40
0.0
  9
$SKPOLY
 70
     0
  9
$TDCREATE
 40
2455397.8646990740671754
  9
$TDUPDATE
 40
2458753.4441666668280959
  9
$TDINDWG
 40
0.5367127894
  9
$TDUSRTIMER
 40
0.5367127894
  9
$USRTIMER
 70
     1
  9
$ANGBASE
 50
0.0
  9
$ANGDIR
 70
     0
  9
$PDMODE
 70
     0
  9
$PDSIZE
 40
0.0
  9
$PLINEWID
 40
0.0
  9
$COORDS
 70
     1
  9
$SPLFRAME
 70
     0
  9
$SPLINETYPE
 70
     6
  9
$SPLINESEGS
 70
     8
  9
$ATTDIA
 70
     1
  9
$ATTREQ
 70
     1
  9
$HANDLING
 70
     1
  9
$HANDSEED
  5
5687
  9
$SURFTAB1
 70
     6
  9
$SURFTAB2
 70
     6
  9
$SURFTYPE
 70
     6
  9
$SURFU
 70
     6
  9
$SURFV
 70
     6
  9
$UCSNAME
  2

  9
$UCSORG
 10
0.0
 20
0.0
 30
0.0
  9
$UCSXDIR
 10
1.0
 20
0.0
 30
0.0
  9
$UCSYDIR
 10
0.0
 20
1.0
 30
0.0
  9
$PUCSNAME
  2

  9
$PUCSORG
 10
0.0
 20
0.0
 30
0.0
  9
$PUCSXDIR
 10
1.0
 20
0.0
 30
0.0
  9
$PUCSYDIR
 10
0.0
 20
1.0
 30
0.0
  9
$USERI1
 70
     0
  9
$USERI2
 70
     0
  9
$USERI3
 70
     0
  9
$USERI4
 70
     0
  9
$USERI5
 70
     0
  9
$USERR1
 40
0.0
  9
$USERR2
 40
0.0
  9
$USERR3
 40
0.0
  9
$USERR4
 40
0.0
  9
$USERR5
 40
0.0
  9
$WORLDVIEW
 70
     1
  9
$SHADEDGE
 70
     3
  9
$SHADEDIF
 70
    70
  9
$TILEMODE
 70
     1
  9
$MAXACTVP
 70
    16
  9
$PLIMCHECK
 70
     0
  9
$PEXTMIN
 10
1.0000000000000000E+20
 20
1.0000000000000000E+20
 30
1.0000000000000000E+20
  9
$PEXTMAX
 10
-1.0000000000000000E+20
 20
-1.0000000000000000E+20
 30
-1.0000000000000000E+20
  9
$PLIMMIN
 10
674.2640280998349454
 20
-173.4363039278256053
  9
$PLIMMAX
 10
971.2640280998349454
 20
246.5636960721743947
  9
$UNITMODE
 70
     0
  9
$VISRETAIN
 70
     0
  9
$PLINEGEN
 70
     0
  9
$PSLTSCALE
 70
     0
  0
ENDSEC
  0
SECTION
  2
TABLES
  0
TABLE
  2
VPORT
 70
     1
  0
VPORT
  2
*ACTIVE
 70
     0
 10
0.0
 20
0.0
 11
1.0
 21
1.0
 12
376.5094555735744848
 22
-271.4626262869758762
 13
0.0
 23
0.0
 14
1.0
 24
1.0
 15
10.0
 25
10.0
 16
-0.0000000000006821
 26
0.0
 36
3034.9916985181380369
 17
1128.555262713493903
 27
537.4676128160152757
 37
63.5314903259277273
 40
521.4241731870616832
 41
1.8186157517899759
 42
50.0
 43
0.0
 44
0.0
 50
0.0
 51
0.0
 71
     0
 72
  1500
 73
     1
 74
     0
 75
     0
 76
     0
 77
     0
 78
     0
  0
ENDTAB
  0
TABLE
  2
LTYPE
 70
     7
  0
LTYPE
  2
CONTINUOUS
 70
     0
  3
Solid line
 72
    65
 73
     0
 40
0.0
  0
LTYPE
  2
PHANTOM2
 70
     0
  3
Phantom (.5x) ___ _ _ ___ _ _ ___ _ _ ___ _ _
 72
    65
 73
     6
 40
1.25
 49
0.625
 49
-0.125
 49
0.125
 49
-0.125
 49
0.125
 49
-0.125
  0
LTYPE
  2
VERDECKT
 70
     0
  3
Verdeckt __ __ __ __ __ __ __ __ __ __ __ __ __
 72
    65
 73
     2
 40
0.375
 49
0.25
 49
-0.125
  0
ENDTAB
  0
TABLE
  2
LAYER
 70
    19
  0
LAYER
  2
0
 70
     0
 62
     7
  6
CONTINUOUS
  0
LAYER
  2
DEFPOINTS
 70
     0
 62
     7
  6
CONTINUOUS
  0
LAYER
  2
ROHR
 70
     0
 62
   254
  6
CONTINUOUS
  0
LAYER
  2
ADSK_ASSOC_ENTITY_BACKUPS
 70
     1
 62
    -7
  6
CONTINUOUS
  0
ENDTAB
  0
TABLE
  2
STYLE
 70
     4
  0
STYLE
  2
STANDARD
 70
     0
 40
0.0
 41
0.8
 50
0.0
 71
     0
 42
3.5
  3
simplex.shx
  4

  0
ENDTAB
  0
TABLE
  2
VIEW
 70
     1
  0
ENDTAB
  0
TABLE
  2
UCS
 70
     0
  0
ENDTAB
  0
TABLE
  2
APPID
 70
    26
  0
APPID
  2
ACAD
 70
     0
  0
APPID
  2
ACAD_NAV_VCDISPLAY
 70
     0
  0
APPID
  2
GRADIENTCOLOR1ACI
 70
     0
  0
APPID
  2
GRADIENTCOLOR2ACI
 70
     0
  0
APPID
  2
ACAD_EXEMPT_FROM_CAD_STANDARDS
 70
     0
  0
APPID
  2
ACAECLAYERSTANDARD
 70
     0
  0
APPID
  2
ACCMTRANSPARENCY
 70
     0
  0
APPID
  2
ACAD_PSEXT
 70
     0
  0
APPID
  2
ACADANNOMONITORALERTICONDI
 70
     0
  0
APPID
  2
ACAD_STEPID
 70
     0
  0
APPID
  2
ACDBDYNAMICBLOCKGUID
 70
     0
  0
APPID
  2
ACSYNERGY
 70
     0
  0
APPID
  2
SYNERGY_BODY_TBR_ID
 70
     0
  0
APPID
  2
ACAD_VIEW_EDGE_ID
 70
     0
  0
APPID
  2
ACSYNERGYSKETCH
 70
     0
  0
APPID
  2
ACAD_MODELDOC_XFORM
 70
     0
  0
APPID
  2
ACAD_DIMASSOC_CALC_DIMLFAC
 70
     0
  0
APPID
  2
ACAD_DIMASSOC_DIMLFAC
 70
     0
  0
APPID
  2
ACAD_DIMASSOC_OVERRIDDEN_D
 70
     0
  0
APPID
  2
ACAD_DSTYLE_DIMRADIAL_EXTENSION
 70
     0
  0
APPID
  2
ACADANNOTATIVE
 70
     0
  0
APPID
  2
ACAD_DSTYLE_DIMJAG
 70
     0
  0
APPID
  2
ACAD_DSTYLE_DIMTALN
 70
     0
  0
APPID
  2
ACADANNOPO
 70
     0
  0
APPID
  2
ACAD_MLEADERVER
 70
     0
  0
APPID
  2
AcDbAttr
 70
     0
  0
ENDTAB
  0
TABLE
  2
DIMSTYLE
 70
     2
  0
DIMSTYLE
  2
STANDARD
 70
     0
  3

  4

  5

  6

  7

 40
1.0
 41
0.18
 42
0.0625
 43
0.38
 44
0.18
 45
0.0
 46
0.0
 47
0.0
 48
0.0
140
0.18
141
0.09
142
0.0
143
25.3999999999999986
144
1.0
145
0.0
146
1.0
147
0.09
 71
     0
 72
     0
 73
     1
 74
     1
 75
     0
 76
     0
 77
     0
 78
     0
170
     0
171
     2
172
     0
173
     0
174
     0
175
     0
176
     0
177
     0
178
     0
  0
ENDTAB
  0
ENDSEC
  0
SECTION
  2
BLOCKS
  0
BLOCK
  8
0
  2
$MODEL_SPACE
 70
     0
 10
0.0
 20
0.0
 30
0.0
  3
$MODEL_SPACE
  1

  0
ENDBLK
  5
36
  8
0
  0
BLOCK
 67
     1
  8
0
  2
$PAPER_SPACE
 70
     0
 10
0.0
 20
0.0
 30
0.0
  3
$PAPER_SPACE
  1

  0
ENDBLK
  5
34
 67
     1
  8
0
  0
BLOCK
  8
0
  2
*S2
 70
     1
 10
0.0
 20
0.0
 30
0.0
  3
*S2
  1

  0
ENDBLK
  5
260A
  8
0
  0
BLOCK
  8
0
  2
A$C8194875C
 70
     0
 10
0.0
 20
0.0
 30
0.0
  3
A$C8194875C
  1

  0
CIRCLE
  5
518C
  8
0
  6
CONTINUOUS
 62
     3
 10
874.3658965207392839
 20
358.3239280246087901
 30
0.0000000000001883
 40
2.9999999999998859
  0
CIRCLE
  5
518D
  8
0
  6
CONTINUOUS
 62
     3
 10
874.3658965207392839
 20
358.3239280246087901
 30
0.0000000000001883
 40
3.9999999999998859
  0
CIRCLE
  5
518E
  8
0
  6
CONTINUOUS
 62
     3
 10
874.3658965207392839
 20
358.3239280246087901
 30
0.0000000000001883
 40
1.9999999999998861
  0
CIRCLE
  5
518F
  8
0
  6
CONTINUOUS
 62
     3
 10
691.3658965207391702
 20
463.9790272863102132
 30
0.0000000000001492
 40
2.9999999999998859
  0
CIRCLE
  5
5190
  8
0
  6
CONTINUOUS
 62
     3
 10
691.3658965207391702
 20
463.9790272863102132
 30
0.0000000000001492
 40
3.9999999999998859
  0
CIRCLE
  5
5191
  8
0
  6
CONTINUOUS
 62
     3
 10
691.3658965207391702
 20
463.9790272863102132
 30
0.0000000000001492
 40
1.9999999999998861
  0
CIRCLE
  5
5192
  8
0
  6
CONTINUOUS
 62
     3
 10
752.3658965207389429
 20
358.3239280246090175
 30
0.0000000000001705
 40
65.0
  0
CIRCLE
  5
5193
  8
0
  6
CONTINUOUS
 62
     3
 10
752.3658965207389429
 20
358.3239280246090175
 30
0.0000000000001705
 40
66.5
  0
CIRCLE
  5
5194
  8
0
  6
CONTINUOUS
 62
     3
 10
752.3658965207389429
 20
358.3239280246090175
 30
0.0000000000001634
 40
71.5971442154584139
  0
CIRCLE
  5
5195
  8
0
  6
CONTINUOUS
 62
     3
 10
691.3658965207391702
 20
252.6688287629071965
 30
0.0000000000001492
 40
2.9999999999998859
  0
CIRCLE
  5
5196
  8
0
  6
CONTINUOUS
 62
     3
 10
691.3658965207391702
 20
252.6688287629071965
 30
0.0000000000001492
 40
3.9999999999998859
  0
CIRCLE
  5
5197
  8
0
  6
CONTINUOUS
 62
     3
 10
691.3658965207391702
 20
252.6688287629071965
 30
0.0000000000001492
 40
1.9999999999998861
  0
CIRCLE
  5
5198
  8
0
  6
CONTINUOUS
 62
     3
 10
691.3658965207391702
 20
252.6688287629071965
 30
0.0000000000001492
 40
4.0
  0
CIRCLE
  5
5199
  8
0
  6
CONTINUOUS
 62
     3
 10
874.3658965207390565
 20
358.3239280246087901
 30
0.0000000000001883
 40
4.0
  0
CIRCLE
  5
519A
  8
0
  6
CONTINUOUS
 62
     3
 10
691.3658965207391702
 20
463.9790272863102132
 30
0.0000000000001492
 40
4.0
  0
CIRCLE
  5
519B
  8
0
  6
CONTINUOUS
 62
     3
 10
752.3658965207390565
 20
263.3239280246087901
 30
0.0000000000001634
 40
8.0
  0
CIRCLE
  5
519C
  8
0
  6
CONTINUOUS
 62
     3
 10
834.6383098802608629
 20
405.8239280246087901
 30
0.0000000000001776
 40
8.0
  0
CIRCLE
  5
519D
  8
0
  6
CONTINUOUS
 62
     3
 10
670.0934831612174776
 20
405.8239280246087901
 30
0.0000000000001421
 40
8.0
  0
CIRCLE
  5
519E
  8
0
  6
CONTINUOUS
 62
     3
 10
670.0934831612174776
 20
310.8239280246087901
 30
0.0000000000001421
 40
8.0
  0
CIRCLE
  5
519F
  8
0
  6
CONTINUOUS
 62
     3
 10
752.3658965207390565
 20
453.3239280246086764
 30
0.0000000000001634
 40
8.0
  0
CIRCLE
  5
51A0
  8
0
  6
CONTINUOUS
 62
     3
 10
834.6383098802607492
 20
310.8239280246087901
 30
0.0000000000001776
 40
8.0
  0
CIRCLE
  5
51A1
  8
0
  6
CONTINUOUS
 62
     3
 10
691.3658965207391702
 20
463.9790272863102132
 30
0.0000000000001492
 40
7.5
  0
CIRCLE
  5
51A2
  8
0
  6
CONTINUOUS
 62
     3
 10
874.3658965207390565
 20
358.3239280246087901
 30
0.0000000000001883
 40
7.5
  0
CIRCLE
  5
51A3
  8
0
  6
CONTINUOUS
 62
     3
 10
691.3658965207391702
 20
252.6688287629071965
 30
0.0000000000001492
 40
7.4999999999999991
  0
CIRCLE
  5
51A4
  8
0
  6
CONTINUOUS
 62
     3
 10
752.3658965207390565
 20
358.3239280246086764
 30
0.0000000000001634
 40
64.0000000000001137
  0
CIRCLE
  5
51A5
  8
0
  6
CONTINUOUS
 62
     3
 10
752.3658965207390565
 20
358.3239280246086764
 30
0.0000000000001634
 40
130.0
  0
CIRCLE
  5
51A6
  8
0
  6
VERDECKT
 62
     1
 10
874.3658965207392839
 20
358.3239280246087901
 30
0.0000000000001883
 40
3.4999999999998859
  0
CIRCLE
  5
51A7
  8
0
  6
VERDECKT
 62
     1
 10
691.3658965207391702
 20
463.9790272863102132
 30
0.0000000000001492
 40
3.4999999999998859
  0
CIRCLE
  5
51A8
  8
0
  6
VERDECKT
 62
     1
 10
752.3658965207389429
 20
358.3239280246090175
 30
0.0000000000001634
 40
70.0980579749296169
  0
CIRCLE
  5
51A9
  8
0
  6
VERDECKT
 62
     1
 10
691.3658965207391702
 20
252.6688287629071965
 30
0.0000000000001492
 40
3.4999999999998859
  0
CIRCLE
  5
51AA
  8
0
  6
VERDECKT
 62
     1
 10
752.3658965207390565
 20
358.3239280246086764
 30
0.0000000000001616
 40
65.920642322046433
  0
ENDBLK
  5
51AC
  8
0
  0
BLOCK
  8
0
  2
A$C1F4E1AFC
 70
     0
 10
0.0
 20
0.0
 30
0.0
  3
A$C1F4E1AFC
  1

  0
LINE
  5
51B0
  8
0
  6
CONTINUOUS
 62
     3
 10
818.8658965207389429
 20
166.5314876081633884
 30
-0.000000000000037
 11
752.3658965207389429
 21
166.5314876081633884
 31
-0.000000000000037
210
0.0
220
1.0
230
-0.0000000000000002
  0
LINE
  5
51B1
  8
0
  6
CONTINUOUS
 62
     3
 10
752.3658965207388292
 20
166.5314876081633884
 30
-0.000000000000037
 11
685.8658965207389429
 21
166.5314876081633884
 31
-0.000000000000037
210
0.0
220
1.0
230
-0.0000000000000002
  0
LINE
  5
51B2
  8
0
  6
CONTINUOUS
 62
     3
 10
700.3756495721000874
 20
-32.4510626434857912
 30
0.0000000000000072
 11
823.9630407361972857
 21
-32.4510626434857912
 31
0.0000000000000072
210
0.0
220
1.0
230
-0.0000000000000002
  0
LINE
  5
51B3
  8
0
  6
CONTINUOUS
 62
     3
 10
680.7687523052804863
 20
-32.4510626434857912
 30
0.0000000000000072
 11
682.4081253596727947
 21
-32.4510626434857912
 31
0.0000000000000072
210
0.0
220
1.0
230
-0.0000000000000002
  0
LINE
  5
51B4
  8
0
  6
CONTINUOUS
 62
     3
 10
700.435411639760332
 20
-32.5034118885396381
 30
0.0000000000000072
 11
822.4639544956685313
 21
-32.5034118885396381
 31
0.0000000000000072
210
0.0
220
1.0
230
-0.0000000000000002
  0
LINE
  5
51B5
  8
0
  6
CONTINUOUS
 62
     3
 10
682.2678385458093544
 20
-32.5034118885396381
 30
0.0000000000000072
 11
682.3493694877035978
 21
-32.5034118885396381
 31
0.0000000000000072
210
0.0
220
1.0
230
-0.0000000000000002
  0
LINE
  5
51B6
  8
0
  6
CONTINUOUS
 62
     3
 10
818.8658965207390565
 20
166.5314876081633884
 30
-0.000000000000037
 11
818.8658965207388292
 21
35.990379105307241
 31
-0.000000000000008
210
0.0
220
1.0
230
-0.0000000000000002
  0
LINE
  5
51B7
  8
0
  6
CONTINUOUS
 62
     3
 10
685.8658965207392839
 20
166.5314876081633884
 30
-0.000000000000037
 11
685.8658965207390565
 21
35.9903791053072908
 31
-0.000000000000008
210
0.0
220
1.0
230
-0.0000000000000002
  0
ARC
  5
51B8
  8
0
  6
CONTINUOUS
 62
     3
 10
-681.8658965207574738
 20
35.9903791053056423
 30
0.0
 40
3.999999999981469
210
0.0
220
-0.0000000000000002
230
-1.0
 50
179.9999999999762963
 51
189.5388323302302069
  0
ARC
  5
51B9
  8
0
  6
CONTINUOUS
 62
     3
 10
-822.8658965207371239
 20
35.9903791053076318
 30
0.0
 40
3.999999999998296
210
0.0
220
-0.0000000000000002
230
-1.0
 50
350.4611676697800249
 51
359.9999999999940883
  0
LINE
  5
51BA
  8
0
  6
CONTINUOUS
 62
     3
 10
818.9212024660438374
 20
35.3275150054691309
 30
-0.0000000000000078
 11
822.2542054791127839
 21
15.4928653794822004
 31
-0.0000000000000034
210
0.0
220
1.0
230
-0.0000000000000002
  0
LINE
  5
51BB
  8
0
  6
CONTINUOUS
 62
     3
 10
685.8105905754340483
 20
35.3275150054692091
 30
-0.0000000000000078
 11
682.4775875623649881
 21
15.4928653794822999
 31
-0.0000000000000034
210
0.0
220
1.0
230
-0.0000000000000002
  0
ARC
  5
51BC
  8
0
  6
CONTINUOUS
 62
     3
 10
-686.4222816170236001
 20
14.8300012796476608
 30
0.0
 40
3.999999999963574
210
0.0
220
-0.0000000000000002
230
-1.0
 50
1.999999999962498
 51
9.5388323302476348
  0
ARC
  5
51BD
  8
0
  6
CONTINUOUS
 62
     3
 10
-818.3095114244546266
 20
14.8300012796475809
 30
0.0
 40
3.9999999999632339
210
0.0
220
-0.0000000000000002
230
-1.0
 50
170.4611676697518021
 51
178.0000000000372893
  0
LINE
  5
51BE
  8
0
  6
CONTINUOUS
 62
     3
 10
822.3070747324943568
 20
14.9695992664536899
 30
-0.0000000000000033
 11
823.9630407361972857
 21
-32.4510626434858693
 31
0.0000000000000072
210
0.0
220
1.0
230
-0.0000000000000002
  0
LINE
  5
51BF
  8
0
  6
CONTINUOUS
 62
     3
 10
682.4247183089837563
 20
14.9695992664537698
 30
-0.0000000000000033
 11
680.7687523052804863
 21
-32.4510626434857983
 31
0.0000000000000072
210
0.0
220
1.0
230
-0.0000000000000002
  0
LINE
  5
51C0
  8
0
  6
CONTINUOUS
 62
     3
 10
682.2678385458093544
 20
-32.50341188853956
 30
0.0000000000000072
 11
680.7687523052804863
 21
-32.451062643485713
 31
0.0000000000000072
210
0.0
220
1.0
230
-0.0000000000000002
  0
LINE
  5
51C1
  8
0
  6
CONTINUOUS
 62
     3
 10
822.4639544956685313
 20
-32.5034118885397234
 30
0.0000000000000072
 11
823.9630407361972857
 21
-32.4510626434858693
 31
0.0000000000000072
210
0.0
220
1.0
230
-0.0000000000000002
  0
LINE
  5
51C2
  8
0
  6
CONTINUOUS
 62
     3
 10
879.3658965207390565
 20
-39.4685123918376419
 30
0.0000000000000088
 11
625.3658965207390565
 21
-39.4685123918374217
 31
0.0000000000000088
210
0.0
220
1.0
230
-0.0000000000000002
  0
LINE
  5
51C3
  8
0
  6
CONTINUOUS
 62
     3
 10
878.9097106185848816
 20
-33.4685123918376135
 30
0.0000000000000074
 11
698.4078144206428078
 21
-33.468512391837443
 31
0.0000000000000074
210
0.0
220
1.0
230
-0.0000000000000002
  0
LINE
  5
51C4
  8
0
  6
CONTINUOUS
 62
     3
 10
679.7801645229895939
 20
-33.468512391837443
 30
0.0000000000000074
 11
625.3658965207390565
 21
-33.4685123918374217
 31
0.0000000000000074
210
0.0
220
1.0
230
-0.0000000000000002
  0
LINE
  5
51C5
  8
0
  6
CONTINUOUS
 62
     3
 10
881.8658965207391702
 20
-19.4685123918370699
 30
0.0000000000000043
 11
866.8658965207390565
 21
-19.4685123918370699
 31
0.0000000000000043
210
0.0
220
1.0
230
-0.0000000000000002
  0
LINE
  5
51C6
  8
0
  6
CONTINUOUS
 62
     3
 10
698.8658965207391702
 20
-19.4685123918370415
 30
0.0000000000000043
 11
687.6158965207390565
 21
-19.4685123918370415
 31
0.0000000000000043
210
0.0
220
1.0
230
-0.0000000000000002
  0
LINE
  5
51C7
  8
0
  6
CONTINUOUS
 62
     3
 10
687.6158965207390565
 20
-19.4685123918370415
 30
0.0000000000000043
 11
683.8658965207390565
 21
-19.4685123918370415
 31
0.0000000000000043
210
0.0
220
1.0
230
-0.0000000000000002
  0
ARC
  5
51C8
  8
0
  6
CONTINUOUS
 62
     3
 10
-879.3658965207390565
 20
-36.4685123918376917
 30
0.0
 40
3.0000000000000071
210
0.0
220
-0.0000000000000002
230
-1.0
 50
165.144184796478612
 51
269.9999999999977831
  0
ARC
  5
51C9
  8
0
  6
CONTINUOUS
 62
     3
 10
-625.3658965207390565
 20
-36.4685123918373932
 30
0.0
 40
3.0
210
0.0
220
-0.0000000000000002
230
-1.0
 50
270.0
 51
90.0
  0
ARC
  5
51CA
  8
0
  6
CONTINUOUS
 62
     3
 10
-862.690736559281163
 20
-29.4685123918373115
 30
0.0
 40
4.0000000000000551
210
0.0
220
-0.0000000000000002
230
-1.0
 50
181.0000000000028137
 51
270.0
  0
ARC
  5
51CB
  8
0
  6
CONTINUOUS
 62
     3
 10
-886.1319151163780816
 20
-34.6738000573394274
 30
0.0
 40
4.0000000000096216
210
0.0
220
-0.0000000000000002
230
-1.0
 50
345.1441847964952103
 51
358.9999999999823785
  0
LINE
  5
51CC
  8
0
  6
CONTINUOUS
 62
     3
 10
881.8658965207391702
 20
-19.4685123918370699
 30
0.0000000000000043
 11
882.1325243357430281
 21
-34.7436096830899501
 31
0.0000000000000077
210
0.0
220
1.0
230
-0.0000000000000002
  0
LINE
  5
51CD
  8
0
  6
CONTINUOUS
 62
     3
 10
866.8658965207390565
 20
-19.4685123918370699
 30
0.0000000000000043
 11
866.6901273399067804
 21
-29.5383220175866512
 31
0.0000000000000066
210
0.0
220
1.0
230
-0.0000000000000002
  0
ARC
  5
51CE
  8
0
  6
CONTINUOUS
 62
     3
 10
-703.0410564821969501
 20
-29.4685123918373009
 30
0.0
 40
4.000000000000159
210
0.0
220
-0.0000000000000002
230
-1.0
 50
270.0
 51
358.9999999999973852
  0
POLYLINE
  8
0
  5
5303
  62
3
  66
     1
 10
0.000000
 20
0.000000
 30
0.000000
  70
     8
  0
VERTEX
  8
0
  5
5304
 10
683.688
 20
-29.6486
 30
6.60000e-15
  70
    32
  0
VERTEX
  8
0
  5
5305
 10
683.688
 20
-29.6556
 30
6.60004e-15
  70
    32
  0
VERTEX
  8
0
  5
5306
 10
683.688
 20
-29.6626
 30
6.60015e-15
  70
    32
  0
VERTEX
  8
0
  5
5307
 10
683.688
 20
-29.6696
 30
6.60033e-15
  70
    32
  0
VERTEX
  8
0
  5
5308
 10
683.688
 20
-29.6767
 30
6.60059e-15
  70
    32
  0
VERTEX
  8
0
  5
5309
 10
683.687
 20
-29.6837
 30
6.60091e-15
  70
    32
  0
VERTEX
  8
0
  5
530A
 10
683.687
 20
-29.6908
 30
6.60131e-15
  70
    32
  0
VERTEX
  8
0
  5
530B
 10
683.687
 20
-29.6980
 30
6.60177e-15
  70
    32
  0
VERTEX
  8
0
  5
530C
 10
683.687
 20
-29.7052
 30
6.60229e-15
  70
    32
  0
VERTEX
  8
0
  5
530D
 10
683.687
 20
-29.7124
 30
6.60289e-15
  70
    32
  0
VERTEX
  8
0
  5
530E
 10
683.686
 20
-29.7196
 30
6.60354e-15
  70
    32
  0
VERTEX
  8
0
  5
530F
 10
683.686
 20
-29.7269
 30
6.60426e-15
  70
    32
  0
VERTEX
  8
0
  5
5310
 10
683.686
 20
-29.7342
 30
6.60504e-15
  70
    32
  0
VERTEX
  8
0
  5
5311
 10
683.686
 20
-29.7415
 30
6.60588e-15
  70
    32
  0
VERTEX
  8
0
  5
5312
 10
683.685
 20
-29.7489
 30
6.60678e-15
  70
    32
  0
VERTEX
  8
0
  5
5313
 10
683.685
 20
-29.7563
 30
6.60774e-15
  70
    32
  0
VERTEX
  8
0
  5
5314
 10
683.685
 20
-29.7637
 30
6.60875e-15
  70
    32
  0
VERTEX
  8
0
  5
5315
 10
683.684
 20
-29.7712
 30
6.60982e-15
  70
    32
  0
VERTEX
  8
0
  5
5316
 10
683.684
 20
-29.7787
 30
6.61094e-15
  70
    32
  0
VERTEX
  8
0
  5
5317
 10
683.683
 20
-29.7862
 30
6.61211e-15
  70
    32
  0
VERTEX
  8
0
  5
5318
 10
683.683
 20
-29.7938
 30
6.61333e-15
  70
    32
  0
VERTEX
  8
0
  5
5319
 10
683.683
 20
-29.8014
 30
6.61461e-15
  70
    32
  0
VERTEX
  8
0
  5
531A
 10
683.682
 20
-29.8090
 30
6.61593e-15
  70
    32
  0
VERTEX
  8
0
  5
531B
 10
683.682
 20
-29.8167
 30
6.61730e-15
  70
    32
  0
VERTEX
  8
0
  5
531C
 10
683.681
 20
-29.8244
 30
6.61872e-15
  70
    32
  0
VERTEX
  8
0
  5
531D
 10
683.681
 20
-29.8321
 30
6.62018e-15
  70
    32
  0
VERTEX
  8
0
  5
531E
 10
683.680
 20
-29.8399
 30
6.62168e-15
  70
    32
  0
VERTEX
  8
0
  5
531F
 10
683.680
 20
-29.8477
 30
6.62323e-15
  70
    32
  0
VERTEX
  8
0
  5
5320
 10
683.679
 20
-29.8555
 30
6.62482e-15
  70
    32
  0
VERTEX
  8
0
  5
5321
 10
683.679
 20
-29.8634
 30
6.62645e-15
  70
    32
  0
VERTEX
  8
0
  5
5322
 10
683.678
 20
-29.8713
 30
6.62811e-15
  70
    32
  0
VERTEX
  8
0
  5
5323
 10
683.677
 20
-29.8792
 30
6.62982e-15
  70
    32
  0
VERTEX
  8
0
  5
5324
 10
683.677
 20
-29.8872
 30
6.63156e-15
  70
    32
  0
VERTEX
  8
0
  5
5325
 10
683.676
 20
-29.8952
 30
6.63333e-15
  70
    32
  0
VERTEX
  8
0
  5
5326
 10
683.675
 20
-29.9033
 30
6.63514e-15
  70
    32
  0
VERTEX
  8
0
  5
5327
 10
683.675
 20
-29.9113
 30
6.63698e-15
  70
    32
  0
VERTEX
  8
0
  5
5328
 10
683.674
 20
-29.9194
 30
6.63885e-15
  70
    32
  0
VERTEX
  8
0
  5
5329
 10
683.673
 20
-29.9276
 30
6.64075e-15
  70
    32
  0
VERTEX
  8
0
  5
532A
 10
683.673
 20
-29.9358
 30
6.64268e-15
  70
    32
  0
VERTEX
  8
0
  5
532B
 10
683.672
 20
-29.9440
 30
6.64464e-15
  70
    32
  0
VERTEX
  8
0
  5
532C
 10
683.671
 20
-29.9522
 30
6.64662e-15
  70
    32
  0
VERTEX
  8
0
  5
532D
 10
683.670
 20
-29.9605
 30
6.64863e-15
  70
    32
  0
VERTEX
  8
0
  5
532E
 10
683.669
 20
-29.9688
 30
6.65066e-15
  70
    32
  0
VERTEX
  8
0
  5
532F
 10
683.668
 20
-29.9772
 30
6.65271e-15
  70
    32
  0
VERTEX
  8
0
  5
5330
 10
683.668
 20
-29.9855
 30
6.65479e-15
  70
    32
  0
VERTEX
  8
0
  5
5331
 10
683.667
 20
-29.9940
 30
6.65688e-15
  70
    32
  0
VERTEX
  8
0
  5
5332
 10
683.666
 20
-30.0024
 30
6.65899e-15
  70
    32
  0
VERTEX
  8
0
  5
5333
 10
683.665
 20
-30.0109
 30
6.66112e-15
  70
    32
  0
VERTEX
  8
0
  5
5334
 10
683.664
 20
-30.0194
 30
6.66327e-15
  70
    32
  0
VERTEX
  8
0
  5
5335
 10
683.663
 20
-30.0280
 30
6.66543e-15
  70
    32
  0
VERTEX
  8
0
  5
5336
 10
683.662
 20
-30.0366
 30
6.66760e-15
  70
    32
  0
VERTEX
  8
0
  5
5337
 10
683.661
 20
-30.0452
 30
6.66978e-15
  70
    32
  0
VERTEX
  8
0
  5
5338
 10
683.660
 20
-30.0539
 30
6.67198e-15
  70
    32
  0
VERTEX
  8
0
  5
5339
 10
683.658
 20
-30.0626
 30
6.67418e-15
  70
    32
  0
VERTEX
  8
0
  5
533A
 10
683.657
 20
-30.0713
 30
6.67640e-15
  70
    32
  0
VERTEX
  8
0
  5
533B
 10
683.656
 20
-30.0801
 30
6.67862e-15
  70
    32
  0
VERTEX
  8
0
  5
533C
 10
683.655
 20
-30.0889
 30
6.68084e-15
  70
    32
  0
VERTEX
  8
0
  5
533D
 10
683.654
 20
-30.0978
 30
6.68308e-15
  70
    32
  0
VERTEX
  8
0
  5
533E
 10
683.653
 20
-30.1067
 30
6.68531e-15
  70
    32
  0
VERTEX
  8
0
  5
533F
 10
683.651
 20
-30.1156
 30
6.68755e-15
  70
    32
  0
VERTEX
  8
0
  5
5340
 10
683.650
 20
-30.1245
 30
6.68978e-15
  70
    32
  0
VERTEX
  8
0
  5
5341
 10
683.649
 20
-30.1335
 30
6.69202e-15
  70
    32
  0
VERTEX
  8
0
  5
5342
 10
683.647
 20
-30.1426
 30
6.69426e-15
  70
    32
  0
VERTEX
  8
0
  5
5343
 10
683.646
 20
-30.1516
 30
6.69649e-15
  70
    32
  0
VERTEX
  8
0
  5
5344
 10
683.645
 20
-30.1607
 30
6.69871e-15
  70
    32
  0
VERTEX
  8
0
  5
5345
 10
683.643
 20
-30.1699
 30
6.70094e-15
  70
    32
  0
VERTEX
  8
0
  5
5346
 10
683.642
 20
-30.1790
 30
6.70315e-15
  70
    32
  0
VERTEX
  8
0
  5
5347
 10
683.640
 20
-30.1883
 30
6.70536e-15
  70
    32
  0
VERTEX
  8
0
  5
5348
 10
683.639
 20
-30.1975
 30
6.70756e-15
  70
    32
  0
VERTEX
  8
0
  5
5349
 10
683.637
 20
-30.2068
 30
6.70974e-15
  70
    32
  0
VERTEX
  8
0
  5
534A
 10
683.635
 20
-30.2161
 30
6.71192e-15
  70
    32
  0
VERTEX
  8
0
  5
534B
 10
683.634
 20
-30.2255
 30
6.71408e-15
  70
    32
  0
VERTEX
  8
0
  5
534C
 10
683.632
 20
-30.2349
 30
6.71623e-15
  70
    32
  0
VERTEX
  8
0
  5
534D
 10
683.631
 20
-30.2443
 30
6.71836e-15
  70
    32
  0
VERTEX
  8
0
  5
534E
 10
683.629
 20
-30.2538
 30
6.72048e-15
  70
    32
  0
VERTEX
  8
0
  5
534F
 10
683.627
 20
-30.2633
 30
6.72257e-15
  70
    32
  0
VERTEX
  8
0
  5
5350
 10
683.625
 20
-30.2729
 30
6.72465e-15
  70
    32
  0
VERTEX
  8
0
  5
5351
 10
683.624
 20
-30.2825
 30
6.72671e-15
  70
    32
  0
VERTEX
  8
0
  5
5352
 10
683.622
 20
-30.2921
 30
6.72874e-15
  70
    32
  0
VERTEX
  8
0
  5
5353
 10
683.620
 20
-30.3017
 30
6.73076e-15
  70
    32
  0
VERTEX
  8
0
  5
5354
 10
683.618
 20
-30.3114
 30
6.73274e-15
  70
    32
  0
VERTEX
  8
0
  5
5355
 10
683.616
 20
-30.3212
 30
6.73471e-15
  70
    32
  0
VERTEX
  8
0
  5
5356
 10
683.614
 20
-30.3310
 30
6.73664e-15
  70
    32
  0
VERTEX
  8
0
  5
5357
 10
683.612
 20
-30.3408
 30
6.73855e-15
  70
    32
  0
VERTEX
  8
0
  5
5358
 10
683.610
 20
-30.3506
 30
6.74043e-15
  70
    32
  0
VERTEX
  8
0
  5
5359
 10
683.608
 20
-30.3605
 30
6.74227e-15
  70
    32
  0
VERTEX
  8
0
  5
535A
 10
683.606
 20
-30.3705
 30
6.74409e-15
  70
    32
  0
VERTEX
  8
0
  5
535B
 10
683.604
 20
-30.3804
 30
6.74587e-15
  70
    32
  0
VERTEX
  8
0
  5
535C
 10
683.602
 20
-30.3904
 30
6.74761e-15
  70
    32
  0
VERTEX
  8
0
  5
535D
 10
683.599
 20
-30.4005
 30
6.74933e-15
  70
    32
  0
VERTEX
  8
0
  5
535E
 10
683.597
 20
-30.4106
 30
6.75101e-15
  70
    32
  0
VERTEX
  8
0
  5
535F
 10
683.595
 20
-30.4207
 30
6.75273e-15
  70
    32
  0
VERTEX
  8
0
  5
5360
 10
683.593
 20
-30.4309
 30
6.75449e-15
  70
    32
  0
VERTEX
  8
0
  5
5361
 10
683.590
 20
-30.4411
 30
6.75628e-15
  70
    32
  0
VERTEX
  8
0
  5
5362
 10
683.588
 20
-30.4514
 30
6.75811e-15
  70
    32
  0
VERTEX
  8
0
  5
5363
 10
683.585
 20
-30.4616
 30
6.75997e-15
  70
    32
  0
VERTEX
  8
0
  5
5364
 10
683.583
 20
-30.4720
 30
6.76187e-15
  70
    32
  0
VERTEX
  8
0
  5
5365
 10
683.580
 20
-30.4824
 30
6.76381e-15
  70
    32
  0
VERTEX
  8
0
  5
5366
 10
683.578
 20
-30.4928
 30
6.76577e-15
  70
    32
  0
VERTEX
  8
0
  5
5367
 10
683.575
 20
-30.5032
 30
6.76778e-15
  70
    32
  0
VERTEX
  8
0
  5
5368
 10
683.573
 20
-30.5137
 30
6.76981e-15
  70
    32
  0
VERTEX
  8
0
  5
5369
 10
683.570
 20
-30.5242
 30
6.77188e-15
  70
    32
  0
VERTEX
  8
0
  5
536A
 10
683.567
 20
-30.5348
 30
6.77399e-15
  70
    32
  0
VERTEX
  8
0
  5
536B
 10
683.565
 20
-30.5454
 30
6.77612e-15
  70
    32
  0
VERTEX
  8
0
  5
536C
 10
683.562
 20
-30.5561
 30
6.77829e-15
  70
    32
  0
VERTEX
  8
0
  5
536D
 10
683.559
 20
-30.5668
 30
6.78049e-15
  70
    32
  0
VERTEX
  8
0
  5
536E
 10
683.556
 20
-30.5775
 30
6.78272e-15
  70
    32
  0
VERTEX
  8
0
  5
536F
 10
683.553
 20
-30.5882
 30
6.78498e-15
  70
    32
  0
VERTEX
  8
0
  5
5370
 10
683.550
 20
-30.5990
 30
6.78727e-15
  70
    32
  0
VERTEX
  8
0
  5
5371
 10
683.547
 20
-30.6099
 30
6.78959e-15
  70
    32
  0
VERTEX
  8
0
  5
5372
 10
683.544
 20
-30.6207
 30
6.79194e-15
  70
    32
  0
VERTEX
  8
0
  5
5373
 10
683.541
 20
-30.6317
 30
6.79432e-15
  70
    32
  0
VERTEX
  8
0
  5
5374
 10
683.538
 20
-30.6426
 30
6.79673e-15
  70
    32
  0
VERTEX
  8
0
  5
5375
 10
683.535
 20
-30.6536
 30
6.79916e-15
  70
    32
  0
VERTEX
  8
0
  5
5376
 10
683.532
 20
-30.6646
 30
6.80163e-15
  70
    32
  0
VERTEX
  8
0
  5
5377
 10
683.528
 20
-30.6757
 30
6.80412e-15
  70
    32
  0
VERTEX
  8
0
  5
5378
 10
683.525
 20
-30.6867
 30
6.80664e-15
  70
    32
  0
VERTEX
  8
0
  5
5379
 10
683.522
 20
-30.6979
 30
6.80919e-15
  70
    32
  0
VERTEX
  8
0
  5
537A
 10
683.518
 20
-30.7090
 30
6.81176e-15
  70
    32
  0
VERTEX
  8
0
  5
537B
 10
683.515
 20
-30.7202
 30
6.81436e-15
  70
    32
  0
VERTEX
  8
0
  5
537C
 10
683.511
 20
-30.7314
 30
6.81699e-15
  70
    32
  0
VERTEX
  8
0
  5
537D
 10
683.508
 20
-30.7427
 30
6.81963e-15
  70
    32
  0
VERTEX
  8
0
  5
537E
 10
683.504
 20
-30.7540
 30
6.82231e-15
  70
    32
  0
VERTEX
  8
0
  5
537F
 10
683.500
 20
-30.7653
 30
6.82501e-15
  70
    32
  0
VERTEX
  8
0
  5
5380
 10
683.497
 20
-30.7767
 30
6.82773e-15
  70
    32
  0
VERTEX
  8
0
  5
5381
 10
683.493
 20
-30.7881
 30
6.83048e-15
  70
    32
  0
VERTEX
  8
0
  5
5382
 10
683.489
 20
-30.7995
 30
6.83325e-15
  70
    32
  0
VERTEX
  8
0
  5
5383
 10
683.485
 20
-30.8110
 30
6.83604e-15
  70
    32
  0
VERTEX
  8
0
  5
5384
 10
683.481
 20
-30.8224
 30
6.83885e-15
  70
    32
  0
VERTEX
  8
0
  5
5385
 10
683.477
 20
-30.8340
 30
6.84169e-15
  70
    32
  0
VERTEX
  8
0
  5
5386
 10
683.473
 20
-30.8455
 30
6.84455e-15
  70
    32
  0
VERTEX
  8
0
  5
5387
 10
683.469
 20
-30.8571
 30
6.84743e-15
  70
    32
  0
VERTEX
  8
0
  5
5388
 10
683.465
 20
-30.8687
 30
6.85033e-15
  70
    32
  0
VERTEX
  8
0
  5
5389
 10
683.461
 20
-30.8804
 30
6.85325e-15
  70
    32
  0
VERTEX
  8
0
  5
538A
 10
683.457
 20
-30.8921
 30
6.85619e-15
  70
    32
  0
VERTEX
  8
0
  5
538B
 10
683.452
 20
-30.9038
 30
6.85915e-15
  70
    32
  0
VERTEX
  8
0
  5
538C
 10
683.448
 20
-30.9155
 30
6.86213e-15
  70
    32
  0
VERTEX
  8
0
  5
538D
 10
683.444
 20
-30.9273
 30
6.86512e-15
  70
    32
  0
VERTEX
  8
0
  5
538E
 10
683.439
 20
-30.9391
 30
6.86814e-15
  70
    32
  0
VERTEX
  8
0
  5
538F
 10
683.435
 20
-30.9509
 30
6.87117e-15
  70
    32
  0
VERTEX
  8
0
  5
5390
 10
683.430
 20
-30.9628
 30
6.87422e-15
  70
    32
  0
VERTEX
  8
0
  5
5391
 10
683.426
 20
-30.9747
 30
6.87729e-15
  70
    32
  0
VERTEX
  8
0
  5
5392
 10
683.421
 20
-30.9866
 30
6.88038e-15
  70
    32
  0
VERTEX
  8
0
  5
5393
 10
683.416
 20
-30.9985
 30
6.88348e-15
  70
    32
  0
VERTEX
  8
0
  5
5394
 10
683.411
 20
-31.0105
 30
6.88659e-15
  70
    32
  0
VERTEX
  8
0
  5
5395
 10
683.407
 20
-31.0225
 30
6.88973e-15
  70
    32
  0
VERTEX
  8
0
  5
5396
 10
683.402
 20
-31.0345
 30
6.89287e-15
  70
    32
  0
VERTEX
  8
0
  5
5397
 10
683.397
 20
-31.0466
 30
6.89604e-15
  70
    32
  0
VERTEX
  8
0
  5
5398
 10
683.392
 20
-31.0587
 30
6.89921e-15
  70
    32
  0
VERTEX
  8
0
  5
5399
 10
683.387
 20
-31.0708
 30
6.90240e-15
  70
    32
  0
VERTEX
  8
0
  5
539A
 10
683.381
 20
-31.0829
 30
6.90561e-15
  70
    32
  0
VERTEX
  8
0
  5
539B
 10
683.376
 20
-31.0951
 30
6.90882e-15
  70
    32
  0
VERTEX
  8
0
  5
539C
 10
683.371
 20
-31.1073
 30
6.91205e-15
  70
    32
  0
VERTEX
  8
0
  5
539D
 10
683.366
 20
-31.1195
 30
6.91529e-15
  70
    32
  0
VERTEX
  8
0
  5
539E
 10
683.360
 20
-31.1317
 30
6.91855e-15
  70
    32
  0
VERTEX
  8
0
  5
539F
 10
683.355
 20
-31.1440
 30
6.92181e-15
  70
    32
  0
VERTEX
  8
0
  5
53A0
 10
683.349
 20
-31.1563
 30
6.92509e-15
  70
    32
  0
VERTEX
  8
0
  5
53A1
 10
683.344
 20
-31.1686
 30
6.92837e-15
  70
    32
  0
VERTEX
  8
0
  5
53A2
 10
683.338
 20
-31.1809
 30
6.93167e-15
  70
    32
  0
VERTEX
  8
0
  5
53A3
 10
683.332
 20
-31.1933
 30
6.93498e-15
  70
    32
  0
VERTEX
  8
0
  5
53A4
 10
683.327
 20
-31.2057
 30
6.93829e-15
  70
    32
  0
VERTEX
  8
0
  5
53A5
 10
683.321
 20
-31.2181
 30
6.94162e-15
  70
    32
  0
VERTEX
  8
0
  5
53A6
 10
683.315
 20
-31.2305
 30
6.94495e-15
  70
    32
  0
VERTEX
  8
0
  5
53A7
 10
683.309
 20
-31.2430
 30
6.94829e-15
  70
    32
  0
VERTEX
  8
0
  5
53A8
 10
683.303
 20
-31.2555
 30
6.95164e-15
  70
    32
  0
VERTEX
  8
0
  5
53A9
 10
683.297
 20
-31.2680
 30
6.95500e-15
  70
    32
  0
VERTEX
  8
0
  5
53AA
 10
683.291
 20
-31.2805
 30
6.95836e-15
  70
    32
  0
VERTEX
  8
0
  5
53AB
 10
683.284
 20
-31.2931
 30
6.96173e-15
  70
    32
  0
VERTEX
  8
0
  5
53AC
 10
683.278
 20
-31.3056
 30
6.96511e-15
  70
    32
  0
VERTEX
  8
0
  5
53AD
 10
683.272
 20
-31.3182
 30
6.96849e-15
  70
    32
  0
VERTEX
  8
0
  5
53AE
 10
683.265
 20
-31.3308
 30
6.97188e-15
  70
    32
  0
VERTEX
  8
0
  5
53AF
 10
683.259
 20
-31.3435
 30
6.97527e-15
  70
    32
  0
VERTEX
  8
0
  5
53B0
 10
683.252
 20
-31.3561
 30
6.97867e-15
  70
    32
  0
VERTEX
  8
0
  5
53B1
 10
683.246
 20
-31.3688
 30
6.98207e-15
  70
    32
  0
VERTEX
  8
0
  5
53B2
 10
683.239
 20
-31.3815
 30
6.98547e-15
  70
    32
  0
VERTEX
  8
0
  5
53B3
 10
683.232
 20
-31.3942
 30
6.98888e-15
  70
    32
  0
VERTEX
  8
0
  5
53B4
 10
683.225
 20
-31.4070
 30
6.99229e-15
  70
    32
  0
VERTEX
  8
0
  5
53B5
 10
683.219
 20
-31.4197
 30
6.99571e-15
  70
    32
  0
VERTEX
  8
0
  5
53B6
 10
683.212
 20
-31.4325
 30
6.99912e-15
  70
    32
  0
VERTEX
  8
0
  5
53B7
 10
683.205
 20
-31.4453
 30
7.00254e-15
  70
    32
  0
VERTEX
  8
0
  5
53B8
 10
683.197
 20
-31.4581
 30
7.00590e-15
  70
    32
  0
VERTEX
  8
0
  5
53B9
 10
683.190
 20
-31.4710
 30
7.00919e-15
  70
    32
  0
VERTEX
  8
0
  5
53BA
 10
683.183
 20
-31.4838
 30
7.01240e-15
  70
    32
  0
VERTEX
  8
0
  5
53BB
 10
683.176
 20
-31.4967
 30
7.01554e-15
  70
    32
  0
VERTEX
  8
0
  5
53BC
 10
683.168
 20
-31.5096
 30
7.01860e-15
  70
    32
  0
VERTEX
  8
0
  5
53BD
 10
683.161
 20
-31.5224
 30
7.02160e-15
  70
    32
  0
VERTEX
  8
0
  5
53BE
 10
683.153
 20
-31.5353
 30
7.02453e-15
  70
    32
  0
VERTEX
  8
0
  5
53BF
 10
683.145
 20
-31.5483
 30
7.02739e-15
  70
    32
  0
VERTEX
  8
0
  5
53C0
 10
683.138
 20
-31.5612
 30
7.03020e-15
  70
    32
  0
VERTEX
  8
0
  5
53C1
 10
683.130
 20
-31.5741
 30
7.03293e-15
  70
    32
  0
VERTEX
  8
0
  5
53C2
 10
683.122
 20
-31.5870
 30
7.03561e-15
  70
    32
  0
VERTEX
  8
0
  5
53C3
 10
683.114
 20
-31.6000
 30
7.03824e-15
  70
    32
  0
VERTEX
  8
0
  5
53C4
 10
683.106
 20
-31.6130
 30
7.04080e-15
  70
    32
  0
VERTEX
  8
0
  5
53C5
 10
683.098
 20
-31.6259
 30
7.04331e-15
  70
    32
  0
VERTEX
  8
0
  5
53C6
 10
683.090
 20
-31.6389
 30
7.04578e-15
  70
    32
  0
VERTEX
  8
0
  5
53C7
 10
683.081
 20
-31.6519
 30
7.04819e-15
  70
    32
  0
VERTEX
  8
0
  5
53C8
 10
683.073
 20
-31.6648
 30
7.05055e-15
  70
    32
  0
VERTEX
  8
0
  5
53C9
 10
683.065
 20
-31.6778
 30
7.05286e-15
  70
    32
  0
VERTEX
  8
0
  5
53CA
 10
683.056
 20
-31.6908
 30
7.05514e-15
  70
    32
  0
VERTEX
  8
0
  5
53CB
 10
683.048
 20
-31.7038
 30
7.05737e-15
  70
    32
  0
VERTEX
  8
0
  5
53CC
 10
683.039
 20
-31.7167
 30
7.05956e-15
  70
    32
  0
VERTEX
  8
0
  5
53CD
 10
683.030
 20
-31.7297
 30
7.06171e-15
  70
    32
  0
VERTEX
  8
0
  5
53CE
 10
683.021
 20
-31.7427
 30
7.06382e-15
  70
    32
  0
VERTEX
  8
0
  5
53CF
 10
683.013
 20
-31.7557
 30
7.06590e-15
  70
    32
  0
VERTEX
  8
0
  5
53D0
 10
683.004
 20
-31.7687
 30
7.06795e-15
  70
    32
  0
VERTEX
  8
0
  5
53D1
 10
682.995
 20
-31.7816
 30
7.06997e-15
  70
    32
  0
VERTEX
  8
0
  5
53D2
 10
682.986
 20
-31.7946
 30
7.07195e-15
  70
    32
  0
VERTEX
  8
0
  5
53D3
 10
682.976
 20
-31.8076
 30
7.07392e-15
  70
    32
  0
VERTEX
  8
0
  5
53D4
 10
682.967
 20
-31.8205
 30
7.07585e-15
  70
    32
  0
VERTEX
  8
0
  5
53D5
 10
682.958
 20
-31.8335
 30
7.07777e-15
  70
    32
  0
VERTEX
  8
0
  5
53D6
 10
682.949
 20
-31.8464
 30
7.07966e-15
  70
    32
  0
VERTEX
  8
0
  5
53D7
 10
682.939
 20
-31.8594
 30
7.08153e-15
  70
    32
  0
VERTEX
  8
0
  5
53D8
 10
682.930
 20
-31.8723
 30
7.08339e-15
  70
    32
  0
VERTEX
  8
0
  5
53D9
 10
682.920
 20
-31.8852
 30
7.08523e-15
  70
    32
  0
VERTEX
  8
0
  5
53DA
 10
682.910
 20
-31.8981
 30
7.08706e-15
  70
    32
  0
VERTEX
  8
0
  5
53DB
 10
682.901
 20
-31.9110
 30
7.08888e-15
  70
    32
  0
VERTEX
  8
0
  5
53DC
 10
682.891
 20
-31.9239
 30
7.09068e-15
  70
    32
  0
VERTEX
  8
0
  5
53DD
 10
682.881
 20
-31.9368
 30
7.09248e-15
  70
    32
  0
VERTEX
  8
0
  5
53DE
 10
682.871
 20
-31.9497
 30
7.09428e-15
  70
    32
  0
VERTEX
  8
0
  5
53DF
 10
682.861
 20
-31.9625
 30
7.09607e-15
  70
    32
  0
VERTEX
  8
0
  5
53E0
 10
682.851
 20
-31.9753
 30
7.09786e-15
  70
    32
  0
VERTEX
  8
0
  5
53E1
 10
682.841
 20
-31.9881
 30
7.09965e-15
  70
    32
  0
VERTEX
  8
0
  5
53E2
 10
682.830
 20
-32.0009
 30
7.10144e-15
  70
    32
  0
VERTEX
  8
0
  5
53E3
 10
682.820
 20
-32.0137
 30
7.10324e-15
  70
    32
  0
VERTEX
  8
0
  5
53E4
 10
682.810
 20
-32.0265
 30
7.10504e-15
  70
    32
  0
VERTEX
  8
0
  5
53E5
 10
682.799
 20
-32.0392
 30
7.10685e-15
  70
    32
  0
VERTEX
  8
0
  5
53E6
 10
682.789
 20
-32.0519
 30
7.10867e-15
  70
    32
  0
VERTEX
  8
0
  5
53E7
 10
682.778
 20
-32.0646
 30
7.11050e-15
  70
    32
  0
VERTEX
  8
0
  5
53E8
 10
682.768
 20
-32.0773
 30
7.11235e-15
  70
    32
  0
VERTEX
  8
0
  5
53E9
 10
682.757
 20
-32.0900
 30
7.11421e-15
  70
    32
  0
VERTEX
  8
0
  5
53EA
 10
682.746
 20
-32.1026
 30
7.11609e-15
  70
    32
  0
VERTEX
  8
0
  5
53EB
 10
682.735
 20
-32.1152
 30
7.11799e-15
  70
    32
  0
VERTEX
  8
0
  5
53EC
 10
682.724
 20
-32.1278
 30
7.11991e-15
  70
    32
  0
VERTEX
  8
0
  5
53ED
 10
682.713
 20
-32.1404
 30
7.12185e-15
  70
    32
  0
VERTEX
  8
0
  5
53EE
 10
682.702
 20
-32.1529
 30
7.12382e-15
  70
    32
  0
VERTEX
  8
0
  5
53EF
 10
682.691
 20
-32.1654
 30
7.12582e-15
  70
    32
  0
VERTEX
  8
0
  5
53F0
 10
682.680
 20
-32.1779
 30
7.12784e-15
  70
    32
  0
VERTEX
  8
0
  5
53F1
 10
682.669
 20
-32.1903
 30
7.12990e-15
  70
    32
  0
VERTEX
  8
0
  5
53F2
 10
682.657
 20
-32.2028
 30
7.13199e-15
  70
    32
  0
VERTEX
  8
0
  5
53F3
 10
682.646
 20
-32.2151
 30
7.13412e-15
  70
    32
  0
VERTEX
  8
0
  5
53F4
 10
682.634
 20
-32.2275
 30
7.13628e-15
  70
    32
  0
VERTEX
  8
0
  5
53F5
 10
682.623
 20
-32.2398
 30
7.13848e-15
  70
    32
  0
VERTEX
  8
0
  5
53F6
 10
682.611
 20
-32.2521
 30
7.14072e-15
  70
    32
  0
VERTEX
  8
0
  5
53F7
 10
682.599
 20
-32.2644
 30
7.14301e-15
  70
    32
  0
VERTEX
  8
0
  5
53F8
 10
682.588
 20
-32.2766
 30
7.14534e-15
  70
    32
  0
VERTEX
  8
0
  5
53F9
 10
682.576
 20
-32.2888
 30
7.14771e-15
  70
    32
  0
VERTEX
  8
0
  5
53FA
 10
682.564
 20
-32.3010
 30
7.15014e-15
  70
    32
  0
VERTEX
  8
0
  5
53FB
 10
682.552
 20
-32.3131
 30
7.15261e-15
  70
    32
  0
VERTEX
  8
0
  5
53FC
 10
682.540
 20
-32.3251
 30
7.15514e-15
  70
    32
  0
VERTEX
  8
0
  5
53FD
 10
682.528
 20
-32.3372
 30
7.15772e-15
  70
    32
  0
VERTEX
  8
0
  5
53FE
 10
682.516
 20
-32.3492
 30
7.16036e-15
  70
    32
  0
VERTEX
  8
0
  5
53FF
 10
682.504
 20
-32.3612
 30
7.16306e-15
  70
    32
  0
VERTEX
  8
0
  5
5400
 10
682.491
 20
-32.3731
 30
7.16582e-15
  70
    32
  0
VERTEX
  8
0
  5
5401
 10
682.479
 20
-32.3850
 30
7.16864e-15
  70
    32
  0
VERTEX
  8
0
  5
5402
 10
682.467
 20
-32.3968
 30
7.17152e-15
  70
    32
  0
VERTEX
  8
0
  5
5403
 10
682.454
 20
-32.4086
 30
7.17447e-15
  70
    32
  0
VERTEX
  8
0
  5
5404
 10
682.441
 20
-32.4203
 30
7.17749e-15
  70
    32
  0
VERTEX
  8
0
  5
5405
 10
682.429
 20
-32.4321
 30
7.18058e-15
  70
    32
  0
VERTEX
  8
0
  5
5406
 10
682.416
 20
-32.4437
 30
7.18374e-15
  70
    32
  0
VERTEX
  8
0
  5
5407
 10
682.403
 20
-32.4553
 30
7.18697e-15
  70
    32
  0
VERTEX
  8
0
  5
5408
 10
682.391
 20
-32.4669
 30
7.19028e-15
  70
    32
  0
VERTEX
  8
0
  5
5409
 10
682.378
 20
-32.4784
 30
7.19366e-15
  70
    32
  0
VERTEX
  8
0
  5
540A
 10
682.365
 20
-32.4899
 30
7.19713e-15
  70
    32
  0
VERTEX
  8
0
  5
540B
 10
682.352
 20
-32.5013
 30
7.20068e-15
  70
    32
  0
VERTEX
  8
0
  5
540C
 10
682.339
 20
-32.5127
 30
7.20431e-15
  70
    32
  0
VERTEX
  8
0
  5
540D
 10
682.326
 20
-32.5240
 30
7.20802e-15
  70
    32
  0
VERTEX
  8
0
  5
540E
 10
682.312
 20
-32.5353
 30
7.21172e-15
  70
    32
  0
VERTEX
  8
0
  5
540F
 10
682.299
 20
-32.5465
 30
7.21532e-15
  70
    32
  0
VERTEX
  8
0
  5
5410
 10
682.286
 20
-32.5576
 30
7.21882e-15
  70
    32
  0
VERTEX
  8
0
  5
5411
 10
682.272
 20
-32.5687
 30
7.22223e-15
  70
    32
  0
VERTEX
  8
0
  5
5412
 10
682.259
 20
-32.5798
 30
7.22554e-15
  70
    32
  0
VERTEX
  8
0
  5
5413
 10
682.246
 20
-32.5907
 30
7.22876e-15
  70
    32
  0
VERTEX
  8
0
  5
5414
 10
682.232
 20
-32.6016
 30
7.23189e-15
  70
    32
  0
VERTEX
  8
0
  5
5415
 10
682.218
 20
-32.6125
 30
7.23493e-15
  70
    32
  0
VERTEX
  8
0
  5
5416
 10
682.205
 20
-32.6233
 30
7.23789e-15
  70
    32
  0
VERTEX
  8
0
  5
5417
 10
682.191
 20
-32.6340
 30
7.24077e-15
  70
    32
  0
VERTEX
  8
0
  5
5418
 10
682.177
 20
-32.6447
 30
7.24356e-15
  70
    32
  0
VERTEX
  8
0
  5
5419
 10
682.164
 20
-32.6553
 30
7.24628e-15
  70
    32
  0
VERTEX
  8
0
  5
541A
 10
682.150
 20
-32.6659
 30
7.24892e-15
  70
    32
  0
VERTEX
  8
0
  5
541B
 10
682.136
 20
-32.6763
 30
7.25149e-15
  70
    32
  0
VERTEX
  8
0
  5
541C
 10
682.122
 20
-32.6868
 30
7.25398e-15
  70
    32
  0
VERTEX
  8
0
  5
541D
 10
682.108
 20
-32.6971
 30
7.25641e-15
  70
    32
  0
VERTEX
  8
0
  5
541E
 10
682.094
 20
-32.7074
 30
7.25876e-15
  70
    32
  0
VERTEX
  8
0
  5
541F
 10
682.080
 20
-32.7177
 30
7.26106e-15
  70
    32
  0
VERTEX
  8
0
  5
5420
 10
682.066
 20
-32.7279
 30
7.26328e-15
  70
    32
  0
VERTEX
  8
0
  5
5421
 10
682.052
 20
-32.7380
 30
7.26545e-15
  70
    32
  0
VERTEX
  8
0
  5
5422
 10
682.037
 20
-32.7480
 30
7.26755e-15
  70
    32
  0
VERTEX
  8
0
  5
5423
 10
682.023
 20
-32.7580
 30
7.26960e-15
  70
    32
  0
VERTEX
  8
0
  5
5424
 10
682.009
 20
-32.7679
 30
7.27159e-15
  70
    32
  0
VERTEX
  8
0
  5
5425
 10
681.995
 20
-32.7778
 30
7.27353e-15
  70
    32
  0
VERTEX
  8
0
  5
5426
 10
681.980
 20
-32.7876
 30
7.27542e-15
  70
    32
  0
VERTEX
  8
0
  5
5427
 10
681.966
 20
-32.7973
 30
7.27726e-15
  70
    32
  0
VERTEX
  8
0
  5
5428
 10
681.951
 20
-32.8069
 30
7.27905e-15
  70
    32
  0
VERTEX
  8
0
  5
5429
 10
681.937
 20
-32.8165
 30
7.28080e-15
  70
    32
  0
VERTEX
  8
0
  5
542A
 10
681.922
 20
-32.8261
 30
7.28251e-15
  70
    32
  0
VERTEX
  8
0
  5
542B
 10
681.908
 20
-32.8355
 30
7.28417e-15
  70
    32
  0
VERTEX
  8
0
  5
542C
 10
681.893
 20
-32.8449
 30
7.28580e-15
  70
    32
  0
VERTEX
  8
0
  5
542D
 10
681.879
 20
-32.8542
 30
7.28739e-15
  70
    32
  0
VERTEX
  8
0
  5
542E
 10
681.864
 20
-32.8635
 30
7.28894e-15
  70
    32
  0
VERTEX
  8
0
  5
542F
 10
681.850
 20
-32.8727
 30
7.29047e-15
  70
    32
  0
VERTEX
  8
0
  5
5430
 10
681.835
 20
-32.8818
 30
7.29196e-15
  70
    32
  0
VERTEX
  8
0
  5
5431
 10
681.820
 20
-32.8908
 30
7.29343e-15
  70
    32
  0
VERTEX
  8
0
  5
5432
 10
681.805
 20
-32.8998
 30
7.29487e-15
  70
    32
  0
VERTEX
  8
0
  5
5433
 10
681.791
 20
-32.9087
 30
7.29628e-15
  70
    32
  0
VERTEX
  8
0
  5
5434
 10
681.776
 20
-32.9176
 30
7.29768e-15
  70
    32
  0
VERTEX
  8
0
  5
5435
 10
681.761
 20
-32.9263
 30
7.29905e-15
  70
    32
  0
VERTEX
  8
0
  5
5436
 10
681.746
 20
-32.9350
 30
7.30041e-15
  70
    32
  0
VERTEX
  8
0
  5
5437
 10
681.731
 20
-32.9437
 30
7.30175e-15
  70
    32
  0
VERTEX
  8
0
  5
5438
 10
681.716
 20
-32.9522
 30
7.30308e-15
  70
    32
  0
VERTEX
  8
0
  5
5439
 10
681.702
 20
-32.9607
 30
7.30440e-15
  70
    32
  0
VERTEX
  8
0
  5
543A
 10
681.687
 20
-32.9691
 30
7.30571e-15
  70
    32
  0
VERTEX
  8
0
  5
543B
 10
681.672
 20
-32.9775
 30
7.30702e-15
  70
    32
  0
VERTEX
  8
0
  5
543C
 10
681.657
 20
-32.9857
 30
7.30832e-15
  70
    32
  0
VERTEX
  8
0
  5
543D
 10
681.642
 20
-32.9939
 30
7.30961e-15
  70
    32
  0
VERTEX
  8
0
  5
543E
 10
681.627
 20
-33.0021
 30
7.31091e-15
  70
    32
  0
VERTEX
  8
0
  5
543F
 10
681.612
 20
-33.0101
 30
7.31221e-15
  70
    32
  0
VERTEX
  8
0
  5
5440
 10
681.597
 20
-33.0181
 30
7.31351e-15
  70
    32
  0
VERTEX
  8
0
  5
5441
 10
681.582
 20
-33.0260
 30
7.31482e-15
  70
    32
  0
VERTEX
  8
0
  5
5442
 10
681.567
 20
-33.0338
 30
7.31613e-15
  70
    32
  0
VERTEX
  8
0
  5
5443
 10
681.552
 20
-33.0416
 30
7.31746e-15
  70
    32
  0
VERTEX
  8
0
  5
5444
 10
681.537
 20
-33.0493
 30
7.31879e-15
  70
    32
  0
VERTEX
  8
0
  5
5445
 10
681.522
 20
-33.0569
 30
7.32015e-15
  70
    32
  0
VERTEX
  8
0
  5
5446
 10
681.506
 20
-33.0644
 30
7.32152e-15
  70
    32
  0
VERTEX
  8
0
  5
5447
 10
681.491
 20
-33.0718
 30
7.32290e-15
  70
    32
  0
VERTEX
  8
0
  5
5448
 10
681.476
 20
-33.0792
 30
7.32431e-15
  70
    32
  0
VERTEX
  8
0
  5
5449
 10
681.461
 20
-33.0865
 30
7.32574e-15
  70
    32
  0
VERTEX
  8
0
  5
544A
 10
681.446
 20
-33.0937
 30
7.32720e-15
  70
    32
  0
VERTEX
  8
0
  5
544B
 10
681.431
 20
-33.1009
 30
7.32868e-15
  70
    32
  0
VERTEX
  8
0
  5
544C
 10
681.416
 20
-33.1079
 30
7.33019e-15
  70
    32
  0
VERTEX
  8
0
  5
544D
 10
681.401
 20
-33.1149
 30
7.33174e-15
  70
    32
  0
VERTEX
  8
0
  5
544E
 10
681.385
 20
-33.1218
 30
7.33331e-15
  70
    32
  0
VERTEX
  8
0
  5
544F
 10
681.370
 20
-33.1287
 30
7.33493e-15
  70
    32
  0
VERTEX
  8
0
  5
5450
 10
681.355
 20
-33.1354
 30
7.33658e-15
  70
    32
  0
VERTEX
  8
0
  5
5451
 10
681.340
 20
-33.1421
 30
7.33827e-15
  70
    32
  0
VERTEX
  8
0
  5
5452
 10
681.325
 20
-33.1487
 30
7.34000e-15
  70
    32
  0
VERTEX
  8
0
  5
5453
 10
681.310
 20
-33.1552
 30
7.34177e-15
  70
    32
  0
VERTEX
  8
0
  5
5454
 10
681.295
 20
-33.1616
 30
7.34360e-15
  70
    32
  0
VERTEX
  8
0
  5
5455
 10
681.279
 20
-33.1680
 30
7.34547e-15
  70
    32
  0
VERTEX
  8
0
  5
5456
 10
681.264
 20
-33.1742
 30
7.34739e-15
  70
    32
  0
VERTEX
  8
0
  5
5457
 10
681.249
 20
-33.1804
 30
7.34935e-15
  70
    32
  0
VERTEX
  8
0
  5
5458
 10
681.234
 20
-33.1865
 30
7.35128e-15
  70
    32
  0
VERTEX
  8
0
  5
5459
 10
681.219
 20
-33.1926
 30
7.35317e-15
  70
    32
  0
VERTEX
  8
0
  5
545A
 10
681.204
 20
-33.1985
 30
7.35500e-15
  70
    32
  0
VERTEX
  8
0
  5
545B
 10
681.189
 20
-33.2044
 30
7.35679e-15
  70
    32
  0
VERTEX
  8
0
  5
545C
 10
681.174
 20
-33.2102
 30
7.35853e-15
  70
    32
  0
VERTEX
  8
0
  5
545D
 10
681.159
 20
-33.2159
 30
7.36022e-15
  70
    32
  0
VERTEX
  8
0
  5
545E
 10
681.144
 20
-33.2216
 30
7.36186e-15
  70
    32
  0
VERTEX
  8
0
  5
545F
 10
681.129
 20
-33.2271
 30
7.36346e-15
  70
    32
  0
VERTEX
  8
0
  5
5460
 10
681.114
 20
-33.2326
 30
7.36502e-15
  70
    32
  0
VERTEX
  8
0
  5
5461
 10
681.099
 20
-33.2381
 30
7.36653e-15
  70
    32
  0
VERTEX
  8
0
  5
5462
 10
681.084
 20
-33.2434
 30
7.36799e-15
  70
    32
  0
VERTEX
  8
0
  5
5463
 10
681.069
 20
-33.2487
 30
7.36941e-15
  70
    32
  0
VERTEX
  8
0
  5
5464
 10
681.054
 20
-33.2539
 30
7.37079e-15
  70
    32
  0
VERTEX
  8
0
  5
5465
 10
681.039
 20
-33.2590
 30
7.37213e-15
  70
    32
  0
VERTEX
  8
0
  5
5466
 10
681.024
 20
-33.2640
 30
7.37342e-15
  70
    32
  0
VERTEX
  8
0
  5
5467
 10
681.009
 20
-33.2690
 30
7.37468e-15
  70
    32
  0
VERTEX
  8
0
  5
5468
 10
680.994
 20
-33.2739
 30
7.37589e-15
  70
    32
  0
VERTEX
  8
0
  5
5469
 10
680.979
 20
-33.2787
 30
7.37707e-15
  70
    32
  0
VERTEX
  8
0
  5
546A
 10
680.965
 20
-33.2835
 30
7.37820e-15
  70
    32
  0
VERTEX
  8
0
  5
546B
 10
680.950
 20
-33.2882
 30
7.37930e-15
  70
    32
  0
VERTEX
  8
0
  5
546C
 10
680.935
 20
-33.2928
 30
7.38036e-15
  70
    32
  0
VERTEX
  8
0
  5
546D
 10
680.920
 20
-33.2974
 30
7.38138e-15
  70
    32
  0
VERTEX
  8
0
  5
546E
 10
680.905
 20
-33.3018
 30
7.38237e-15
  70
    32
  0
VERTEX
  8
0
  5
546F
 10
680.891
 20
-33.3062
 30
7.38332e-15
  70
    32
  0
VERTEX
  8
0
  5
5470
 10
680.876
 20
-33.3106
 30
7.38424e-15
  70
    32
  0
VERTEX
  8
0
  5
5471
 10
680.861
 20
-33.3149
 30
7.38512e-15
  70
    32
  0
VERTEX
  8
0
  5
5472
 10
680.847
 20
-33.3191
 30
7.38597e-15
  70
    32
  0
VERTEX
  8
0
  5
5473
 10
680.832
 20
-33.3232
 30
7.38679e-15
  70
    32
  0
VERTEX
  8
0
  5
5474
 10
680.817
 20
-33.3273
 30
7.38757e-15
  70
    32
  0
VERTEX
  8
0
  5
5475
 10
680.803
 20
-33.3313
 30
7.38832e-15
  70
    32
  0
VERTEX
  8
0
  5
5476
 10
680.788
 20
-33.3352
 30
7.38905e-15
  70
    32
  0
VERTEX
  8
0
  5
5477
 10
680.774
 20
-33.3391
 30
7.38974e-15
  70
    32
  0
VERTEX
  8
0
  5
5478
 10
680.759
 20
-33.3429
 30
7.39040e-15
  70
    32
  0
VERTEX
  8
0
  5
5479
 10
680.745
 20
-33.3466
 30
7.39103e-15
  70
    32
  0
VERTEX
  8
0
  5
547A
 10
680.730
 20
-33.3503
 30
7.39163e-15
  70
    32
  0
VERTEX
  8
0
  5
547B
 10
680.716
 20
-33.3539
 30
7.39221e-15
  70
    32
  0
VERTEX
  8
0
  5
547C
 10
680.701
 20
-33.3574
 30
7.39276e-15
  70
    32
  0
VERTEX
  8
0
  5
547D
 10
680.687
 20
-33.3609
 30
7.39328e-15
  70
    32
  0
VERTEX
  8
0
  5
547E
 10
680.673
 20
-33.3643
 30
7.39378e-15
  70
    32
  0
VERTEX
  8
0
  5
547F
 10
680.658
 20
-33.3676
 30
7.39425e-15
  70
    32
  0
VERTEX
  8
0
  5
5480
 10
680.644
 20
-33.3709
 30
7.39470e-15
  70
    32
  0
VERTEX
  8
0
  5
5481
 10
680.630
 20
-33.3741
 30
7.39512e-15
  70
    32
  0
VERTEX
  8
0
  5
5482
 10
680.616
 20
-33.3773
 30
7.39552e-15
  70
    32
  0
VERTEX
  8
0
  5
5483
 10
680.602
 20
-33.3804
 30
7.39590e-15
  70
    32
  0
VERTEX
  8
0
  5
5484
 10
680.587
 20
-33.3834
 30
7.39625e-15
  70
    32
  0
VERTEX
  8
0
  5
5485
 10
680.573
 20
-33.3864
 30
7.39659e-15
  70
    32
  0
VERTEX
  8
0
  5
5486
 10
680.559
 20
-33.3893
 30
7.39690e-15
  70
    32
  0
VERTEX
  8
0
  5
5487
 10
680.545
 20
-33.3921
 30
7.39720e-15
  70
    32
  0
VERTEX
  8
0
  5
5488
 10
680.531
 20
-33.3949
 30
7.39747e-15
  70
    32
  0
VERTEX
  8
0
  5
5489
 10
680.517
 20
-33.3977
 30
7.39773e-15
  70
    32
  0
VERTEX
  8
0
  5
548A
 10
680.503
 20
-33.4003
 30
7.39797e-15
  70
    32
  0
VERTEX
  8
0
  5
548B
 10
680.489
 20
-33.4030
 30
7.39819e-15
  70
    32
  0
VERTEX
  8
0
  5
548C
 10
680.475
 20
-33.4055
 30
7.39839e-15
  70
    32
  0
VERTEX
  8
0
  5
548D
 10
680.462
 20
-33.4080
 30
7.39858e-15
  70
    32
  0
VERTEX
  8
0
  5
548E
 10
680.448
 20
-33.4104
 30
7.39875e-15
  70
    32
  0
VERTEX
  8
0
  5
548F
 10
680.434
 20
-33.4128
 30
7.39891e-15
  70
    32
  0
VERTEX
  8
0
  5
5490
 10
680.420
 20
-33.4152
 30
7.39906e-15
  70
    32
  0
VERTEX
  8
0
  5
5491
 10
680.407
 20
-33.4174
 30
7.39919e-15
  70
    32
  0
VERTEX
  8
0
  5
5492
 10
680.393
 20
-33.4196
 30
7.39931e-15
  70
    32
  0
VERTEX
  8
0
  5
5493
 10
680.379
 20
-33.4218
 30
7.39941e-15
  70
    32
  0
VERTEX
  8
0
  5
5494
 10
680.366
 20
-33.4239
 30
7.39951e-15
  70
    32
  0
VERTEX
  8
0
  5
5495
 10
680.352
 20
-33.4259
 30
7.39959e-15
  70
    32
  0
VERTEX
  8
0
  5
5496
 10
680.339
 20
-33.4279
 30
7.39967e-15
  70
    32
  0
VERTEX
  8
0
  5
5497
 10
680.325
 20
-33.4299
 30
7.39973e-15
  70
    32
  0
VERTEX
  8
0
  5
5498
 10
680.312
 20
-33.4318
 30
7.39979e-15
  70
    32
  0
VERTEX
  8
0
  5
5499
 10
680.299
 20
-33.4336
 30
7.39983e-15
  70
    32
  0
VERTEX
  8
0
  5
549A
 10
680.285
 20
-33.4354
 30
7.39987e-15
  70
    32
  0
VERTEX
  8
0
  5
549B
 10
680.272
 20
-33.4371
 30
7.39991e-15
  70
    32
  0
VERTEX
  8
0
  5
549C
 10
680.259
 20
-33.4388
 30
7.39993e-15
  70
    32
  0
VERTEX
  8
0
  5
549D
 10
680.246
 20
-33.4404
 30
7.39995e-15
  70
    32
  0
VERTEX
  8
0
  5
549E
 10
680.233
 20
-33.4420
 30
7.39997e-15
  70
    32
  0
VERTEX
  8
0
  5
549F
 10
680.220
 20
-33.4435
 30
7.39998e-15
  70
    32
  0
VERTEX
  8
0
  5
54A0
 10
680.207
 20
-33.4450
 30
7.39999e-15
  70
    32
  0
VERTEX
  8
0
  5
54A1
 10
680.194
 20
-33.4464
 30
7.40000e-15
  70
    32
  0
VERTEX
  8
0
  5
54A2
 10
680.181
 20
-33.4477
 30
7.40000e-15
  70
    32
  0
VERTEX
  8
0
  5
54A3
 10
680.168
 20
-33.4491
 30
7.40000e-15
  70
    32
  0
VERTEX
  8
0
  5
54A4
 10
680.155
 20
-33.4503
 30
7.40000e-15
  70
    32
  0
VERTEX
  8
0
  5
54A5
 10
680.142
 20
-33.4516
 30
7.40000e-15
  70
    32
  0
VERTEX
  8
0
  5
54A6
 10
680.129
 20
-33.4527
 30
7.40000e-15
  70
    32
  0
VERTEX
  8
0
  5
54A7
 10
680.117
 20
-33.4539
 30
7.40000e-15
  70
    32
  0
VERTEX
  8
0
  5
54A8
 10
680.104
 20
-33.4549
 30
7.40000e-15
  70
    32
  0
VERTEX
  8
0
  5
54A9
 10
680.091
 20
-33.4560
 30
7.40000e-15
  70
    32
  0
VERTEX
  8
0
  5
54AA
 10
680.079
 20
-33.4570
 30
7.40000e-15
  70
    32
  0
VERTEX
  8
0
  5
54AB
 10
680.066
 20
-33.4579
 30
7.40000e-15
  70
    32
  0
VERTEX
  8
0
  5
54AC
 10
680.054
 20
-33.4588
 30
7.40000e-15
  70
    32
  0
VERTEX
  8
0
  5
54AD
 10
680.042
 20
-33.4597
 30
7.40000e-15
  70
    32
  0
VERTEX
  8
0
  5
54AE
 10
680.029
 20
-33.4605
 30
7.40000e-15
  70
    32
  0
VERTEX
  8
0
  5
54AF
 10
680.017
 20
-33.4613
 30
7.40000e-15
  70
    32
  0
VERTEX
  8
0
  5
54B0
 10
680.005
 20
-33.4620
 30
7.40000e-15
  70
    32
  0
VERTEX
  8
0
  5
54B1
 10
679.992
 20
-33.4627
 30
7.40000e-15
  70
    32
  0
VERTEX
  8
0
  5
54B2
 10
679.980
 20
-33.4633
 30
7.40000e-15
  70
    32
  0
VERTEX
  8
0
  5
54B3
 10
679.968
 20
-33.4640
 30
7.40000e-15
  70
    32
  0
VERTEX
  8
0
  5
54B4
 10
679.956
 20
-33.4645
 30
7.40000e-15
  70
    32
  0
VERTEX
  8
0
  5
54B5
 10
679.944
 20
-33.4651
 30
7.40000e-15
  70
    32
  0
VERTEX
  8
0
  5
54B6
 10
679.932
 20
-33.4655
 30
7.40000e-15
  70
    32
  0
VERTEX
  8
0
  5
54B7
 10
679.920
 20
-33.4660
 30
7.40000e-15
  70
    32
  0
VERTEX
  8
0
  5
54B8
 10
679.908
 20
-33.4664
 30
7.40000e-15
  70
    32
  0
VERTEX
  8
0
  5
54B9
 10
679.896
 20
-33.4668
 30
7.40000e-15
  70
    32
  0
VERTEX
  8
0
  5
54BA
 10
679.884
 20
-33.4671
 30
7.40000e-15
  70
    32
  0
VERTEX
  8
0
  5
54BB
 10
679.873
 20
-33.4674
 30
7.40000e-15
  70
    32
  0
VERTEX
  8
0
  5
54BC
 10
679.861
 20
-33.4677
 30
7.40000e-15
  70
    32
  0
VERTEX
  8
0
  5
54BD
 10
679.849
 20
-33.4679
 30
7.40000e-15
  70
    32
  0
VERTEX
  8
0
  5
54BE
 10
679.838
 20
-33.4681
 30
7.40000e-15
  70
    32
  0
VERTEX
  8
0
  5
54BF
 10
679.826
 20
-33.4682
 30
7.40000e-15
  70
    32
  0
VERTEX
  8
0
  5
54C0
 10
679.814
 20
-33.4684
 30
7.40000e-15
  70
    32
  0
VERTEX
  8
0
  5
54C1
 10
679.803
 20
-33.4684
 30
7.40000e-15
  70
    32
  0
VERTEX
  8
0
  5
54C2
 10
679.792
 20
-33.4685
 30
7.40000e-15
  70
    32
  0
VERTEX
  8
0
  5
54C3
 10
679.780
 20
-33.4685
 30
7.40000e-15
  70
    32
  0
SEQEND
  8
0
  5
54C4
  0
LINE
  5
51D0
  8
0
  6
CONTINUOUS
 62
     3
 10
698.8658965207391702
 20
-19.4685123918370415
 30
0.0000000000000043
 11
699.0416657015714463
 21
-29.5383220175866086
 31
0.0000000000000066
210
0.0
220
1.0
230
-0.0000000000000002
  0
LINE
  5
51D1
  8
0
  6
CONTINUOUS
 62
     3
 10
683.8658965207390565
 20
-19.4685123918370415
 30
0.0000000000000043
 11
683.6882015896011353
 21
-29.6486481787094505
 31
0.0000000000000066
210
0.0
220
1.0
230
-0.0000000000000002
  0
ARC
  5
51D2
  8
0
  6
CONTINUOUS
 62
     3
 10
-823.4633453226878146
 20
-32.4685123918373435
 30
0.0
 40
0.9999999999999928
210
0.0
220
-0.0000000000000002
230
-1.0
 50
270.0
 51
358.0000000000175078
  0
ARC
  5
51D3
  8
0
  6
CONTINUOUS
 62
     3
 10
-681.2684477188241772
 20
-32.4685123918399796
 30
0.0
 40
0.9999999999657713
210
0.0
220
-0.0000000000000002
230
-1.0
 50
181.9999999998981082
 51
186.2178841740494875
  0
LINE
  5
51D4
  8
0
  6
VERDECKT
 62
     1
 10
870.3658965207391702
 20
-22.4685123918370699
 30
0.000000000000005
 11
877.5393098819041597
 21
-22.4685123918370699
 31
0.000000000000005
210
0.0
220
1.0
230
-0.0000000000000002
  0
LINE
  5
51D5
  8
0
  6
VERDECKT
 62
     1
 10
877.5393098819041597
 20
-22.4685123918370699
 30
0.000000000000005
 11
878.3658965207392839
 21
-22.4685123918370699
 31
0.000000000000005
210
0.0
220
1.0
230
-0.0000000000000002
  0
LINE
  5
51D6
  8
0
  6
VERDECKT
 62
     1
 10
870.3658965207391702
 20
-25.4685123918370806
 30
0.0000000000000057
 11
877.5393098819041597
 21
-25.4685123918370806
 31
0.0000000000000057
210
0.0
220
1.0
230
-0.0000000000000002
  0
LINE
  5
51D7
  8
0
  6
VERDECKT
 62
     1
 10
877.5393098819041597
 20
-25.4685123918370806
 30
0.0000000000000057
 11
878.3658965207392839
 21
-25.4685123918370806
 31
0.0000000000000057
210
0.0
220
1.0
230
-0.0000000000000002
  0
LINE
  5
51D8
  8
0
  6
VERDECKT
 62
     1
 10
870.3658965207392839
 20
-36.4685123918370735
 30
0.0000000000000081
 11
877.5393098819039324
 21
-36.4685123918370735
 31
0.0000000000000081
210
0.0
220
1.0
230
-0.0000000000000002
  0
LINE
  5
51D9
  8
0
  6
VERDECKT
 62
     1
 10
877.5393098819040461
 20
-36.4685123918370735
 30
0.0000000000000081
 11
878.3658965207391702
 21
-36.4685123918370735
 31
0.0000000000000081
210
0.0
220
1.0
230
-0.0000000000000002
  0
LINE
  5
51DA
  8
0
  6
VERDECKT
 62
     1
 10
872.3658965207392839
 20
-38.4685123918370806
 30
0.0000000000000085
 11
875.9526032013216081
 21
-38.4685123918370806
 31
0.0000000000000085
210
0.0
220
1.0
230
-0.0000000000000002
  0
LINE
  5
51DB
  8
0
  6
VERDECKT
 62
     1
 10
875.9526032013216081
 20
-38.4685123918370806
 30
0.0000000000000085
 11
876.3658965207391702
 21
-38.4685123918370806
 31
0.0000000000000085
210
0.0
220
1.0
230
-0.0000000000000002
  0
LINE
  5
51DC
  8
0
  6
VERDECKT
 62
     1
 10
871.3658965207392839
 20
-37.4685123918370735
 30
0.0000000000000083
 11
876.7459565416128271
 21
-37.4685123918370735
 31
0.0000000000000083
210
0.0
220
1.0
230
-0.0000000000000002
  0
LINE
  5
51DD
  8
0
  6
VERDECKT
 62
     1
 10
876.7459565416128271
 20
-37.4685123918370735
 30
0.0000000000000083
 11
877.3658965207390565
 21
-37.4685123918370735
 31
0.0000000000000083
210
0.0
220
1.0
230
-0.0000000000000002
  0
LINE
  5
51DE
  8
0
  6
VERDECKT
 62
     1
 10
871.3658965207392839
 20
-35.4685123918370806
 30
0.0000000000000079
 11
876.7459565416128271
 21
-35.4685123918370806
 31
0.0000000000000079
210
0.0
220
1.0
230
-0.0000000000000002
  0
LINE
  5
51DF
  8
0
  6
VERDECKT
 62
     1
 10
876.7459565416128271
 20
-35.4685123918370806
 30
0.0000000000000079
 11
877.3658965207390565
 21
-35.4685123918370806
 31
0.0000000000000079
210
0.0
220
1.0
230
-0.0000000000000002
  0
LINE
  5
51E0
  8
0
  6
VERDECKT
 62
     1
 10
872.3658965207392839
 20
-34.4685123918370806
 30
0.0000000000000077
 11
875.9526032013216081
 21
-34.4685123918370806
 31
0.0000000000000077
210
0.0
220
1.0
230
-0.0000000000000002
  0
LINE
  5
51E1
  8
0
  6
VERDECKT
 62
     1
 10
875.9526032013216081
 20
-34.4685123918370806
 30
0.0000000000000077
 11
876.3658965207391702
 21
-34.4685123918370806
 31
0.0000000000000077
210
0.0
220
1.0
230
-0.0000000000000002
  0
LINE
  5
51E2
  8
0
  6
VERDECKT
 62
     1
 10
872.3658965207392839
 20
-32.4685123918370735
 30
0.0000000000000072
 11
875.9526032013216081
 21
-32.4685123918370735
 31
0.0000000000000072
210
0.0
220
1.0
230
-0.0000000000000002
  0
LINE
  5
51E3
  8
0
  6
VERDECKT
 62
     1
 10
875.9526032013216081
 20
-32.4685123918370735
 30
0.0000000000000072
 11
876.3658965207391702
 21
-32.4685123918370735
 31
0.0000000000000072
210
0.0
220
1.0
230
-0.0000000000000002
  0
LINE
  5
51E4
  8
0
  6
VERDECKT
 62
     1
 10
871.3658965207392839
 20
-31.4685123918370699
 30
0.000000000000007
 11
876.7459565416128271
 21
-31.4685123918370699
 31
0.000000000000007
210
0.0
220
1.0
230
-0.0000000000000002
  0
LINE
  5
51E5
  8
0
  6
VERDECKT
 62
     1
 10
876.7459565416128271
 20
-31.4685123918370699
 30
0.000000000000007
 11
877.3658965207390565
 21
-31.4685123918370699
 31
0.000000000000007
210
0.0
220
1.0
230
-0.0000000000000002
  0
LINE
  5
51E6
  8
0
  6
VERDECKT
 62
     1
 10
872.3658965207392839
 20
-30.4685123918370806
 30
0.0000000000000068
 11
875.9526032013216081
 21
-30.4685123918370806
 31
0.0000000000000068
210
0.0
220
1.0
230
-0.0000000000000002
  0
LINE
  5
51E7
  8
0
  6
VERDECKT
 62
     1
 10
875.9526032013216081
 20
-30.4685123918370806
 30
0.0000000000000068
 11
876.3658965207391702
 21
-30.4685123918370806
 31
0.0000000000000068
210
0.0
220
1.0
230
-0.0000000000000002
  0
LINE
  5
51E8
  8
0
  6
VERDECKT
 62
     1
 10
871.3658965207392839
 20
-29.4685123918370806
 30
0.0000000000000065
 11
876.7459565416128271
 21
-29.4685123918370806
 31
0.0000000000000065
210
0.0
220
1.0
230
-0.0000000000000002
  0
LINE
  5
51E9
  8
0
  6
VERDECKT
 62
     1
 10
876.7459565416128271
 20
-29.4685123918370806
 30
0.0000000000000065
 11
877.3658965207390565
 21
-29.4685123918370806
 31
0.0000000000000065
210
0.0
220
1.0
230
-0.0000000000000002
  0
LINE
  5
51EA
  8
0
  6
VERDECKT
 62
     1
 10
872.3658965207392839
 20
-28.4685123918370806
 30
0.0000000000000063
 11
875.9526032013216081
 21
-28.4685123918370806
 31
0.0000000000000063
210
0.0
220
1.0
230
-0.0000000000000002
  0
LINE
  5
51EB
  8
0
  6
VERDECKT
 62
     1
 10
875.9526032013216081
 20
-28.4685123918370806
 30
0.0000000000000063
 11
876.3658965207391702
 21
-28.4685123918370806
 31
0.0000000000000063
210
0.0
220
1.0
230
-0.0000000000000002
  0
LINE
  5
51EC
  8
0
  6
VERDECKT
 62
     1
 10
871.3658965207392839
 20
-27.4685123918370699
 30
0.0000000000000061
 11
876.7459565416128271
 21
-27.4685123918370699
 31
0.0000000000000061
210
0.0
220
1.0
230
-0.0000000000000002
  0
LINE
  5
51ED
  8
0
  6
VERDECKT
 62
     1
 10
876.7459565416128271
 20
-27.4685123918370699
 30
0.0000000000000061
 11
877.3658965207390565
 21
-27.4685123918370699
 31
0.0000000000000061
210
0.0
220
1.0
230
-0.0000000000000002
  0
LINE
  5
51EE
  8
0
  6
VERDECKT
 62
     1
 10
872.3658965207392839
 20
-26.4685123918370699
 30
0.0000000000000059
 11
875.9526032013216081
 21
-26.4685123918370699
 31
0.0000000000000059
210
0.0
220
1.0
230
-0.0000000000000002
  0
LINE
  5
51EF
  8
0
  6
VERDECKT
 62
     1
 10
875.9526032013216081
 20
-26.4685123918370699
 30
0.0000000000000059
 11
876.3658965207391702
 21
-26.4685123918370699
 31
0.0000000000000059
210
0.0
220
1.0
230
-0.0000000000000002
  0
LINE
  5
51F0
  8
0
  6
VERDECKT
 62
     1
 10
872.3658965207392839
 20
-24.4685123918370806
 30
0.0000000000000054
 11
875.9526032013216081
 21
-24.4685123918370806
 31
0.0000000000000054
210
0.0
220
1.0
230
-0.0000000000000002
  0
LINE
  5
51F1
  8
0
  6
VERDECKT
 62
     1
 10
875.9526032013216081
 20
-24.4685123918370806
 30
0.0000000000000054
 11
876.3658965207391702
 21
-24.4685123918370806
 31
0.0000000000000054
210
0.0
220
1.0
230
-0.0000000000000002
  0
LINE
  5
51F2
  8
0
  6
VERDECKT
 62
     1
 10
871.3658965207392839
 20
-23.4685123918370699
 30
0.0000000000000052
 11
876.7459565416128271
 21
-23.4685123918370699
 31
0.0000000000000052
210
0.0
220
1.0
230
-0.0000000000000002
  0
LINE
  5
51F3
  8
0
  6
VERDECKT
 62
     1
 10
876.7459565416128271
 20
-23.4685123918370699
 30
0.0000000000000052
 11
877.3658965207390565
 21
-23.4685123918370699
 31
0.0000000000000052
210
0.0
220
1.0
230
-0.0000000000000002
  0
LINE
  5
51F4
  8
0
  6
VERDECKT
 62
     1
 10
871.3658965207392839
 20
-21.4685123918370699
 30
0.0000000000000048
 11
876.7459565416128271
 21
-21.4685123918370699
 31
0.0000000000000048
210
0.0
220
1.0
230
-0.0000000000000002
  0
LINE
  5
51F5
  8
0
  6
VERDECKT
 62
     1
 10
876.7459565416128271
 20
-21.4685123918370699
 30
0.0000000000000048
 11
877.3658965207390565
 21
-21.4685123918370699
 31
0.0000000000000048
210
0.0
220
1.0
230
-0.0000000000000002
  0
LINE
  5
51F6
  8
0
  6
VERDECKT
 62
     1
 10
872.3658965207392839
 20
-20.4685123918369598
 30
0.0000000000000045
 11
875.9526032013216081
 21
-20.4685123918369598
 31
0.0000000000000045
210
0.0
220
1.0
230
-0.0000000000000002
  0
LINE
  5
51F7
  8
0
  6
VERDECKT
 62
     1
 10
875.9526032013216081
 20
-20.4685123918369598
 30
0.0000000000000045
 11
876.3658965207391702
 21
-20.4685123918369598
 31
0.0000000000000045
210
0.0
220
1.0
230
-0.0000000000000002
  0
LINE
  5
51F8
  8
0
  6
VERDECKT
 62
     1
 10
878.3658965207391702
 20
-19.4685123918370699
 30
0.0000000000000043
 11
878.3658965207391702
 21
-22.4685123918370699
 31
0.000000000000005
210
0.0
220
1.0
230
-0.0000000000000002
  0
LINE
  5
51F9
  8
0
  6
VERDECKT
 62
     1
 10
870.3658965207392839
 20
-19.4685123918370699
 30
0.0000000000000043
 11
870.3658965207392839
 21
-22.4685123918370699
 31
0.000000000000005
210
0.0
220
1.0
230
-0.0000000000000002
  0
LINE
  5
51FA
  8
0
  6
VERDECKT
 62
     1
 10
877.8658965207390565
 20
-22.4685123918370699
 30
0.000000000000005
 11
877.8658965207390565
 21
-25.4685123918370806
 31
0.0000000000000057
210
0.0
220
1.0
230
-0.0000000000000002
  0
LINE
  5
51FB
  8
0
  6
VERDECKT
 62
     1
 10
870.8658965207393976
 20
-22.4685123918370699
 30
0.000000000000005
 11
870.8658965207393976
 21
-25.4685123918370806
 31
0.0000000000000057
210
0.0
220
1.0
230
-0.0000000000000002
  0
LINE
  5
51FC
  8
0
  6
VERDECKT
 62
     1
 10
878.3658965207391702
 20
-25.4685123918370806
 30
0.0000000000000057
 11
878.3658965207391702
 21
-33.4685123918370735
 31
0.0000000000000074
210
0.0
220
1.0
230
-0.0000000000000002
  0
LINE
  5
51FD
  8
0
  6
VERDECKT
 62
     1
 10
870.3658965207392839
 20
-25.4685123918370806
 30
0.0000000000000057
 11
870.3658965207392839
 21
-33.4685123918370735
 31
0.0000000000000074
210
0.0
220
1.0
230
-0.0000000000000002
  0
LINE
  5
51FE
  8
0
  6
VERDECKT
 62
     1
 10
877.8658965207390565
 20
-33.4685123918370735
 30
0.0000000000000074
 11
877.8658965207390565
 21
-36.4685123918370735
 31
0.0000000000000081
210
0.0
220
1.0
230
-0.0000000000000002
  0
LINE
  5
51FF
  8
0
  6
VERDECKT
 62
     1
 10
870.8658965207393976
 20
-33.4685123918370735
 30
0.0000000000000074
 11
870.8658965207393976
 21
-36.4685123918370735
 31
0.0000000000000081
210
0.0
220
1.0
230
-0.0000000000000002
  0
LINE
  5
5200
  8
0
  6
VERDECKT
 62
     1
 10
878.3658965207391702
 20
-36.4685123918370735
 30
0.0000000000000081
 11
878.3658965207391702
 21
-39.4685123918365122
 31
0.0000000000000088
210
0.0
220
1.0
230
-0.0000000000000002
  0
LINE
  5
5201
  8
0
  6
VERDECKT
 62
     1
 10
870.3658965207392839
 20
-36.4685123918370735
 30
0.0000000000000081
 11
870.3658965207392839
 21
-39.4685123918365122
 31
0.0000000000000088
210
0.0
220
1.0
230
-0.0000000000000002
  0
LINE
  5
5202
  8
0
  6
VERDECKT
 62
     1
 10
876.3658965207391702
 20
-38.4685123918370806
 30
0.0000000000000085
 11
877.3658965207391702
 21
-39.4685123918367324
 31
0.0000000000000088
210
0.0
220
1.0
230
-0.0000000000000002
  0
LINE
  5
5203
  8
0
  6
VERDECKT
 62
     1
 10
872.3658965207392839
 20
-38.4685123918370806
 30
0.0000000000000085
 11
871.3658965207392839
 21
-39.4685123918367324
 31
0.0000000000000088
210
0.0
220
1.0
230
-0.0000000000000002
  0
LINE
  5
5204
  8
0
  6
VERDECKT
 62
     1
 10
872.3658965207392839
 20
-38.4685123918370806
 30
0.0000000000000085
 11
871.3658965207392839
 21
-37.4685123918370735
 31
0.0000000000000083
210
0.0
220
1.0
230
-0.0000000000000002
  0
LINE
  5
5205
  8
0
  6
VERDECKT
 62
     1
 10
876.3658965207391702
 20
-38.4685123918370806
 30
0.0000000000000085
 11
877.3658965207391702
 21
-37.4685123918370735
 31
0.0000000000000083
210
0.0
220
1.0
230
-0.0000000000000002
  0
LINE
  5
5206
  8
0
  6
VERDECKT
 62
     1
 10
876.3658965207391702
 20
-36.4685123918370735
 30
0.0000000000000081
 11
877.3658965207391702
 21
-37.4685123918370735
 31
0.0000000000000083
210
0.0
220
1.0
230
-0.0000000000000002
  0
LINE
  5
5207
  8
0
  6
VERDECKT
 62
     1
 10
872.3658965207392839
 20
-36.4685123918370735
 30
0.0000000000000081
 11
871.3658965207392839
 21
-37.4685123918370735
 31
0.0000000000000083
210
0.0
220
1.0
230
-0.0000000000000002
  0
LINE
  5
5208
  8
0
  6
VERDECKT
 62
     1
 10
872.3658965207392839
 20
-36.4685123918370735
 30
0.0000000000000081
 11
871.3658965207392839
 21
-35.4685123918370806
 31
0.0000000000000079
210
0.0
220
1.0
230
-0.0000000000000002
  0
LINE
  5
5209
  8
0
  6
VERDECKT
 62
     1
 10
876.3658965207391702
 20
-36.4685123918370735
 30
0.0000000000000081
 11
877.3658965207391702
 21
-35.4685123918370806
 31
0.0000000000000079
210
0.0
220
1.0
230
-0.0000000000000002
  0
LINE
  5
520A
  8
0
  6
VERDECKT
 62
     1
 10
876.3658965207391702
 20
-34.4685123918370806
 30
0.0000000000000077
 11
877.3658965207391702
 21
-35.4685123918370806
 31
0.0000000000000079
210
0.0
220
1.0
230
-0.0000000000000002
  0
LINE
  5
520B
  8
0
  6
VERDECKT
 62
     1
 10
872.3658965207392839
 20
-34.4685123918370806
 30
0.0000000000000077
 11
871.3658965207392839
 21
-35.4685123918370806
 31
0.0000000000000079
210
0.0
220
1.0
230
-0.0000000000000002
  0
LINE
  5
520C
  8
0
  6
VERDECKT
 62
     1
 10
872.3658965207392839
 20
-34.4685123918370806
 30
0.0000000000000077
 11
871.3658965207392839
 21
-33.4685123918370735
 31
0.0000000000000074
210
0.0
220
1.0
230
-0.0000000000000002
  0
LINE
  5
520D
  8
0
  6
VERDECKT
 62
     1
 10
876.3658965207391702
 20
-34.4685123918370806
 30
0.0000000000000077
 11
877.3658965207391702
 21
-33.4685123918370735
 31
0.0000000000000074
210
0.0
220
1.0
230
-0.0000000000000002
  0
LINE
  5
520E
  8
0
  6
VERDECKT
 62
     1
 10
876.3658965207391702
 20
-32.4685123918370735
 30
0.0000000000000072
 11
877.3658965207391702
 21
-33.4685123918370735
 31
0.0000000000000074
210
0.0
220
1.0
230
-0.0000000000000002
  0
LINE
  5
520F
  8
0
  6
VERDECKT
 62
     1
 10
872.3658965207392839
 20
-32.4685123918370735
 30
0.0000000000000072
 11
871.3658965207392839
 21
-33.4685123918370735
 31
0.0000000000000074
210
0.0
220
1.0
230
-0.0000000000000002
  0
LINE
  5
5210
  8
0
  6
VERDECKT
 62
     1
 10
872.3658965207392839
 20
-32.4685123918370735
 30
0.0000000000000072
 11
871.3658965207392839
 21
-31.4685123918370699
 31
0.000000000000007
210
0.0
220
1.0
230
-0.0000000000000002
  0
LINE
  5
5211
  8
0
  6
VERDECKT
 62
     1
 10
876.3658965207391702
 20
-32.4685123918370735
 30
0.0000000000000072
 11
877.3658965207391702
 21
-31.4685123918370699
 31
0.000000000000007
210
0.0
220
1.0
230
-0.0000000000000002
  0
LINE
  5
5212
  8
0
  6
VERDECKT
 62
     1
 10
876.3658965207391702
 20
-30.4685123918370806
 30
0.0000000000000068
 11
877.3658965207391702
 21
-31.4685123918370699
 31
0.000000000000007
210
0.0
220
1.0
230
-0.0000000000000002
  0
LINE
  5
5213
  8
0
  6
VERDECKT
 62
     1
 10
872.3658965207392839
 20
-30.4685123918370806
 30
0.0000000000000068
 11
871.3658965207392839
 21
-31.4685123918370699
 31
0.000000000000007
210
0.0
220
1.0
230
-0.0000000000000002
  0
LINE
  5
5214
  8
0
  6
VERDECKT
 62
     1
 10
872.3658965207392839
 20
-30.4685123918370806
 30
0.0000000000000068
 11
871.3658965207392839
 21
-29.4685123918370806
 31
0.0000000000000065
210
0.0
220
1.0
230
-0.0000000000000002
  0
LINE
  5
5215
  8
0
  6
VERDECKT
 62
     1
 10
876.3658965207391702
 20
-30.4685123918370806
 30
0.0000000000000068
 11
877.3658965207391702
 21
-29.4685123918370806
 31
0.0000000000000065
210
0.0
220
1.0
230
-0.0000000000000002
  0
LINE
  5
5216
  8
0
  6
VERDECKT
 62
     1
 10
876.3658965207391702
 20
-28.4685123918370806
 30
0.0000000000000063
 11
877.3658965207391702
 21
-29.4685123918370806
 31
0.0000000000000065
210
0.0
220
1.0
230
-0.0000000000000002
  0
LINE
  5
5217
  8
0
  6
VERDECKT
 62
     1
 10
872.3658965207392839
 20
-28.4685123918370806
 30
0.0000000000000063
 11
871.3658965207392839
 21
-29.4685123918370806
 31
0.0000000000000065
210
0.0
220
1.0
230
-0.0000000000000002
  0
LINE
  5
5218
  8
0
  6
VERDECKT
 62
     1
 10
872.3658965207392839
 20
-28.4685123918370806
 30
0.0000000000000063
 11
871.3658965207392839
 21
-27.4685123918370699
 31
0.0000000000000061
210
0.0
220
1.0
230
-0.0000000000000002
  0
LINE
  5
5219
  8
0
  6
VERDECKT
 62
     1
 10
876.3658965207391702
 20
-28.4685123918370806
 30
0.0000000000000063
 11
877.3658965207391702
 21
-27.4685123918370699
 31
0.0000000000000061
210
0.0
220
1.0
230
-0.0000000000000002
  0
LINE
  5
521A
  8
0
  6
VERDECKT
 62
     1
 10
876.3658965207391702
 20
-26.4685123918370699
 30
0.0000000000000059
 11
877.3658965207391702
 21
-27.4685123918370699
 31
0.0000000000000061
210
0.0
220
1.0
230
-0.0000000000000002
  0
LINE
  5
521B
  8
0
  6
VERDECKT
 62
     1
 10
872.3658965207392839
 20
-26.4685123918370699
 30
0.0000000000000059
 11
871.3658965207392839
 21
-27.4685123918370699
 31
0.0000000000000061
210
0.0
220
1.0
230
-0.0000000000000002
  0
LINE
  5
521C
  8
0
  6
VERDECKT
 62
     1
 10
872.3658965207392839
 20
-26.4685123918370699
 30
0.0000000000000059
 11
871.3658965207392839
 21
-25.4685123918370806
 31
0.0000000000000057
210
0.0
220
1.0
230
-0.0000000000000002
  0
LINE
  5
521D
  8
0
  6
VERDECKT
 62
     1
 10
876.3658965207391702
 20
-26.4685123918370699
 30
0.0000000000000059
 11
877.3658965207391702
 21
-25.4685123918370806
 31
0.0000000000000057
210
0.0
220
1.0
230
-0.0000000000000002
  0
LINE
  5
521E
  8
0
  6
VERDECKT
 62
     1
 10
876.3658965207391702
 20
-24.4685123918370806
 30
0.0000000000000054
 11
877.3658965207391702
 21
-25.4685123918370806
 31
0.0000000000000057
210
0.0
220
1.0
230
-0.0000000000000002
  0
LINE
  5
521F
  8
0
  6
VERDECKT
 62
     1
 10
872.3658965207392839
 20
-24.4685123918370806
 30
0.0000000000000054
 11
871.3658965207392839
 21
-25.4685123918370806
 31
0.0000000000000057
210
0.0
220
1.0
230
-0.0000000000000002
  0
LINE
  5
5220
  8
0
  6
VERDECKT
 62
     1
 10
872.3658965207392839
 20
-24.4685123918370806
 30
0.0000000000000054
 11
871.3658965207392839
 21
-23.4685123918370699
 31
0.0000000000000052
210
0.0
220
1.0
230
-0.0000000000000002
  0
LINE
  5
5221
  8
0
  6
VERDECKT
 62
     1
 10
876.3658965207391702
 20
-24.4685123918370806
 30
0.0000000000000054
 11
877.3658965207391702
 21
-23.4685123918370699
 31
0.0000000000000052
210
0.0
220
1.0
230
-0.0000000000000002
  0
LINE
  5
5222
  8
0
  6
VERDECKT
 62
     1
 10
876.3658965207391702
 20
-22.4685123918369598
 30
0.000000000000005
 11
877.3658965207391702
 21
-23.4685123918370699
 31
0.0000000000000052
210
0.0
220
1.0
230
-0.0000000000000002
  0
LINE
  5
5223
  8
0
  6
VERDECKT
 62
     1
 10
872.3658965207392839
 20
-22.4685123918369598
 30
0.000000000000005
 11
871.3658965207392839
 21
-23.4685123918370699
 31
0.0000000000000052
210
0.0
220
1.0
230
-0.0000000000000002
  0
LINE
  5
5224
  8
0
  6
VERDECKT
 62
     1
 10
872.3658965207392839
 20
-22.4685123918369598
 30
0.000000000000005
 11
871.3658965207392839
 21
-21.4685123918370699
 31
0.0000000000000048
210
0.0
220
1.0
230
-0.0000000000000002
  0
LINE
  5
5225
  8
0
  6
VERDECKT
 62
     1
 10
876.3658965207391702
 20
-22.4685123918369598
 30
0.000000000000005
 11
877.3658965207391702
 21
-21.4685123918370699
 31
0.0000000000000048
210
0.0
220
1.0
230
-0.0000000000000002
  0
LINE
  5
5226
  8
0
  6
VERDECKT
 62
     1
 10
876.3658965207391702
 20
-20.4685123918369598
 30
0.0000000000000045
 11
877.3658965207391702
 21
-21.4685123918370699
 31
0.0000000000000048
210
0.0
220
1.0
230
-0.0000000000000002
  0
LINE
  5
5227
  8
0
  6
VERDECKT
 62
     1
 10
872.3658965207392839
 20
-20.4685123918369598
 30
0.0000000000000045
 11
871.3658965207392839
 21
-21.4685123918370699
 31
0.0000000000000048
210
0.0
220
1.0
230
-0.0000000000000002
  0
LINE
  5
5228
  8
0
  6
VERDECKT
 62
     1
 10
872.3658965207392839
 20
-20.4685123918369598
 30
0.0000000000000045
 11
871.3658965207392839
 21
-19.4685123918366116
 31
0.0000000000000043
210
0.0
220
1.0
230
-0.0000000000000002
  0
LINE
  5
5229
  8
0
  6
VERDECKT
 62
     1
 10
876.3658965207391702
 20
-20.4685123918369598
 30
0.0000000000000045
 11
877.3658965207391702
 21
-19.4685123918366116
 31
0.0000000000000043
210
0.0
220
1.0
230
-0.0000000000000002
  0
LINE
  5
522A
  8
0
  6
VERDECKT
 62
     1
 10
682.4081253596727947
 20
-32.4510626434857912
 30
0.0000000000000072
 11
700.3756495721002011
 21
-32.4510626434857912
 31
0.0000000000000072
210
0.0
220
1.0
230
-0.0000000000000002
  0
LINE
  5
522B
  8
0
  6
VERDECKT
 62
     1
 10
682.3493694877035978
 20
-32.5034118885396381
 30
0.0000000000000072
 11
700.435411639760332
 21
-32.5034118885396381
 31
0.0000000000000072
210
0.0
220
1.0
230
-0.0000000000000002
  0
ARC
  5
522C
  8
0
  6
VERDECKT
 62
     1
 10
-684.4280985861048521
 20
15.03148760816301
 30
0.0
 40
0.5000000000085647
210
0.0
220
-0.0000000000000002
230
-1.0
 50
1.9999999999871021
 51
9.5388323300733173
  0
ARC
  5
522D
  8
0
  6
VERDECKT
 62
     1
 10
-820.3036944553989542
 20
15.0314876081646993
 30
0.0
 40
0.4999999999825984
210
0.0
220
-0.0000000000000002
230
-1.0
 50
170.4611676696308109
 51
178.00000000011201
  0
LINE
  5
522E
  8
0
  6
VERDECKT
 62
     1
 10
817.4419421955331018
 20
35.0789409680295776
 30
-0.0000000000000078
 11
820.7967812122184341
 21
15.1143456206429292
 31
-0.0000000000000034
210
0.0
220
1.0
230
-0.0000000000000002
  0
LINE
  5
522F
  8
0
  6
VERDECKT
 62
     1
 10
687.2898508459446703
 20
35.07894096802967
 30
-0.0000000000000078
 11
683.9350118292594516
 21
15.1143456206430198
 31
-0.0000000000000034
210
0.0
220
1.0
230
-0.0000000000000002
  0
ARC
  5
5230
  8
0
  6
VERDECKT
 62
     1
 10
-681.8658965207364417
 20
35.9903791053070705
 30
0.0
 40
5.5000000000025011
210
0.0
220
-0.0000000000000002
230
-1.0
 50
179.9999999999976978
 51
189.5388323302057927
  0
ARC
  5
5231
  8
0
  6
VERDECKT
 62
     1
 10
-822.8658965207418987
 20
35.9903791053070066
 30
0.0
 40
5.500000000002955
210
0.0
220
-0.0000000000000002
230
-1.0
 50
350.4611676697945768
 51
0.0000000000021501
  0
LINE
  5
5232
  8
0
  6
VERDECKT
 62
     1
 10
817.3658965207390565
 20
166.5314876081633884
 30
-0.000000000000037
 11
817.3658965207389429
 21
35.990379105307241
 31
-0.000000000000008
210
0.0
220
1.0
230
-0.0000000000000002
  0
LINE
  5
5233
  8
0
  6
VERDECKT
 62
     1
 10
687.3658965207391702
 20
166.5314876081633884
 30
-0.000000000000037
 11
687.3658965207390565
 21
35.9903791053072908
 31
-0.000000000000008
210
0.0
220
1.0
230
-0.0000000000000002
  0
LINE
  5
5234
  8
0
  6
VERDECKT
 62
     1
 10
820.8033898688911449
 20
15.0489373565143598
 30
-0.0000000000000033
 11
822.4639544956685313
 21
-32.5034118885397092
 31
0.0000000000000072
210
0.0
220
1.0
230
-0.0000000000000002
  0
LINE
  5
5235
  8
0
  6
VERDECKT
 62
     1
 10
683.9284031725868545
 20
15.0489373565144398
 30
-0.0000000000000033
 11
682.2678385458093544
 21
-32.503411888539631
 31
0.0000000000000072
210
0.0
220
1.0
230
-0.0000000000000002
  0
LINE
  5
5236
  8
0
  6
VERDECKT
 62
     1
 10
687.3658965207390565
 20
-22.4685123918370415
 30
0.000000000000005
 11
694.5393098819040461
 21
-22.4685123918370415
 31
0.000000000000005
210
0.0
220
1.0
230
-0.0000000000000002
  0
LINE
  5
5237
  8
0
  6
VERDECKT
 62
     1
 10
694.5393098819041597
 20
-22.4685123918370415
 30
0.000000000000005
 11
695.3658965207392839
 21
-22.4685123918370415
 31
0.000000000000005
210
0.0
220
1.0
230
-0.0000000000000002
  0
LINE
  5
5238
  8
0
  6
VERDECKT
 62
     1
 10
687.3658965207390565
 20
-25.4685123918370486
 30
0.0000000000000057
 11
694.5393098819040461
 21
-25.4685123918370486
 31
0.0000000000000057
210
0.0
220
1.0
230
-0.0000000000000002
  0
LINE
  5
5239
  8
0
  6
VERDECKT
 62
     1
 10
694.5393098819041597
 20
-25.4685123918370486
 30
0.0000000000000057
 11
695.3658965207392839
 21
-25.4685123918370486
 31
0.0000000000000057
210
0.0
220
1.0
230
-0.0000000000000002
  0
LINE
  5
523A
  8
0
  6
VERDECKT
 62
     1
 10
687.3658965207392839
 20
-33.4685123918370522
 30
0.0000000000000074
 11
694.5393098819040461
 21
-33.4685123918370522
 31
0.0000000000000074
210
0.0
220
1.0
230
-0.0000000000000002
  0
LINE
  5
523B
  8
0
  6
VERDECKT
 62
     1
 10
694.5393098819040461
 20
-33.4685123918370522
 30
0.0000000000000074
 11
695.3658965207391702
 21
-33.4685123918370522
 31
0.0000000000000074
210
0.0
220
1.0
230
-0.0000000000000002
  0
LINE
  5
523C
  8
0
  6
VERDECKT
 62
     1
 10
687.3658965207392839
 20
-36.4685123918370522
 30
0.0000000000000081
 11
694.5393098819040461
 21
-36.4685123918370522
 31
0.0000000000000081
210
0.0
220
1.0
230
-0.0000000000000002
  0
LINE
  5
523D
  8
0
  6
VERDECKT
 62
     1
 10
694.5393098819040461
 20
-36.4685123918370522
 30
0.0000000000000081
 11
695.3658965207391702
 21
-36.4685123918370522
 31
0.0000000000000081
210
0.0
220
1.0
230
-0.0000000000000002
  0
LINE
  5
523E
  8
0
  6
VERDECKT
 62
     1
 10
689.3658965207395113
 20
-38.4685123918370522
 30
0.0000000000000085
 11
692.9526032013214945
 21
-38.4685123918370522
 31
0.0000000000000085
210
0.0
220
1.0
230
-0.0000000000000002
  0
LINE
  5
523F
  8
0
  6
VERDECKT
 62
     1
 10
692.9526032013216081
 20
-38.4685123918370522
 30
0.0000000000000085
 11
693.3658965207390565
 21
-38.4685123918370522
 31
0.0000000000000085
210
0.0
220
1.0
230
-0.0000000000000002
  0
LINE
  5
5240
  8
0
  6
VERDECKT
 62
     1
 10
688.3658965207393976
 20
-37.4685123918370522
 30
0.0000000000000083
 11
693.7459565416128271
 21
-37.4685123918370522
 31
0.0000000000000083
210
0.0
220
1.0
230
-0.0000000000000002
  0
LINE
  5
5241
  8
0
  6
VERDECKT
 62
     1
 10
693.7459565416128271
 20
-37.4685123918370522
 30
0.0000000000000083
 11
694.3658965207390565
 21
-37.4685123918370522
 31
0.0000000000000083
210
0.0
220
1.0
230
-0.0000000000000002
  0
LINE
  5
5242
  8
0
  6
VERDECKT
 62
     1
 10
688.3658965207393976
 20
-35.4685123918370522
 30
0.0000000000000079
 11
693.7459565416128271
 21
-35.4685123918370522
 31
0.0000000000000079
210
0.0
220
1.0
230
-0.0000000000000002
  0
LINE
  5
5243
  8
0
  6
VERDECKT
 62
     1
 10
693.7459565416128271
 20
-35.4685123918370522
 30
0.0000000000000079
 11
694.3658965207390565
 21
-35.4685123918370522
 31
0.0000000000000079
210
0.0
220
1.0
230
-0.0000000000000002
  0
LINE
  5
5244
  8
0
  6
VERDECKT
 62
     1
 10
689.3658965207395113
 20
-34.468512391837038
 30
0.0000000000000077
 11
692.9526032013214945
 21
-34.468512391837038
 31
0.0000000000000077
210
0.0
220
1.0
230
-0.0000000000000002
  0
LINE
  5
5245
  8
0
  6
VERDECKT
 62
     1
 10
692.9526032013216081
 20
-34.468512391837038
 30
0.0000000000000077
 11
693.3658965207390565
 21
-34.468512391837038
 31
0.0000000000000077
210
0.0
220
1.0
230
-0.0000000000000002
  0
LINE
  5
5246
  8
0
  6
VERDECKT
 62
     1
 10
689.3658965207395113
 20
-32.4685123918370522
 30
0.0000000000000072
 11
692.9526032013214945
 21
-32.4685123918370522
 31
0.0000000000000072
210
0.0
220
1.0
230
-0.0000000000000002
  0
LINE
  5
5247
  8
0
  6
VERDECKT
 62
     1
 10
692.9526032013216081
 20
-32.4685123918370522
 30
0.0000000000000072
 11
693.3658965207390565
 21
-32.4685123918370522
 31
0.0000000000000072
210
0.0
220
1.0
230
-0.0000000000000002
  0
LINE
  5
5248
  8
0
  6
VERDECKT
 62
     1
 10
688.3658965207393976
 20
-31.4685123918370486
 30
0.000000000000007
 11
693.7459565416128271
 21
-31.4685123918370486
 31
0.000000000000007
210
0.0
220
1.0
230
-0.0000000000000002
  0
LINE
  5
5249
  8
0
  6
VERDECKT
 62
     1
 10
693.7459565416128271
 20
-31.4685123918370486
 30
0.000000000000007
 11
694.3658965207390565
 21
-31.4685123918370486
 31
0.000000000000007
210
0.0
220
1.0
230
-0.0000000000000002
  0
LINE
  5
524A
  8
0
  6
VERDECKT
 62
     1
 10
689.3658965207395113
 20
-30.4685123918370486
 30
0.0000000000000068
 11
692.9526032013214945
 21
-30.4685123918370486
 31
0.0000000000000068
210
0.0
220
1.0
230
-0.0000000000000002
  0
LINE
  5
524B
  8
0
  6
VERDECKT
 62
     1
 10
692.9526032013216081
 20
-30.4685123918370486
 30
0.0000000000000068
 11
693.3658965207390565
 21
-30.4685123918370486
 31
0.0000000000000068
210
0.0
220
1.0
230
-0.0000000000000002
  0
LINE
  5
524C
  8
0
  6
VERDECKT
 62
     1
 10
688.3658965207393976
 20
-29.4685123918370415
 30
0.0000000000000065
 11
693.7459565416128271
 21
-29.4685123918370415
 31
0.0000000000000065
210
0.0
220
1.0
230
-0.0000000000000002
  0
LINE
  5
524D
  8
0
  6
VERDECKT
 62
     1
 10
693.7459565416128271
 20
-29.4685123918370415
 30
0.0000000000000065
 11
694.3658965207390565
 21
-29.4685123918370415
 31
0.0000000000000065
210
0.0
220
1.0
230
-0.0000000000000002
  0
LINE
  5
524E
  8
0
  6
VERDECKT
 62
     1
 10
689.3658965207395113
 20
-28.4685123918370486
 30
0.0000000000000063
 11
692.9526032013214945
 21
-28.4685123918370486
 31
0.0000000000000063
210
0.0
220
1.0
230
-0.0000000000000002
  0
LINE
  5
524F
  8
0
  6
VERDECKT
 62
     1
 10
692.9526032013216081
 20
-28.4685123918370486
 30
0.0000000000000063
 11
693.3658965207390565
 21
-28.4685123918370486
 31
0.0000000000000063
210
0.0
220
1.0
230
-0.0000000000000002
  0
LINE
  5
5250
  8
0
  6
VERDECKT
 62
     1
 10
688.3658965207393976
 20
-27.4685123918370486
 30
0.0000000000000061
 11
693.7459565416128271
 21
-27.4685123918370486
 31
0.0000000000000061
210
0.0
220
1.0
230
-0.0000000000000002
  0
LINE
  5
5251
  8
0
  6
VERDECKT
 62
     1
 10
693.7459565416128271
 20
-27.4685123918370486
 30
0.0000000000000061
 11
694.3658965207390565
 21
-27.4685123918370486
 31
0.0000000000000061
210
0.0
220
1.0
230
-0.0000000000000002
  0
LINE
  5
5252
  8
0
  6
VERDECKT
 62
     1
 10
689.3658965207395113
 20
-26.4685123918370486
 30
0.0000000000000059
 11
692.9526032013214945
 21
-26.4685123918370486
 31
0.0000000000000059
210
0.0
220
1.0
230
-0.0000000000000002
  0
LINE
  5
5253
  8
0
  6
VERDECKT
 62
     1
 10
692.9526032013216081
 20
-26.4685123918370486
 30
0.0000000000000059
 11
693.3658965207390565
 21
-26.4685123918370486
 31
0.0000000000000059
210
0.0
220
1.0
230
-0.0000000000000002
  0
LINE
  5
5254
  8
0
  6
VERDECKT
 62
     1
 10
689.3658965207395113
 20
-24.4685123918370415
 30
0.0000000000000054
 11
692.9526032013214945
 21
-24.4685123918370415
 31
0.0000000000000054
210
0.0
220
1.0
230
-0.0000000000000002
  0
LINE
  5
5255
  8
0
  6
VERDECKT
 62
     1
 10
692.9526032013216081
 20
-24.4685123918370415
 30
0.0000000000000054
 11
693.3658965207390565
 21
-24.4685123918370415
 31
0.0000000000000054
210
0.0
220
1.0
230
-0.0000000000000002
  0
LINE
  5
5256
  8
0
  6
VERDECKT
 62
     1
 10
688.3658965207393976
 20
-23.4685123918370415
 30
0.0000000000000052
 11
693.7459565416128271
 21
-23.4685123918370415
 31
0.0000000000000052
210
0.0
220
1.0
230
-0.0000000000000002
  0
LINE
  5
5257
  8
0
  6
VERDECKT
 62
     1
 10
693.7459565416128271
 20
-23.4685123918370415
 30
0.0000000000000052
 11
694.3658965207390565
 21
-23.4685123918370415
 31
0.0000000000000052
210
0.0
220
1.0
230
-0.0000000000000002
  0
LINE
  5
5258
  8
0
  6
VERDECKT
 62
     1
 10
688.3658965207393976
 20
-21.4685123918370415
 30
0.0000000000000048
 11
693.7459565416128271
 21
-21.4685123918370415
 31
0.0000000000000048
210
0.0
220
1.0
230
-0.0000000000000002
  0
LINE
  5
5259
  8
0
  6
VERDECKT
 62
     1
 10
693.7459565416128271
 20
-21.4685123918370415
 30
0.0000000000000048
 11
694.3658965207390565
 21
-21.4685123918370415
 31
0.0000000000000048
210
0.0
220
1.0
230
-0.0000000000000002
  0
LINE
  5
525A
  8
0
  6
VERDECKT
 62
     1
 10
689.3658965207395113
 20
-20.4685123918369314
 30
0.0000000000000045
 11
692.9526032013214945
 21
-20.4685123918369314
 31
0.0000000000000045
210
0.0
220
1.0
230
-0.0000000000000002
  0
LINE
  5
525B
  8
0
  6
VERDECKT
 62
     1
 10
692.9526032013216081
 20
-20.4685123918369314
 30
0.0000000000000045
 11
693.3658965207390565
 21
-20.4685123918369314
 31
0.0000000000000045
210
0.0
220
1.0
230
-0.0000000000000002
  0
LINE
  5
525C
  8
0
  6
VERDECKT
 62
     1
 10
695.3658965207392839
 20
-19.4685123918370415
 30
0.0000000000000043
 11
695.3658965207392839
 21
-22.4685123918370415
 31
0.000000000000005
210
0.0
220
1.0
230
-0.0000000000000002
  0
LINE
  5
525D
  8
0
  6
VERDECKT
 62
     1
 10
687.3658965207391702
 20
-19.4685123918370415
 30
0.0000000000000043
 11
687.3658965207391702
 21
-22.4685123918370415
 31
0.000000000000005
210
0.0
220
1.0
230
-0.0000000000000002
  0
LINE
  5
525E
  8
0
  6
VERDECKT
 62
     1
 10
694.8658965207391702
 20
-22.4685123918370415
 30
0.000000000000005
 11
694.8658965207391702
 21
-25.4685123918370486
 31
0.0000000000000057
210
0.0
220
1.0
230
-0.0000000000000002
  0
LINE
  5
525F
  8
0
  6
VERDECKT
 62
     1
 10
687.8658965207392839
 20
-22.4685123918370415
 30
0.000000000000005
 11
687.8658965207392839
 21
-25.4685123918370486
 31
0.0000000000000057
210
0.0
220
1.0
230
-0.0000000000000002
  0
LINE
  5
5260
  8
0
  6
VERDECKT
 62
     1
 10
695.3658965207392839
 20
-25.4685123918370486
 30
0.0000000000000057
 11
695.3658965207392839
 21
-33.4685123918370522
 31
0.0000000000000074
210
0.0
220
1.0
230
-0.0000000000000002
  0
LINE
  5
5261
  8
0
  6
VERDECKT
 62
     1
 10
687.3658965207391702
 20
-25.4685123918370486
 30
0.0000000000000057
 11
687.3658965207391702
 21
-33.4685123918370522
 31
0.0000000000000074
210
0.0
220
1.0
230
-0.0000000000000002
  0
LINE
  5
5262
  8
0
  6
VERDECKT
 62
     1
 10
694.8658965207391702
 20
-33.4685123918370522
 30
0.0000000000000074
 11
694.8658965207391702
 21
-36.4685123918370522
 31
0.0000000000000081
210
0.0
220
1.0
230
-0.0000000000000002
  0
LINE
  5
5263
  8
0
  6
VERDECKT
 62
     1
 10
687.8658965207392839
 20
-33.4685123918370522
 30
0.0000000000000074
 11
687.8658965207392839
 21
-36.4685123918370522
 31
0.0000000000000081
210
0.0
220
1.0
230
-0.0000000000000002
  0
LINE
  5
5264
  8
0
  6
VERDECKT
 62
     1
 10
695.3658965207391702
 20
-36.4685123918370522
 30
0.0000000000000081
 11
695.3658965207391702
 21
-39.4685123918364766
 31
0.0000000000000088
210
0.0
220
1.0
230
-0.0000000000000002
  0
LINE
  5
5265
  8
0
  6
VERDECKT
 62
     1
 10
687.3658965207392839
 20
-36.4685123918370522
 30
0.0000000000000081
 11
687.3658965207392839
 21
-39.4685123918364766
 31
0.0000000000000088
210
0.0
220
1.0
230
-0.0000000000000002
  0
LINE
  5
5266
  8
0
  6
VERDECKT
 62
     1
 10
693.3658965207390565
 20
-38.4685123918370522
 30
0.0000000000000085
 11
694.3658965207390565
 21
-39.4685123918367111
 31
0.0000000000000088
210
0.0
220
1.0
230
-0.0000000000000002
  0
LINE
  5
5267
  8
0
  6
VERDECKT
 62
     1
 10
689.3658965207393976
 20
-38.4685123918370522
 30
0.0000000000000085
 11
688.3658965207393976
 21
-39.4685123918367111
 31
0.0000000000000088
210
0.0
220
1.0
230
-0.0000000000000002
  0
LINE
  5
5268
  8
0
  6
VERDECKT
 62
     1
 10
689.3658965207393976
 20
-38.4685123918370522
 30
0.0000000000000085
 11
688.3658965207393976
 21
-37.4685123918370522
 31
0.0000000000000083
210
0.0
220
1.0
230
-0.0000000000000002
  0
LINE
  5
5269
  8
0
  6
VERDECKT
 62
     1
 10
693.3658965207390565
 20
-38.4685123918370522
 30
0.0000000000000085
 11
694.3658965207390565
 21
-37.4685123918370522
 31
0.0000000000000083
210
0.0
220
1.0
230
-0.0000000000000002
  0
LINE
  5
526A
  8
0
  6
VERDECKT
 62
     1
 10
693.3658965207390565
 20
-36.4685123918370522
 30
0.0000000000000081
 11
694.3658965207390565
 21
-37.4685123918370522
 31
0.0000000000000083
210
0.0
220
1.0
230
-0.0000000000000002
  0
LINE
  5
526B
  8
0
  6
VERDECKT
 62
     1
 10
689.3658965207393976
 20
-36.4685123918370522
 30
0.0000000000000081
 11
688.3658965207393976
 21
-37.4685123918370522
 31
0.0000000000000083
210
0.0
220
1.0
230
-0.0000000000000002
  0
LINE
  5
526C
  8
0
  6
VERDECKT
 62
     1
 10
689.3658965207393976
 20
-36.4685123918370522
 30
0.0000000000000081
 11
688.3658965207393976
 21
-35.4685123918370522
 31
0.0000000000000079
210
0.0
220
1.0
230
-0.0000000000000002
  0
LINE
  5
526D
  8
0
  6
VERDECKT
 62
     1
 10
693.3658965207390565
 20
-36.4685123918370522
 30
0.0000000000000081
 11
694.3658965207390565
 21
-35.4685123918370522
 31
0.0000000000000079
210
0.0
220
1.0
230
-0.0000000000000002
  0
LINE
  5
526E
  8
0
  6
VERDECKT
 62
     1
 10
693.3658965207390565
 20
-34.468512391837038
 30
0.0000000000000077
 11
694.3658965207390565
 21
-35.4685123918370522
 31
0.0000000000000079
210
0.0
220
1.0
230
-0.0000000000000002
  0
LINE
  5
526F
  8
0
  6
VERDECKT
 62
     1
 10
689.3658965207393976
 20
-34.468512391837038
 30
0.0000000000000077
 11
688.3658965207393976
 21
-35.4685123918370522
 31
0.0000000000000079
210
0.0
220
1.0
230
-0.0000000000000002
  0
LINE
  5
5270
  8
0
  6
VERDECKT
 62
     1
 10
689.3658965207393976
 20
-34.468512391837038
 30
0.0000000000000077
 11
688.3658965207393976
 21
-33.4685123918370522
 31
0.0000000000000074
210
0.0
220
1.0
230
-0.0000000000000002
  0
LINE
  5
5271
  8
0
  6
VERDECKT
 62
     1
 10
693.3658965207390565
 20
-34.468512391837038
 30
0.0000000000000077
 11
694.3658965207390565
 21
-33.4685123918370522
 31
0.0000000000000074
210
0.0
220
1.0
230
-0.0000000000000002
  0
LINE
  5
5272
  8
0
  6
VERDECKT
 62
     1
 10
693.3658965207390565
 20
-32.4685123918370522
 30
0.0000000000000072
 11
694.3658965207390565
 21
-33.4685123918370522
 31
0.0000000000000074
210
0.0
220
1.0
230
-0.0000000000000002
  0
LINE
  5
5273
  8
0
  6
VERDECKT
 62
     1
 10
689.3658965207393976
 20
-32.4685123918370522
 30
0.0000000000000072
 11
688.3658965207393976
 21
-33.4685123918370522
 31
0.0000000000000074
210
0.0
220
1.0
230
-0.0000000000000002
  0
LINE
  5
5274
  8
0
  6
VERDECKT
 62
     1
 10
689.3658965207393976
 20
-32.4685123918370522
 30
0.0000000000000072
 11
688.3658965207393976
 21
-31.4685123918370486
 31
0.000000000000007
210
0.0
220
1.0
230
-0.0000000000000002
  0
LINE
  5
5275
  8
0
  6
VERDECKT
 62
     1
 10
693.3658965207390565
 20
-32.4685123918370522
 30
0.0000000000000072
 11
694.3658965207390565
 21
-31.4685123918370486
 31
0.000000000000007
210
0.0
220
1.0
230
-0.0000000000000002
  0
LINE
  5
5276
  8
0
  6
VERDECKT
 62
     1
 10
693.3658965207390565
 20
-30.4685123918370486
 30
0.0000000000000068
 11
694.3658965207390565
 21
-31.4685123918370486
 31
0.000000000000007
210
0.0
220
1.0
230
-0.0000000000000002
  0
LINE
  5
5277
  8
0
  6
VERDECKT
 62
     1
 10
689.3658965207393976
 20
-30.4685123918370486
 30
0.0000000000000068
 11
688.3658965207393976
 21
-31.4685123918370486
 31
0.000000000000007
210
0.0
220
1.0
230
-0.0000000000000002
  0
LINE
  5
5278
  8
0
  6
VERDECKT
 62
     1
 10
689.3658965207393976
 20
-30.4685123918370486
 30
0.0000000000000068
 11
688.3658965207393976
 21
-29.4685123918370415
 31
0.0000000000000065
210
0.0
220
1.0
230
-0.0000000000000002
  0
LINE
  5
5279
  8
0
  6
VERDECKT
 62
     1
 10
693.3658965207390565
 20
-30.4685123918370486
 30
0.0000000000000068
 11
694.3658965207390565
 21
-29.4685123918370415
 31
0.0000000000000065
210
0.0
220
1.0
230
-0.0000000000000002
  0
LINE
  5
527A
  8
0
  6
VERDECKT
 62
     1
 10
693.3658965207390565
 20
-28.4685123918370486
 30
0.0000000000000063
 11
694.3658965207390565
 21
-29.4685123918370415
 31
0.0000000000000065
210
0.0
220
1.0
230
-0.0000000000000002
  0
LINE
  5
527B
  8
0
  6
VERDECKT
 62
     1
 10
689.3658965207393976
 20
-28.4685123918370486
 30
0.0000000000000063
 11
688.3658965207393976
 21
-29.4685123918370415
 31
0.0000000000000065
210
0.0
220
1.0
230
-0.0000000000000002
  0
LINE
  5
527C
  8
0
  6
VERDECKT
 62
     1
 10
689.3658965207393976
 20
-28.4685123918370486
 30
0.0000000000000063
 11
688.3658965207393976
 21
-27.4685123918370486
 31
0.0000000000000061
210
0.0
220
1.0
230
-0.0000000000000002
  0
LINE
  5
527D
  8
0
  6
VERDECKT
 62
     1
 10
693.3658965207390565
 20
-28.4685123918370486
 30
0.0000000000000063
 11
694.3658965207390565
 21
-27.4685123918370486
 31
0.0000000000000061
210
0.0
220
1.0
230
-0.0000000000000002
  0
LINE
  5
527E
  8
0
  6
VERDECKT
 62
     1
 10
693.3658965207390565
 20
-26.4685123918370486
 30
0.0000000000000059
 11
694.3658965207390565
 21
-27.4685123918370486
 31
0.0000000000000061
210
0.0
220
1.0
230
-0.0000000000000002
  0
LINE
  5
527F
  8
0
  6
VERDECKT
 62
     1
 10
689.3658965207393976
 20
-26.4685123918370486
 30
0.0000000000000059
 11
688.3658965207393976
 21
-27.4685123918370486
 31
0.0000000000000061
210
0.0
220
1.0
230
-0.0000000000000002
  0
LINE
  5
5280
  8
0
  6
VERDECKT
 62
     1
 10
689.3658965207393976
 20
-26.4685123918370486
 30
0.0000000000000059
 11
688.3658965207393976
 21
-25.4685123918370486
 31
0.0000000000000057
210
0.0
220
1.0
230
-0.0000000000000002
  0
LINE
  5
5281
  8
0
  6
VERDECKT
 62
     1
 10
693.3658965207390565
 20
-26.4685123918370486
 30
0.0000000000000059
 11
694.3658965207390565
 21
-25.4685123918370486
 31
0.0000000000000057
210
0.0
220
1.0
230
-0.0000000000000002
  0
LINE
  5
5282
  8
0
  6
VERDECKT
 62
     1
 10
693.3658965207390565
 20
-24.4685123918370415
 30
0.0000000000000054
 11
694.3658965207390565
 21
-25.4685123918370486
 31
0.0000000000000057
210
0.0
220
1.0
230
-0.0000000000000002
  0
LINE
  5
5283
  8
0
  6
VERDECKT
 62
     1
 10
689.3658965207393976
 20
-24.4685123918370415
 30
0.0000000000000054
 11
688.3658965207393976
 21
-25.4685123918370486
 31
0.0000000000000057
210
0.0
220
1.0
230
-0.0000000000000002
  0
LINE
  5
5284
  8
0
  6
VERDECKT
 62
     1
 10
689.3658965207393976
 20
-24.4685123918370415
 30
0.0000000000000054
 11
688.3658965207393976
 21
-23.4685123918370415
 31
0.0000000000000052
210
0.0
220
1.0
230
-0.0000000000000002
  0
LINE
  5
5285
  8
0
  6
VERDECKT
 62
     1
 10
693.3658965207390565
 20
-24.4685123918370415
 30
0.0000000000000054
 11
694.3658965207390565
 21
-23.4685123918370415
 31
0.0000000000000052
210
0.0
220
1.0
230
-0.0000000000000002
  0
LINE
  5
5286
  8
0
  6
VERDECKT
 62
     1
 10
693.3658965207390565
 20
-22.4685123918369314
 30
0.000000000000005
 11
694.3658965207390565
 21
-23.4685123918370415
 31
0.0000000000000052
210
0.0
220
1.0
230
-0.0000000000000002
  0
LINE
  5
5287
  8
0
  6
VERDECKT
 62
     1
 10
689.3658965207393976
 20
-22.4685123918369314
 30
0.000000000000005
 11
688.3658965207393976
 21
-23.4685123918370415
 31
0.0000000000000052
210
0.0
220
1.0
230
-0.0000000000000002
  0
LINE
  5
5288
  8
0
  6
VERDECKT
 62
     1
 10
689.3658965207393976
 20
-22.4685123918369314
 30
0.000000000000005
 11
688.3658965207393976
 21
-21.4685123918370415
 31
0.0000000000000048
210
0.0
220
1.0
230
-0.0000000000000002
  0
LINE
  5
5289
  8
0
  6
VERDECKT
 62
     1
 10
693.3658965207390565
 20
-22.4685123918369314
 30
0.000000000000005
 11
694.3658965207390565
 21
-21.4685123918370415
 31
0.0000000000000048
210
0.0
220
1.0
230
-0.0000000000000002
  0
LINE
  5
528A
  8
0
  6
VERDECKT
 62
     1
 10
693.3658965207390565
 20
-20.4685123918369314
 30
0.0000000000000045
 11
694.3658965207390565
 21
-21.4685123918370415
 31
0.0000000000000048
210
0.0
220
1.0
230
-0.0000000000000002
  0
LINE
  5
528B
  8
0
  6
VERDECKT
 62
     1
 10
689.3658965207393976
 20
-20.4685123918369314
 30
0.0000000000000045
 11
688.3658965207393976
 21
-21.4685123918370415
 31
0.0000000000000048
210
0.0
220
1.0
230
-0.0000000000000002
  0
LINE
  5
528C
  8
0
  6
VERDECKT
 62
     1
 10
689.3658965207393976
 20
-20.4685123918369314
 30
0.0000000000000045
 11
688.3658965207393976
 21
-19.4685123918365903
 31
0.0000000000000043
210
0.0
220
1.0
230
-0.0000000000000002
  0
LINE
  5
528D
  8
0
  6
VERDECKT
 62
     1
 10
693.3658965207390565
 20
-20.4685123918369314
 30
0.0000000000000045
 11
694.3658965207390565
 21
-19.4685123918365903
 31
0.0000000000000043
210
0.0
220
1.0
230
-0.0000000000000002
  0
LINE
  5
528E
  8
0
  6
VERDECKT
 62
     1
 10
698.4078144206428078
 20
-33.4685123918372724
 30
0.0000000000000074
 11
695.3658965207391702
 21
-33.4685123918372724
 31
0.0000000000000074
210
0.0
220
1.0
230
-0.0000000000000002
  0
LINE
  5
528F
  8
0
  6
VERDECKT
 62
     1
 10
687.3658965207392839
 20
-33.4685123918372724
 30
0.0000000000000074
 11
679.7801645229894802
 21
-33.4685123918372724
 31
0.0000000000000074
210
0.0
220
1.0
230
-0.0000000000000002
  0
LINE
  5
5290
  8
0
  6
VERDECKT
 62
     1
 10
820.3036944553819012
 20
15.5314876081630509
 30
-0.0000000000000034
 11
684.4280985860962119
 21
15.5314876081630509
 31
-0.0000000000000034
210
0.0
220
1.0
230
-0.0000000000000002
  0
LINE
  5
5291
  8
0
  6
VERDECKT
 62
     1
 10
695.3658965207391702
 20
-19.4685123918370415
 30
0.0000000000000043
 11
695.3658965207391702
 21
-39.4685123918375282
 31
0.0000000000000088
210
0.0
220
1.0
230
-0.0000000000000002
  0
LINE
  5
5292
  8
0
  6
VERDECKT
 62
     1
 10
687.3658965207391702
 20
-19.4685123918370415
 30
0.0000000000000043
 11
687.3658965207391702
 21
-39.4685123918375282
 31
0.0000000000000088
210
0.0
220
1.0
230
-0.0000000000000002
  0
LINE
  5
5293
  8
0
  6
VERDECKT
 62
     1
 10
878.3658965207391702
 20
-19.4685123918370699
 30
0.0000000000000043
 11
878.3658965207391702
 21
-39.4685123918375282
 31
0.0000000000000088
210
0.0
220
1.0
230
-0.0000000000000002
  0
LINE
  5
5294
  8
0
  6
VERDECKT
 62
     1
 10
870.3658965207391702
 20
-19.4685123918370699
 30
0.0000000000000043
 11
870.3658965207391702
 21
-39.4685123918375282
 31
0.0000000000000088
210
0.0
220
1.0
230
-0.0000000000000002
  0
LINE
  5
5295
  8
0
  6
VERDECKT
 62
     1
 10
820.8033898688911449
 20
15.0489373565143101
 30
-0.0000000000000033
 11
822.4639544956685313
 21
-32.5034118885396524
 31
0.0000000000000072
210
0.0
220
1.0
230
-0.0000000000000002
  0
LINE
  5
5296
  8
0
  6
VERDECKT
 62
     1
 10
683.9284031725868545
 20
15.0489373565143794
 30
-0.0000000000000033
 11
682.2678385458093544
 21
-32.5034118885395031
 31
0.0000000000000072
210
0.0
220
1.0
230
-0.0000000000000002
  0
POLYLINE
  8
0
  5
54C5
  62
1
  66
     1
 10
0.000000
 20
0.000000
 30
0.000000
  70
     8
  0
VERTEX
  8
0
  5
54C6
 10
679.780
 20
-33.4685
 30
7.40000e-15
  70
    32
  0
VERTEX
  8
0
  5
54C7
 10
679.792
 20
-33.4685
 30
7.40000e-15
  70
    32
  0
VERTEX
  8
0
  5
54C8
 10
679.803
 20
-33.4684
 30
7.40000e-15
  70
    32
  0
VERTEX
  8
0
  5
54C9
 10
679.814
 20
-33.4684
 30
7.40000e-15
  70
    32
  0
VERTEX
  8
0
  5
54CA
 10
679.826
 20
-33.4682
 30
7.40000e-15
  70
    32
  0
VERTEX
  8
0
  5
54CB
 10
679.838
 20
-33.4681
 30
7.40000e-15
  70
    32
  0
VERTEX
  8
0
  5
54CC
 10
679.849
 20
-33.4679
 30
7.40000e-15
  70
    32
  0
VERTEX
  8
0
  5
54CD
 10
679.861
 20
-33.4677
 30
7.40000e-15
  70
    32
  0
VERTEX
  8
0
  5
54CE
 10
679.873
 20
-33.4674
 30
7.40000e-15
  70
    32
  0
VERTEX
  8
0
  5
54CF
 10
679.884
 20
-33.4671
 30
7.40000e-15
  70
    32
  0
VERTEX
  8
0
  5
54D0
 10
679.896
 20
-33.4668
 30
7.40000e-15
  70
    32
  0
VERTEX
  8
0
  5
54D1
 10
679.908
 20
-33.4664
 30
7.40000e-15
  70
    32
  0
VERTEX
  8
0
  5
54D2
 10
679.920
 20
-33.4660
 30
7.40000e-15
  70
    32
  0
VERTEX
  8
0
  5
54D3
 10
679.932
 20
-33.4655
 30
7.40000e-15
  70
    32
  0
VERTEX
  8
0
  5
54D4
 10
679.944
 20
-33.4650
 30
7.40000e-15
  70
    32
  0
VERTEX
  8
0
  5
54D5
 10
679.956
 20
-33.4645
 30
7.40000e-15
  70
    32
  0
VERTEX
  8
0
  5
54D6
 10
679.968
 20
-33.4639
 30
7.40000e-15
  70
    32
  0
VERTEX
  8
0
  5
54D7
 10
679.981
 20
-33.4633
 30
7.40000e-15
  70
    32
  0
VERTEX
  8
0
  5
54D8
 10
679.993
 20
-33.4627
 30
7.40000e-15
  70
    32
  0
VERTEX
  8
0
  5
54D9
 10
680.005
 20
-33.4620
 30
7.40000e-15
  70
    32
  0
VERTEX
  8
0
  5
54DA
 10
680.017
 20
-33.4612
 30
7.40000e-15
  70
    32
  0
VERTEX
  8
0
  5
54DB
 10
680.030
 20
-33.4605
 30
7.40000e-15
  70
    32
  0
VERTEX
  8
0
  5
54DC
 10
680.042
 20
-33.4596
 30
7.40000e-15
  70
    32
  0
VERTEX
  8
0
  5
54DD
 10
680.055
 20
-33.4588
 30
7.40000e-15
  70
    32
  0
VERTEX
  8
0
  5
54DE
 10
680.067
 20
-33.4579
 30
7.40000e-15
  70
    32
  0
VERTEX
  8
0
  5
54DF
 10
680.080
 20
-33.4569
 30
7.40000e-15
  70
    32
  0
VERTEX
  8
0
  5
54E0
 10
680.092
 20
-33.4559
 30
7.40000e-15
  70
    32
  0
VERTEX
  8
0
  5
54E1
 10
680.105
 20
-33.4549
 30
7.40000e-15
  70
    32
  0
VERTEX
  8
0
  5
54E2
 10
680.118
 20
-33.4538
 30
7.40000e-15
  70
    32
  0
VERTEX
  8
0
  5
54E3
 10
680.130
 20
-33.4527
 30
7.40000e-15
  70
    32
  0
VERTEX
  8
0
  5
54E4
 10
680.143
 20
-33.4515
 30
7.40000e-15
  70
    32
  0
VERTEX
  8
0
  5
54E5
 10
680.156
 20
-33.4503
 30
7.40000e-15
  70
    32
  0
VERTEX
  8
0
  5
54E6
 10
680.169
 20
-33.4490
 30
7.40000e-15
  70
    32
  0
VERTEX
  8
0
  5
54E7
 10
680.182
 20
-33.4477
 30
7.40000e-15
  70
    32
  0
VERTEX
  8
0
  5
54E8
 10
680.195
 20
-33.4463
 30
7.40000e-15
  70
    32
  0
VERTEX
  8
0
  5
54E9
 10
680.208
 20
-33.4449
 30
7.40000e-15
  70
    32
  0
VERTEX
  8
0
  5
54EA
 10
680.221
 20
-33.4434
 30
7.40000e-15
  70
    32
  0
VERTEX
  8
0
  5
54EB
 10
680.234
 20
-33.4419
 30
7.40000e-15
  70
    32
  0
VERTEX
  8
0
  5
54EC
 10
680.247
 20
-33.4403
 30
7.40000e-15
  70
    32
  0
VERTEX
  8
0
  5
54ED
 10
680.260
 20
-33.4387
 30
7.40000e-15
  70
    32
  0
VERTEX
  8
0
  5
54EE
 10
680.273
 20
-33.4370
 30
7.40000e-15
  70
    32
  0
VERTEX
  8
0
  5
54EF
 10
680.286
 20
-33.4353
 30
7.40000e-15
  70
    32
  0
VERTEX
  8
0
  5
54F0
 10
680.300
 20
-33.4336
 30
7.40000e-15
  70
    32
  0
VERTEX
  8
0
  5
54F1
 10
680.313
 20
-33.4317
 30
7.40000e-15
  70
    32
  0
VERTEX
  8
0
  5
54F2
 10
680.326
 20
-33.4299
 30
7.40000e-15
  70
    32
  0
VERTEX
  8
0
  5
54F3
 10
680.340
 20
-33.4279
 30
7.40000e-15
  70
    32
  0
VERTEX
  8
0
  5
54F4
 10
680.353
 20
-33.4260
 30
7.40000e-15
  70
    32
  0
VERTEX
  8
0
  5
54F5
 10
680.367
 20
-33.4239
 30
7.40000e-15
  70
    32
  0
VERTEX
  8
0
  5
54F6
 10
680.380
 20
-33.4218
 30
7.40000e-15
  70
    32
  0
VERTEX
  8
0
  5
54F7
 10
680.394
 20
-33.4197
 30
7.40000e-15
  70
    32
  0
VERTEX
  8
0
  5
54F8
 10
680.407
 20
-33.4175
 30
7.40000e-15
  70
    32
  0
VERTEX
  8
0
  5
54F9
 10
680.421
 20
-33.4152
 30
7.40000e-15
  70
    32
  0
VERTEX
  8
0
  5
54FA
 10
680.435
 20
-33.4129
 30
7.40000e-15
  70
    32
  0
VERTEX
  8
0
  5
54FB
 10
680.448
 20
-33.4105
 30
7.40000e-15
  70
    32
  0
VERTEX
  8
0
  5
54FC
 10
680.462
 20
-33.4081
 30
7.40000e-15
  70
    32
  0
VERTEX
  8
0
  5
54FD
 10
680.476
 20
-33.4056
 30
7.40000e-15
  70
    32
  0
VERTEX
  8
0
  5
54FE
 10
680.490
 20
-33.4031
 30
7.40000e-15
  70
    32
  0
VERTEX
  8
0
  5
54FF
 10
680.504
 20
-33.4005
 30
7.40000e-15
  70
    32
  0
VERTEX
  8
0
  5
5500
 10
680.517
 20
-33.3978
 30
7.40000e-15
  70
    32
  0
VERTEX
  8
0
  5
5501
 10
680.531
 20
-33.3951
 30
7.40000e-15
  70
    32
  0
VERTEX
  8
0
  5
5502
 10
680.545
 20
-33.3924
 30
7.40000e-15
  70
    32
  0
VERTEX
  8
0
  5
5503
 10
680.559
 20
-33.3895
 30
7.40000e-15
  70
    32
  0
VERTEX
  8
0
  5
5504
 10
680.573
 20
-33.3866
 30
7.40000e-15
  70
    32
  0
VERTEX
  8
0
  5
5505
 10
680.587
 20
-33.3837
 30
7.40000e-15
  70
    32
  0
VERTEX
  8
0
  5
5506
 10
680.601
 20
-33.3806
 30
7.40000e-15
  70
    32
  0
VERTEX
  8
0
  5
5507
 10
680.616
 20
-33.3776
 30
7.40000e-15
  70
    32
  0
VERTEX
  8
0
  5
5508
 10
680.630
 20
-33.3744
 30
7.40000e-15
  70
    32
  0
VERTEX
  8
0
  5
5509
 10
680.644
 20
-33.3712
 30
7.40000e-15
  70
    32
  0
VERTEX
  8
0
  5
550A
 10
680.658
 20
-33.3679
 30
7.40000e-15
  70
    32
  0
VERTEX
  8
0
  5
550B
 10
680.672
 20
-33.3646
 30
7.40000e-15
  70
    32
  0
VERTEX
  8
0
  5
550C
 10
680.687
 20
-33.3612
 30
7.40000e-15
  70
    32
  0
VERTEX
  8
0
  5
550D
 10
680.701
 20
-33.3577
 30
7.40000e-15
  70
    32
  0
VERTEX
  8
0
  5
550E
 10
680.715
 20
-33.3542
 30
7.40000e-15
  70
    32
  0
VERTEX
  8
0
  5
550F
 10
680.730
 20
-33.3506
 30
7.40000e-15
  70
    32
  0
VERTEX
  8
0
  5
5510
 10
680.744
 20
-33.3470
 30
7.40000e-15
  70
    32
  0
VERTEX
  8
0
  5
5511
 10
680.759
 20
-33.3432
 30
7.40000e-15
  70
    32
  0
VERTEX
  8
0
  5
5512
 10
680.773
 20
-33.3394
 30
7.40000e-15
  70
    32
  0
VERTEX
  8
0
  5
5513
 10
680.788
 20
-33.3356
 30
7.40000e-15
  70
    32
  0
VERTEX
  8
0
  5
5514
 10
680.802
 20
-33.3317
 30
7.40000e-15
  70
    32
  0
VERTEX
  8
0
  5
5515
 10
680.817
 20
-33.3277
 30
7.40000e-15
  70
    32
  0
VERTEX
  8
0
  5
5516
 10
680.831
 20
-33.3236
 30
7.40000e-15
  70
    32
  0
VERTEX
  8
0
  5
5517
 10
680.846
 20
-33.3195
 30
7.40000e-15
  70
    32
  0
VERTEX
  8
0
  5
5518
 10
680.861
 20
-33.3153
 30
7.40000e-15
  70
    32
  0
VERTEX
  8
0
  5
5519
 10
680.875
 20
-33.3110
 30
7.40000e-15
  70
    32
  0
VERTEX
  8
0
  5
551A
 10
680.890
 20
-33.3066
 30
7.40000e-15
  70
    32
  0
VERTEX
  8
0
  5
551B
 10
680.905
 20
-33.3022
 30
7.40000e-15
  70
    32
  0
VERTEX
  8
0
  5
551C
 10
680.919
 20
-33.2977
 30
7.40000e-15
  70
    32
  0
VERTEX
  8
0
  5
551D
 10
680.934
 20
-33.2932
 30
7.40000e-15
  70
    32
  0
VERTEX
  8
0
  5
551E
 10
680.949
 20
-33.2885
 30
7.40000e-15
  70
    32
  0
VERTEX
  8
0
  5
551F
 10
680.964
 20
-33.2838
 30
7.40000e-15
  70
    32
  0
VERTEX
  8
0
  5
5520
 10
680.979
 20
-33.2791
 30
7.39998e-15
  70
    32
  0
VERTEX
  8
0
  5
5521
 10
680.994
 20
-33.2742
 30
7.39988e-15
  70
    32
  0
VERTEX
  8
0
  5
5522
 10
681.009
 20
-33.2693
 30
7.39970e-15
  70
    32
  0
VERTEX
  8
0
  5
5523
 10
681.023
 20
-33.2643
 30
7.39942e-15
  70
    32
  0
VERTEX
  8
0
  5
5524
 10
681.038
 20
-33.2592
 30
7.39906e-15
  70
    32
  0
VERTEX
  8
0
  5
5525
 10
681.053
 20
-33.2540
 30
7.39862e-15
  70
    32
  0
VERTEX
  8
0
  5
5526
 10
681.068
 20
-33.2488
 30
7.39810e-15
  70
    32
  0
VERTEX
  8
0
  5
5527
 10
681.083
 20
-33.2435
 30
7.39750e-15
  70
    32
  0
VERTEX
  8
0
  5
5528
 10
681.098
 20
-33.2381
 30
7.39681e-15
  70
    32
  0
VERTEX
  8
0
  5
5529
 10
681.113
 20
-33.2326
 30
7.39605e-15
  70
    32
  0
VERTEX
  8
0
  5
552A
 10
681.128
 20
-33.2270
 30
7.39522e-15
  70
    32
  0
VERTEX
  8
0
  5
552B
 10
681.143
 20
-33.2214
 30
7.39431e-15
  70
    32
  0
VERTEX
  8
0
  5
552C
 10
681.159
 20
-33.2157
 30
7.39333e-15
  70
    32
  0
VERTEX
  8
0
  5
552D
 10
681.174
 20
-33.2099
 30
7.39228e-15
  70
    32
  0
VERTEX
  8
0
  5
552E
 10
681.189
 20
-33.2041
 30
7.39117e-15
  70
    32
  0
VERTEX
  8
0
  5
552F
 10
681.204
 20
-33.1981
 30
7.38998e-15
  70
    32
  0
VERTEX
  8
0
  5
5530
 10
681.219
 20
-33.1921
 30
7.38873e-15
  70
    32
  0
VERTEX
  8
0
  5
5531
 10
681.234
 20
-33.1860
 30
7.38742e-15
  70
    32
  0
VERTEX
  8
0
  5
5532
 10
681.249
 20
-33.1799
 30
7.38604e-15
  70
    32
  0
VERTEX
  8
0
  5
5533
 10
681.264
 20
-33.1736
 30
7.38461e-15
  70
    32
  0
VERTEX
  8
0
  5
5534
 10
681.279
 20
-33.1673
 30
7.38311e-15
  70
    32
  0
VERTEX
  8
0
  5
5535
 10
681.295
 20
-33.1609
 30
7.38156e-15
  70
    32
  0
VERTEX
  8
0
  5
5536
 10
681.310
 20
-33.1545
 30
7.37996e-15
  70
    32
  0
VERTEX
  8
0
  5
5537
 10
681.325
 20
-33.1479
 30
7.37830e-15
  70
    32
  0
VERTEX
  8
0
  5
5538
 10
681.340
 20
-33.1413
 30
7.37658e-15
  70
    32
  0
VERTEX
  8
0
  5
5539
 10
681.355
 20
-33.1346
 30
7.37482e-15
  70
    32
  0
VERTEX
  8
0
  5
553A
 10
681.370
 20
-33.1278
 30
7.37301e-15
  70
    32
  0
VERTEX
  8
0
  5
553B
 10
681.385
 20
-33.1210
 30
7.37115e-15
  70
    32
  0
VERTEX
  8
0
  5
553C
 10
681.401
 20
-33.1141
 30
7.36925e-15
  70
    32
  0
VERTEX
  8
0
  5
553D
 10
681.416
 20
-33.1071
 30
7.36730e-15
  70
    32
  0
VERTEX
  8
0
  5
553E
 10
681.431
 20
-33.1001
 30
7.36532e-15
  70
    32
  0
VERTEX
  8
0
  5
553F
 10
681.446
 20
-33.0929
 30
7.36329e-15
  70
    32
  0
VERTEX
  8
0
  5
5540
 10
681.461
 20
-33.0857
 30
7.36122e-15
  70
    32
  0
VERTEX
  8
0
  5
5541
 10
681.476
 20
-33.0784
 30
7.35911e-15
  70
    32
  0
VERTEX
  8
0
  5
5542
 10
681.491
 20
-33.0711
 30
7.35697e-15
  70
    32
  0
VERTEX
  8
0
  5
5543
 10
681.506
 20
-33.0636
 30
7.35480e-15
  70
    32
  0
VERTEX
  8
0
  5
5544
 10
681.521
 20
-33.0561
 30
7.35259e-15
  70
    32
  0
VERTEX
  8
0
  5
5545
 10
681.537
 20
-33.0486
 30
7.35035e-15
  70
    32
  0
VERTEX
  8
0
  5
5546
 10
681.552
 20
-33.0409
 30
7.34809e-15
  70
    32
  0
VERTEX
  8
0
  5
5547
 10
681.567
 20
-33.0332
 30
7.34579e-15
  70
    32
  0
VERTEX
  8
0
  5
5548
 10
681.582
 20
-33.0254
 30
7.34348e-15
  70
    32
  0
VERTEX
  8
0
  5
5549
 10
681.597
 20
-33.0175
 30
7.34113e-15
  70
    32
  0
VERTEX
  8
0
  5
554A
 10
681.612
 20
-33.0096
 30
7.33877e-15
  70
    32
  0
VERTEX
  8
0
  5
554B
 10
681.627
 20
-33.0016
 30
7.33638e-15
  70
    32
  0
VERTEX
  8
0
  5
554C
 10
681.642
 20
-32.9935
 30
7.33398e-15
  70
    32
  0
VERTEX
  8
0
  5
554D
 10
681.657
 20
-32.9854
 30
7.33156e-15
  70
    32
  0
VERTEX
  8
0
  5
554E
 10
681.672
 20
-32.9771
 30
7.32912e-15
  70
    32
  0
VERTEX
  8
0
  5
554F
 10
681.687
 20
-32.9688
 30
7.32667e-15
  70
    32
  0
VERTEX
  8
0
  5
5550
 10
681.702
 20
-32.9605
 30
7.32420e-15
  70
    32
  0
VERTEX
  8
0
  5
5551
 10
681.716
 20
-32.9520
 30
7.32173e-15
  70
    32
  0
VERTEX
  8
0
  5
5552
 10
681.731
 20
-32.9435
 30
7.31925e-15
  70
    32
  0
VERTEX
  8
0
  5
5553
 10
681.746
 20
-32.9349
 30
7.31675e-15
  70
    32
  0
VERTEX
  8
0
  5
5554
 10
681.761
 20
-32.9263
 30
7.31426e-15
  70
    32
  0
VERTEX
  8
0
  5
5555
 10
681.776
 20
-32.9175
 30
7.31176e-15
  70
    32
  0
VERTEX
  8
0
  5
5556
 10
681.791
 20
-32.9088
 30
7.30925e-15
  70
    32
  0
VERTEX
  8
0
  5
5557
 10
681.805
 20
-32.8999
 30
7.30675e-15
  70
    32
  0
VERTEX
  8
0
  5
5558
 10
681.820
 20
-32.8910
 30
7.30425e-15
  70
    32
  0
VERTEX
  8
0
  5
5559
 10
681.835
 20
-32.8819
 30
7.30175e-15
  70
    32
  0
VERTEX
  8
0
  5
555A
 10
681.849
 20
-32.8729
 30
7.29925e-15
  70
    32
  0
VERTEX
  8
0
  5
555B
 10
681.864
 20
-32.8637
 30
7.29676e-15
  70
    32
  0
VERTEX
  8
0
  5
555C
 10
681.879
 20
-32.8545
 30
7.29427e-15
  70
    32
  0
VERTEX
  8
0
  5
555D
 10
681.893
 20
-32.8452
 30
7.29180e-15
  70
    32
  0
VERTEX
  8
0
  5
555E
 10
681.908
 20
-32.8359
 30
7.28934e-15
  70
    32
  0
VERTEX
  8
0
  5
555F
 10
681.922
 20
-32.8264
 30
7.28689e-15
  70
    32
  0
VERTEX
  8
0
  5
5560
 10
681.937
 20
-32.8170
 30
7.28445e-15
  70
    32
  0
VERTEX
  8
0
  5
5561
 10
681.951
 20
-32.8074
 30
7.28203e-15
  70
    32
  0
VERTEX
  8
0
  5
5562
 10
681.966
 20
-32.7978
 30
7.27962e-15
  70
    32
  0
VERTEX
  8
0
  5
5563
 10
681.980
 20
-32.7881
 30
7.27724e-15
  70
    32
  0
VERTEX
  8
0
  5
5564
 10
681.994
 20
-32.7783
 30
7.27487e-15
  70
    32
  0
VERTEX
  8
0
  5
5565
 10
682.009
 20
-32.7685
 30
7.27253e-15
  70
    32
  0
VERTEX
  8
0
  5
5566
 10
682.023
 20
-32.7585
 30
7.27021e-15
  70
    32
  0
VERTEX
  8
0
  5
5567
 10
682.037
 20
-32.7486
 30
7.26792e-15
  70
    32
  0
VERTEX
  8
0
  5
5568
 10
682.051
 20
-32.7385
 30
7.26566e-15
  70
    32
  0
VERTEX
  8
0
  5
5569
 10
682.066
 20
-32.7284
 30
7.26342e-15
  70
    32
  0
VERTEX
  8
0
  5
556A
 10
682.080
 20
-32.7182
 30
7.26121e-15
  70
    32
  0
VERTEX
  8
0
  5
556B
 10
682.094
 20
-32.7080
 30
7.25904e-15
  70
    32
  0
VERTEX
  8
0
  5
556C
 10
682.108
 20
-32.6977
 30
7.25690e-15
  70
    32
  0
VERTEX
  8
0
  5
556D
 10
682.122
 20
-32.6873
 30
7.25480e-15
  70
    32
  0
VERTEX
  8
0
  5
556E
 10
682.136
 20
-32.6769
 30
7.25273e-15
  70
    32
  0
VERTEX
  8
0
  5
556F
 10
682.150
 20
-32.6663
 30
7.25070e-15
  70
    32
  0
VERTEX
  8
0
  5
5570
 10
682.163
 20
-32.6558
 30
7.24871e-15
  70
    32
  0
VERTEX
  8
0
  5
5571
 10
682.177
 20
-32.6451
 30
7.24676e-15
  70
    32
  0
VERTEX
  8
0
  5
5572
 10
682.191
 20
-32.6344
 30
7.24477e-15
  70
    32
  0
VERTEX
  8
0
  5
5573
 10
682.205
 20
-32.6236
 30
7.24273e-15
  70
    32
  0
VERTEX
  8
0
  5
5574
 10
682.218
 20
-32.6128
 30
7.24062e-15
  70
    32
  0
VERTEX
  8
0
  5
5575
 10
682.232
 20
-32.6019
 30
7.23847e-15
  70
    32
  0
VERTEX
  8
0
  5
5576
 10
682.245
 20
-32.5910
 30
7.23627e-15
  70
    32
  0
VERTEX
  8
0
  5
5577
 10
682.259
 20
-32.5800
 30
7.23401e-15
  70
    32
  0
VERTEX
  8
0
  5
5578
 10
682.272
 20
-32.5689
 30
7.23171e-15
  70
    32
  0
VERTEX
  8
0
  5
5579
 10
682.285
 20
-32.5578
 30
7.22936e-15
  70
    32
  0
VERTEX
  8
0
  5
557A
 10
682.299
 20
-32.5466
 30
7.22696e-15
  70
    32
  0
VERTEX
  8
0
  5
557B
 10
682.312
 20
-32.5354
 30
7.22452e-15
  70
    32
  0
VERTEX
  8
0
  5
557C
 10
682.325
 20
-32.5241
 30
7.22204e-15
  70
    32
  0
VERTEX
  8
0
  5
557D
 10
682.338
 20
-32.5128
 30
7.21952e-15
  70
    32
  0
VERTEX
  8
0
  5
557E
 10
682.351
 20
-32.5014
 30
7.21696e-15
  70
    32
  0
VERTEX
  8
0
  5
557F
 10
682.364
 20
-32.4900
 30
7.21436e-15
  70
    32
  0
VERTEX
  8
0
  5
5580
 10
682.377
 20
-32.4785
 30
7.21173e-15
  70
    32
  0
VERTEX
  8
0
  5
5581
 10
682.390
 20
-32.4670
 30
7.20906e-15
  70
    32
  0
VERTEX
  8
0
  5
5582
 10
682.403
 20
-32.4554
 30
7.20636e-15
  70
    32
  0
VERTEX
  8
0
  5
5583
 10
682.416
 20
-32.4438
 30
7.20363e-15
  70
    32
  0
VERTEX
  8
0
  5
5584
 10
682.428
 20
-32.4321
 30
7.20087e-15
  70
    32
  0
VERTEX
  8
0
  5
5585
 10
682.441
 20
-32.4204
 30
7.19808e-15
  70
    32
  0
VERTEX
  8
0
  5
5586
 10
682.453
 20
-32.4086
 30
7.19527e-15
  70
    32
  0
VERTEX
  8
0
  5
5587
 10
682.466
 20
-32.3968
 30
7.19243e-15
  70
    32
  0
VERTEX
  8
0
  5
5588
 10
682.478
 20
-32.3850
 30
7.18957e-15
  70
    32
  0
VERTEX
  8
0
  5
5589
 10
682.491
 20
-32.3731
 30
7.18669e-15
  70
    32
  0
VERTEX
  8
0
  5
558A
 10
682.503
 20
-32.3612
 30
7.18379e-15
  70
    32
  0
VERTEX
  8
0
  5
558B
 10
682.515
 20
-32.3492
 30
7.18087e-15
  70
    32
  0
VERTEX
  8
0
  5
558C
 10
682.528
 20
-32.3372
 30
7.17793e-15
  70
    32
  0
VERTEX
  8
0
  5
558D
 10
682.540
 20
-32.3251
 30
7.17498e-15
  70
    32
  0
VERTEX
  8
0
  5
558E
 10
682.552
 20
-32.3131
 30
7.17201e-15
  70
    32
  0
VERTEX
  8
0
  5
558F
 10
682.564
 20
-32.3009
 30
7.16904e-15
  70
    32
  0
VERTEX
  8
0
  5
5590
 10
682.576
 20
-32.2888
 30
7.16605e-15
  70
    32
  0
VERTEX
  8
0
  5
5591
 10
682.588
 20
-32.2766
 30
7.16306e-15
  70
    32
  0
VERTEX
  8
0
  5
5592
 10
682.599
 20
-32.2643
 30
7.16005e-15
  70
    32
  0
VERTEX
  8
0
  5
5593
 10
682.611
 20
-32.2521
 30
7.15705e-15
  70
    32
  0
VERTEX
  8
0
  5
5594
 10
682.623
 20
-32.2398
 30
7.15403e-15
  70
    32
  0
VERTEX
  8
0
  5
5595
 10
682.634
 20
-32.2274
 30
7.15102e-15
  70
    32
  0
VERTEX
  8
0
  5
5596
 10
682.646
 20
-32.2151
 30
7.14801e-15
  70
    32
  0
VERTEX
  8
0
  5
5597
 10
682.657
 20
-32.2027
 30
7.14499e-15
  70
    32
  0
VERTEX
  8
0
  5
5598
 10
682.669
 20
-32.1902
 30
7.14198e-15
  70
    32
  0
VERTEX
  8
0
  5
5599
 10
682.680
 20
-32.1778
 30
7.13898e-15
  70
    32
  0
VERTEX
  8
0
  5
559A
 10
682.691
 20
-32.1653
 30
7.13598e-15
  70
    32
  0
VERTEX
  8
0
  5
559B
 10
682.703
 20
-32.1528
 30
7.13298e-15
  70
    32
  0
VERTEX
  8
0
  5
559C
 10
682.714
 20
-32.1402
 30
7.13000e-15
  70
    32
  0
VERTEX
  8
0
  5
559D
 10
682.725
 20
-32.1277
 30
7.12702e-15
  70
    32
  0
VERTEX
  8
0
  5
559E
 10
682.736
 20
-32.1151
 30
7.12406e-15
  70
    32
  0
VERTEX
  8
0
  5
559F
 10
682.747
 20
-32.1025
 30
7.12111e-15
  70
    32
  0
VERTEX
  8
0
  5
55A0
 10
682.758
 20
-32.0898
 30
7.11818e-15
  70
    32
  0
VERTEX
  8
0
  5
55A1
 10
682.768
 20
-32.0772
 30
7.11527e-15
  70
    32
  0
VERTEX
  8
0
  5
55A2
 10
682.779
 20
-32.0645
 30
7.11237e-15
  70
    32
  0
VERTEX
  8
0
  5
55A3
 10
682.790
 20
-32.0518
 30
7.10949e-15
  70
    32
  0
VERTEX
  8
0
  5
55A4
 10
682.800
 20
-32.0390
 30
7.10664e-15
  70
    32
  0
VERTEX
  8
0
  5
55A5
 10
682.811
 20
-32.0263
 30
7.10380e-15
  70
    32
  0
VERTEX
  8
0
  5
55A6
 10
682.821
 20
-32.0135
 30
7.10100e-15
  70
    32
  0
VERTEX
  8
0
  5
55A7
 10
682.831
 20
-32.0008
 30
7.09821e-15
  70
    32
  0
VERTEX
  8
0
  5
55A8
 10
682.842
 20
-31.9880
 30
7.09546e-15
  70
    32
  0
VERTEX
  8
0
  5
55A9
 10
682.852
 20
-31.9751
 30
7.09274e-15
  70
    32
  0
VERTEX
  8
0
  5
55AA
 10
682.862
 20
-31.9623
 30
7.09005e-15
  70
    32
  0
VERTEX
  8
0
  5
55AB
 10
682.872
 20
-31.9495
 30
7.08739e-15
  70
    32
  0
VERTEX
  8
0
  5
55AC
 10
682.882
 20
-31.9366
 30
7.08476e-15
  70
    32
  0
VERTEX
  8
0
  5
55AD
 10
682.892
 20
-31.9237
 30
7.08217e-15
  70
    32
  0
VERTEX
  8
0
  5
55AE
 10
682.902
 20
-31.9108
 30
7.07962e-15
  70
    32
  0
VERTEX
  8
0
  5
55AF
 10
682.911
 20
-31.8979
 30
7.07711e-15
  70
    32
  0
VERTEX
  8
0
  5
55B0
 10
682.921
 20
-31.8850
 30
7.07464e-15
  70
    32
  0
VERTEX
  8
0
  5
55B1
 10
682.931
 20
-31.8721
 30
7.07221e-15
  70
    32
  0
VERTEX
  8
0
  5
55B2
 10
682.940
 20
-31.8592
 30
7.06982e-15
  70
    32
  0
VERTEX
  8
0
  5
55B3
 10
682.950
 20
-31.8463
 30
7.06748e-15
  70
    32
  0
VERTEX
  8
0
  5
55B4
 10
682.959
 20
-31.8333
 30
7.06519e-15
  70
    32
  0
VERTEX
  8
0
  5
55B5
 10
682.968
 20
-31.8204
 30
7.06295e-15
  70
    32
  0
VERTEX
  8
0
  5
55B6
 10
682.978
 20
-31.8074
 30
7.06075e-15
  70
    32
  0
VERTEX
  8
0
  5
55B7
 10
682.987
 20
-31.7945
 30
7.05861e-15
  70
    32
  0
VERTEX
  8
0
  5
55B8
 10
682.996
 20
-31.7815
 30
7.05652e-15
  70
    32
  0
VERTEX
  8
0
  5
55B9
 10
683.005
 20
-31.7685
 30
7.05449e-15
  70
    32
  0
VERTEX
  8
0
  5
55BA
 10
683.014
 20
-31.7556
 30
7.05251e-15
  70
    32
  0
VERTEX
  8
0
  5
55BB
 10
683.022
 20
-31.7426
 30
7.05055e-15
  70
    32
  0
VERTEX
  8
0
  5
55BC
 10
683.031
 20
-31.7296
 30
7.04854e-15
  70
    32
  0
VERTEX
  8
0
  5
55BD
 10
683.040
 20
-31.7167
 30
7.04650e-15
  70
    32
  0
VERTEX
  8
0
  5
55BE
 10
683.048
 20
-31.7037
 30
7.04441e-15
  70
    32
  0
VERTEX
  8
0
  5
55BF
 10
683.057
 20
-31.6908
 30
7.04228e-15
  70
    32
  0
VERTEX
  8
0
  5
55C0
 10
683.065
 20
-31.6778
 30
7.04012e-15
  70
    32
  0
VERTEX
  8
0
  5
55C1
 10
683.074
 20
-31.6649
 30
7.03791e-15
  70
    32
  0
VERTEX
  8
0
  5
55C2
 10
683.082
 20
-31.6519
 30
7.03567e-15
  70
    32
  0
VERTEX
  8
0
  5
55C3
 10
683.090
 20
-31.6390
 30
7.03340e-15
  70
    32
  0
VERTEX
  8
0
  5
55C4
 10
683.098
 20
-31.6261
 30
7.03110e-15
  70
    32
  0
VERTEX
  8
0
  5
55C5
 10
683.106
 20
-31.6131
 30
7.02876e-15
  70
    32
  0
VERTEX
  8
0
  5
55C6
 10
683.114
 20
-31.6002
 30
7.02639e-15
  70
    32
  0
VERTEX
  8
0
  5
55C7
 10
683.122
 20
-31.5873
 30
7.02399e-15
  70
    32
  0
VERTEX
  8
0
  5
55C8
 10
683.130
 20
-31.5744
 30
7.02156e-15
  70
    32
  0
VERTEX
  8
0
  5
55C9
 10
683.138
 20
-31.5615
 30
7.01910e-15
  70
    32
  0
VERTEX
  8
0
  5
55CA
 10
683.145
 20
-31.5487
 30
7.01662e-15
  70
    32
  0
VERTEX
  8
0
  5
55CB
 10
683.153
 20
-31.5358
 30
7.01411e-15
  70
    32
  0
VERTEX
  8
0
  5
55CC
 10
683.160
 20
-31.5229
 30
7.01158e-15
  70
    32
  0
VERTEX
  8
0
  5
55CD
 10
683.168
 20
-31.5101
 30
7.00902e-15
  70
    32
  0
VERTEX
  8
0
  5
55CE
 10
683.175
 20
-31.4972
 30
7.00644e-15
  70
    32
  0
VERTEX
  8
0
  5
55CF
 10
683.183
 20
-31.4844
 30
7.00384e-15
  70
    32
  0
VERTEX
  8
0
  5
55D0
 10
683.190
 20
-31.4716
 30
7.00122e-15
  70
    32
  0
VERTEX
  8
0
  5
55D1
 10
683.197
 20
-31.4588
 30
6.99858e-15
  70
    32
  0
VERTEX
  8
0
  5
55D2
 10
683.204
 20
-31.4460
 30
6.99593e-15
  70
    32
  0
VERTEX
  8
0
  5
55D3
 10
683.211
 20
-31.4332
 30
6.99325e-15
  70
    32
  0
VERTEX
  8
0
  5
55D4
 10
683.218
 20
-31.4205
 30
6.99057e-15
  70
    32
  0
VERTEX
  8
0
  5
55D5
 10
683.225
 20
-31.4077
 30
6.98787e-15
  70
    32
  0
VERTEX
  8
0
  5
55D6
 10
683.232
 20
-31.3950
 30
6.98515e-15
  70
    32
  0
VERTEX
  8
0
  5
55D7
 10
683.239
 20
-31.3823
 30
6.98242e-15
  70
    32
  0
VERTEX
  8
0
  5
55D8
 10
683.245
 20
-31.3696
 30
6.97969e-15
  70
    32
  0
VERTEX
  8
0
  5
55D9
 10
683.252
 20
-31.3569
 30
6.97694e-15
  70
    32
  0
VERTEX
  8
0
  5
55DA
 10
683.258
 20
-31.3442
 30
6.97418e-15
  70
    32
  0
VERTEX
  8
0
  5
55DB
 10
683.265
 20
-31.3316
 30
6.97142e-15
  70
    32
  0
VERTEX
  8
0
  5
55DC
 10
683.271
 20
-31.3189
 30
6.96865e-15
  70
    32
  0
VERTEX
  8
0
  5
55DD
 10
683.278
 20
-31.3063
 30
6.96587e-15
  70
    32
  0
VERTEX
  8
0
  5
55DE
 10
683.284
 20
-31.2937
 30
6.96310e-15
  70
    32
  0
VERTEX
  8
0
  5
55DF
 10
683.290
 20
-31.2812
 30
6.96031e-15
  70
    32
  0
VERTEX
  8
0
  5
55E0
 10
683.296
 20
-31.2686
 30
6.95753e-15
  70
    32
  0
VERTEX
  8
0
  5
55E1
 10
683.303
 20
-31.2561
 30
6.95475e-15
  70
    32
  0
VERTEX
  8
0
  5
55E2
 10
683.309
 20
-31.2435
 30
6.95197e-15
  70
    32
  0
VERTEX
  8
0
  5
55E3
 10
683.315
 20
-31.2310
 30
6.94918e-15
  70
    32
  0
VERTEX
  8
0
  5
55E4
 10
683.320
 20
-31.2186
 30
6.94641e-15
  70
    32
  0
VERTEX
  8
0
  5
55E5
 10
683.326
 20
-31.2061
 30
6.94363e-15
  70
    32
  0
VERTEX
  8
0
  5
55E6
 10
683.332
 20
-31.1937
 30
6.94086e-15
  70
    32
  0
VERTEX
  8
0
  5
55E7
 10
683.338
 20
-31.1812
 30
6.93810e-15
  70
    32
  0
VERTEX
  8
0
  5
55E8
 10
683.343
 20
-31.1689
 30
6.93534e-15
  70
    32
  0
VERTEX
  8
0
  5
55E9
 10
683.349
 20
-31.1565
 30
6.93259e-15
  70
    32
  0
VERTEX
  8
0
  5
55EA
 10
683.355
 20
-31.1441
 30
6.92986e-15
  70
    32
  0
VERTEX
  8
0
  5
55EB
 10
683.360
 20
-31.1318
 30
6.92713e-15
  70
    32
  0
VERTEX
  8
0
  5
55EC
 10
683.365
 20
-31.1195
 30
6.92442e-15
  70
    32
  0
VERTEX
  8
0
  5
55ED
 10
683.371
 20
-31.1073
 30
6.92171e-15
  70
    32
  0
VERTEX
  8
0
  5
55EE
 10
683.376
 20
-31.0950
 30
6.91903e-15
  70
    32
  0
VERTEX
  8
0
  5
55EF
 10
683.381
 20
-31.0828
 30
6.91635e-15
  70
    32
  0
VERTEX
  8
0
  5
55F0
 10
683.386
 20
-31.0706
 30
6.91370e-15
  70
    32
  0
VERTEX
  8
0
  5
55F1
 10
683.391
 20
-31.0584
 30
6.91106e-15
  70
    32
  0
VERTEX
  8
0
  5
55F2
 10
683.397
 20
-31.0463
 30
6.90844e-15
  70
    32
  0
VERTEX
  8
0
  5
55F3
 10
683.401
 20
-31.0342
 30
6.90584e-15
  70
    32
  0
VERTEX
  8
0
  5
55F4
 10
683.406
 20
-31.0221
 30
6.90326e-15
  70
    32
  0
VERTEX
  8
0
  5
55F5
 10
683.411
 20
-31.0101
 30
6.90071e-15
  70
    32
  0
VERTEX
  8
0
  5
55F6
 10
683.416
 20
-30.9980
 30
6.89817e-15
  70
    32
  0
VERTEX
  8
0
  5
55F7
 10
683.421
 20
-30.9860
 30
6.89566e-15
  70
    32
  0
VERTEX
  8
0
  5
55F8
 10
683.425
 20
-30.9741
 30
6.89318e-15
  70
    32
  0
VERTEX
  8
0
  5
55F9
 10
683.430
 20
-30.9621
 30
6.89072e-15
  70
    32
  0
VERTEX
  8
0
  5
55FA
 10
683.435
 20
-30.9502
 30
6.88829e-15
  70
    32
  0
VERTEX
  8
0
  5
55FB
 10
683.439
 20
-30.9384
 30
6.88589e-15
  70
    32
  0
VERTEX
  8
0
  5
55FC
 10
683.444
 20
-30.9265
 30
6.88353e-15
  70
    32
  0
VERTEX
  8
0
  5
55FD
 10
683.448
 20
-30.9147
 30
6.88119e-15
  70
    32
  0
VERTEX
  8
0
  5
55FE
 10
683.452
 20
-30.9030
 30
6.87888e-15
  70
    32
  0
VERTEX
  8
0
  5
55FF
 10
683.457
 20
-30.8912
 30
6.87661e-15
  70
    32
  0
VERTEX
  8
0
  5
5600
 10
683.461
 20
-30.8795
 30
6.87437e-15
  70
    32
  0
VERTEX
  8
0
  5
5601
 10
683.465
 20
-30.8678
 30
6.87217e-15
  70
    32
  0
VERTEX
  8
0
  5
5602
 10
683.469
 20
-30.8562
 30
6.87000e-15
  70
    32
  0
VERTEX
  8
0
  5
5603
 10
683.473
 20
-30.8446
 30
6.86788e-15
  70
    32
  0
VERTEX
  8
0
  5
5604
 10
683.477
 20
-30.8330
 30
6.86579e-15
  70
    32
  0
VERTEX
  8
0
  5
5605
 10
683.481
 20
-30.8215
 30
6.86374e-15
  70
    32
  0
VERTEX
  8
0
  5
5606
 10
683.485
 20
-30.8100
 30
6.86173e-15
  70
    32
  0
VERTEX
  8
0
  5
5607
 10
683.489
 20
-30.7985
 30
6.85977e-15
  70
    32
  0
VERTEX
  8
0
  5
5608
 10
683.493
 20
-30.7871
 30
6.85785e-15
  70
    32
  0
VERTEX
  8
0
  5
5609
 10
683.497
 20
-30.7757
 30
6.85597e-15
  70
    32
  0
VERTEX
  8
0
  5
560A
 10
683.500
 20
-30.7644
 30
6.85415e-15
  70
    32
  0
VERTEX
  8
0
  5
560B
 10
683.504
 20
-30.7531
 30
6.85236e-15
  70
    32
  0
VERTEX
  8
0
  5
560C
 10
683.508
 20
-30.7418
 30
6.85058e-15
  70
    32
  0
VERTEX
  8
0
  5
560D
 10
683.511
 20
-30.7306
 30
6.84876e-15
  70
    32
  0
VERTEX
  8
0
  5
560E
 10
683.515
 20
-30.7194
 30
6.84691e-15
  70
    32
  0
VERTEX
  8
0
  5
560F
 10
683.518
 20
-30.7083
 30
6.84503e-15
  70
    32
  0
VERTEX
  8
0
  5
5610
 10
683.522
 20
-30.6971
 30
6.84311e-15
  70
    32
  0
VERTEX
  8
0
  5
5611
 10
683.525
 20
-30.6861
 30
6.84116e-15
  70
    32
  0
VERTEX
  8
0
  5
5612
 10
683.528
 20
-30.6750
 30
6.83917e-15
  70
    32
  0
VERTEX
  8
0
  5
5613
 10
683.532
 20
-30.6640
 30
6.83716e-15
  70
    32
  0
VERTEX
  8
0
  5
5614
 10
683.535
 20
-30.6530
 30
6.83511e-15
  70
    32
  0
VERTEX
  8
0
  5
5615
 10
683.538
 20
-30.6421
 30
6.83304e-15
  70
    32
  0
VERTEX
  8
0
  5
5616
 10
683.541
 20
-30.6312
 30
6.83093e-15
  70
    32
  0
VERTEX
  8
0
  5
5617
 10
683.544
 20
-30.6204
 30
6.82880e-15
  70
    32
  0
VERTEX
  8
0
  5
5618
 10
683.547
 20
-30.6095
 30
6.82664e-15
  70
    32
  0
VERTEX
  8
0
  5
5619
 10
683.550
 20
-30.5987
 30
6.82445e-15
  70
    32
  0
VERTEX
  8
0
  5
561A
 10
683.553
 20
-30.5880
 30
6.82224e-15
  70
    32
  0
VERTEX
  8
0
  5
561B
 10
683.556
 20
-30.5773
 30
6.81999e-15
  70
    32
  0
VERTEX
  8
0
  5
561C
 10
683.559
 20
-30.5666
 30
6.81773e-15
  70
    32
  0
VERTEX
  8
0
  5
561D
 10
683.562
 20
-30.5560
 30
6.81544e-15
  70
    32
  0
VERTEX
  8
0
  5
561E
 10
683.565
 20
-30.5454
 30
6.81312e-15
  70
    32
  0
VERTEX
  8
0
  5
561F
 10
683.568
 20
-30.5348
 30
6.81078e-15
  70
    32
  0
VERTEX
  8
0
  5
5620
 10
683.570
 20
-30.5243
 30
6.80841e-15
  70
    32
  0
VERTEX
  8
0
  5
5621
 10
683.573
 20
-30.5138
 30
6.80603e-15
  70
    32
  0
VERTEX
  8
0
  5
5622
 10
683.576
 20
-30.5034
 30
6.80362e-15
  70
    32
  0
VERTEX
  8
0
  5
5623
 10
683.578
 20
-30.4930
 30
6.80119e-15
  70
    32
  0
VERTEX
  8
0
  5
5624
 10
683.581
 20
-30.4826
 30
6.79874e-15
  70
    32
  0
VERTEX
  8
0
  5
5625
 10
683.583
 20
-30.4723
 30
6.79627e-15
  70
    32
  0
VERTEX
  8
0
  5
5626
 10
683.586
 20
-30.4620
 30
6.79378e-15
  70
    32
  0
VERTEX
  8
0
  5
5627
 10
683.588
 20
-30.4517
 30
6.79127e-15
  70
    32
  0
VERTEX
  8
0
  5
5628
 10
683.591
 20
-30.4415
 30
6.78875e-15
  70
    32
  0
VERTEX
  8
0
  5
5629
 10
683.593
 20
-30.4313
 30
6.78620e-15
  70
    32
  0
VERTEX
  8
0
  5
562A
 10
683.595
 20
-30.4211
 30
6.78364e-15
  70
    32
  0
VERTEX
  8
0
  5
562B
 10
683.597
 20
-30.4110
 30
6.78107e-15
  70
    32
  0
VERTEX
  8
0
  5
562C
 10
683.600
 20
-30.4009
 30
6.77847e-15
  70
    32
  0
VERTEX
  8
0
  5
562D
 10
683.602
 20
-30.3909
 30
6.77587e-15
  70
    32
  0
VERTEX
  8
0
  5
562E
 10
683.604
 20
-30.3809
 30
6.77324e-15
  70
    32
  0
VERTEX
  8
0
  5
562F
 10
683.606
 20
-30.3709
 30
6.77061e-15
  70
    32
  0
VERTEX
  8
0
  5
5630
 10
683.608
 20
-30.3610
 30
6.76796e-15
  70
    32
  0
VERTEX
  8
0
  5
5631
 10
683.610
 20
-30.3511
 30
6.76530e-15
  70
    32
  0
VERTEX
  8
0
  5
5632
 10
683.612
 20
-30.3412
 30
6.76262e-15
  70
    32
  0
VERTEX
  8
0
  5
5633
 10
683.614
 20
-30.3314
 30
6.75994e-15
  70
    32
  0
VERTEX
  8
0
  5
5634
 10
683.616
 20
-30.3216
 30
6.75724e-15
  70
    32
  0
VERTEX
  8
0
  5
5635
 10
683.618
 20
-30.3119
 30
6.75454e-15
  70
    32
  0
VERTEX
  8
0
  5
5636
 10
683.620
 20
-30.3022
 30
6.75182e-15
  70
    32
  0
VERTEX
  8
0
  5
5637
 10
683.622
 20
-30.2925
 30
6.74910e-15
  70
    32
  0
VERTEX
  8
0
  5
5638
 10
683.624
 20
-30.2829
 30
6.74637e-15
  70
    32
  0
VERTEX
  8
0
  5
5639
 10
683.626
 20
-30.2733
 30
6.74363e-15
  70
    32
  0
VERTEX
  8
0
  5
563A
 10
683.627
 20
-30.2637
 30
6.74088e-15
  70
    32
  0
VERTEX
  8
0
  5
563B
 10
683.629
 20
-30.2542
 30
6.73813e-15
  70
    32
  0
VERTEX
  8
0
  5
563C
 10
683.631
 20
-30.2447
 30
6.73537e-15
  70
    32
  0
VERTEX
  8
0
  5
563D
 10
683.632
 20
-30.2352
 30
6.73261e-15
  70
    32
  0
VERTEX
  8
0
  5
563E
 10
683.634
 20
-30.2258
 30
6.72984e-15
  70
    32
  0
VERTEX
  8
0
  5
563F
 10
683.636
 20
-30.2164
 30
6.72707e-15
  70
    32
  0
VERTEX
  8
0
  5
5640
 10
683.637
 20
-30.2071
 30
6.72430e-15
  70
    32
  0
VERTEX
  8
0
  5
5641
 10
683.639
 20
-30.1978
 30
6.72152e-15
  70
    32
  0
VERTEX
  8
0
  5
5642
 10
683.640
 20
-30.1885
 30
6.71874e-15
  70
    32
  0
VERTEX
  8
0
  5
5643
 10
683.642
 20
-30.1793
 30
6.71596e-15
  70
    32
  0
VERTEX
  8
0
  5
5644
 10
683.643
 20
-30.1701
 30
6.71318e-15
  70
    32
  0
VERTEX
  8
0
  5
5645
 10
683.645
 20
-30.1609
 30
6.71040e-15
  70
    32
  0
VERTEX
  8
0
  5
5646
 10
683.646
 20
-30.1518
 30
6.70762e-15
  70
    32
  0
VERTEX
  8
0
  5
5647
 10
683.647
 20
-30.1427
 30
6.70484e-15
  70
    32
  0
VERTEX
  8
0
  5
5648
 10
683.649
 20
-30.1337
 30
6.70206e-15
  70
    32
  0
VERTEX
  8
0
  5
5649
 10
683.650
 20
-30.1246
 30
6.69928e-15
  70
    32
  0
VERTEX
  8
0
  5
564A
 10
683.651
 20
-30.1157
 30
6.69651e-15
  70
    32
  0
VERTEX
  8
0
  5
564B
 10
683.652
 20
-30.1067
 30
6.69374e-15
  70
    32
  0
VERTEX
  8
0
  5
564C
 10
683.654
 20
-30.0978
 30
6.69098e-15
  70
    32
  0
VERTEX
  8
0
  5
564D
 10
683.655
 20
-30.0890
 30
6.68822e-15
  70
    32
  0
VERTEX
  8
0
  5
564E
 10
683.656
 20
-30.0801
 30
6.68547e-15
  70
    32
  0
VERTEX
  8
0
  5
564F
 10
683.657
 20
-30.0713
 30
6.68272e-15
  70
    32
  0
VERTEX
  8
0
  5
5650
 10
683.658
 20
-30.0626
 30
6.67998e-15
  70
    32
  0
VERTEX
  8
0
  5
5651
 10
683.659
 20
-30.0538
 30
6.67725e-15
  70
    32
  0
VERTEX
  8
0
  5
5652
 10
683.660
 20
-30.0452
 30
6.67452e-15
  70
    32
  0
VERTEX
  8
0
  5
5653
 10
683.662
 20
-30.0365
 30
6.67180e-15
  70
    32
  0
VERTEX
  8
0
  5
5654
 10
683.663
 20
-30.0279
 30
6.66910e-15
  70
    32
  0
VERTEX
  8
0
  5
5655
 10
683.664
 20
-30.0193
 30
6.66640e-15
  70
    32
  0
VERTEX
  8
0
  5
5656
 10
683.665
 20
-30.0108
 30
6.66371e-15
  70
    32
  0
VERTEX
  8
0
  5
5657
 10
683.665
 20
-30.0023
 30
6.66104e-15
  70
    32
  0
VERTEX
  8
0
  5
5658
 10
683.666
 20
-29.9938
 30
6.65837e-15
  70
    32
  0
VERTEX
  8
0
  5
5659
 10
683.667
 20
-29.9854
 30
6.65572e-15
  70
    32
  0
VERTEX
  8
0
  5
565A
 10
683.668
 20
-29.9770
 30
6.65308e-15
  70
    32
  0
VERTEX
  8
0
  5
565B
 10
683.669
 20
-29.9686
 30
6.65046e-15
  70
    32
  0
VERTEX
  8
0
  5
565C
 10
683.670
 20
-29.9603
 30
6.64785e-15
  70
    32
  0
VERTEX
  8
0
  5
565D
 10
683.671
 20
-29.9520
 30
6.64525e-15
  70
    32
  0
VERTEX
  8
0
  5
565E
 10
683.671
 20
-29.9438
 30
6.64267e-15
  70
    32
  0
VERTEX
  8
0
  5
565F
 10
683.672
 20
-29.9355
 30
6.64011e-15
  70
    32
  0
VERTEX
  8
0
  5
5660
 10
683.673
 20
-29.9274
 30
6.63756e-15
  70
    32
  0
VERTEX
  8
0
  5
5661
 10
683.674
 20
-29.9192
 30
6.63503e-15
  70
    32
  0
VERTEX
  8
0
  5
5662
 10
683.674
 20
-29.9111
 30
6.63252e-15
  70
    32
  0
VERTEX
  8
0
  5
5663
 10
683.675
 20
-29.9030
 30
6.63003e-15
  70
    32
  0
VERTEX
  8
0
  5
5664
 10
683.676
 20
-29.8950
 30
6.62756e-15
  70
    32
  0
VERTEX
  8
0
  5
5665
 10
683.676
 20
-29.8870
 30
6.62513e-15
  70
    32
  0
VERTEX
  8
0
  5
5666
 10
683.677
 20
-29.8791
 30
6.62285e-15
  70
    32
  0
VERTEX
  8
0
  5
5667
 10
683.678
 20
-29.8711
 30
6.62071e-15
  70
    32
  0
VERTEX
  8
0
  5
5668
 10
683.678
 20
-29.8632
 30
6.61871e-15
  70
    32
  0
VERTEX
  8
0
  5
5669
 10
683.679
 20
-29.8554
 30
6.61684e-15
  70
    32
  0
VERTEX
  8
0
  5
566A
 10
683.679
 20
-29.8475
 30
6.61510e-15
  70
    32
  0
VERTEX
  8
0
  5
566B
 10
683.680
 20
-29.8397
 30
6.61348e-15
  70
    32
  0
VERTEX
  8
0
  5
566C
 10
683.681
 20
-29.8320
 30
6.61198e-15
  70
    32
  0
VERTEX
  8
0
  5
566D
 10
683.681
 20
-29.8243
 30
6.61060e-15
  70
    32
  0
VERTEX
  8
0
  5
566E
 10
683.682
 20
-29.8166
 30
6.60933e-15
  70
    32
  0
VERTEX
  8
0
  5
566F
 10
683.682
 20
-29.8089
 30
6.60817e-15
  70
    32
  0
VERTEX
  8
0
  5
5670
 10
683.682
 20
-29.8013
 30
6.60710e-15
  70
    32
  0
VERTEX
  8
0
  5
5671
 10
683.683
 20
-29.7937
 30
6.60614e-15
  70
    32
  0
VERTEX
  8
0
  5
5672
 10
683.683
 20
-29.7861
 30
6.60526e-15
  70
    32
  0
VERTEX
  8
0
  5
5673
 10
683.684
 20
-29.7786
 30
6.60447e-15
  70
    32
  0
VERTEX
  8
0
  5
5674
 10
683.684
 20
-29.7711
 30
6.60377e-15
  70
    32
  0
VERTEX
  8
0
  5
5675
 10
683.684
 20
-29.7637
 30
6.60314e-15
  70
    32
  0
VERTEX
  8
0
  5
5676
 10
683.685
 20
-29.7562
 30
6.60259e-15
  70
    32
  0
VERTEX
  8
0
  5
5677
 10
683.685
 20
-29.7488
 30
6.60210e-15
  70
    32
  0
VERTEX
  8
0
  5
5678
 10
683.685
 20
-29.7415
 30
6.60169e-15
  70
    32
  0
VERTEX
  8
0
  5
5679
 10
683.686
 20
-29.7341
 30
6.60133e-15
  70
    32
  0
VERTEX
  8
0
  5
567A
 10
683.686
 20
-29.7268
 30
6.60102e-15
  70
    32
  0
VERTEX
  8
0
  5
567B
 10
683.686
 20
-29.7196
 30
6.60077e-15
  70
    32
  0
VERTEX
  8
0
  5
567C
 10
683.687
 20
-29.7123
 30
6.60056e-15
  70
    32
  0
VERTEX
  8
0
  5
567D
 10
683.687
 20
-29.7051
 30
6.60039e-15
  70
    32
  0
VERTEX
  8
0
  5
567E
 10
683.687
 20
-29.6980
 30
6.60026e-15
  70
    32
  0
VERTEX
  8
0
  5
567F
 10
683.687
 20
-29.6908
 30
6.60017e-15
  70
    32
  0
VERTEX
  8
0
  5
5680
 10
683.687
 20
-29.6837
 30
6.60010e-15
  70
    32
  0
VERTEX
  8
0
  5
5681
 10
683.688
 20
-29.6766
 30
6.60005e-15
  70
    32
  0
VERTEX
  8
0
  5
5682
 10
683.688
 20
-29.6696
 30
6.60002e-15
  70
    32
  0
VERTEX
  8
0
  5
5683
 10
683.688
 20
-29.6626
 30
6.60001e-15
  70
    32
  0
VERTEX
  8
0
  5
5684
 10
683.688
 20
-29.6556
 30
6.60000e-15
  70
    32
  0
VERTEX
  8
0
  5
5685
 10
683.688
 20
-29.6486
 30
6.60000e-15
  70
    32
  0
SEQEND
  8
0
  5
5686
  0
LINE
  5
5298
  8
0
  6
VERDECKT
 62
     1
 10
842.6383098802607492
 20
-33.4685123918374714
 30
0.0000000000000074
 11
842.6383098802607492
 21
-39.4685123918375282
 31
0.0000000000000088
210
0.0
220
1.0
230
-0.0000000000000002
  0
LINE
  5
5299
  8
0
  6
VERDECKT
 62
     1
 10
826.6383098802607492
 20
-33.4685123918374714
 30
0.0000000000000074
 11
826.6383098802607492
 21
-39.4685123918375282
 31
0.0000000000000088
210
0.0
220
1.0
230
-0.0000000000000002
  0
LINE
  5
529A
  8
0
  6
VERDECKT
 62
     1
 10
678.0934831612174776
 20
-33.4685123918374714
 30
0.0000000000000074
 11
678.0934831612174776
 21
-39.4685123918375282
 31
0.0000000000000088
210
0.0
220
1.0
230
-0.0000000000000002
  0
LINE
  5
529B
  8
0
  6
VERDECKT
 62
     1
 10
662.0934831612174776
 20
-33.4685123918374714
 30
0.0000000000000074
 11
662.0934831612174776
 21
-39.4685123918375282
 31
0.0000000000000088
210
0.0
220
1.0
230
-0.0000000000000002
  0
LINE
  5
529C
  8
0
  6
VERDECKT
 62
     1
 10
760.3658965207390565
 20
-33.468512391837443
 30
0.0000000000000074
 11
760.3658965207390565
 21
-39.4685123918374998
 31
0.0000000000000088
210
0.0
220
1.0
230
-0.0000000000000002
  0
LINE
  5
529D
  8
0
  6
VERDECKT
 62
     1
 10
744.3658965207390565
 20
-33.468512391837443
 30
0.0000000000000074
 11
744.3658965207390565
 21
-39.4685123918374998
 31
0.0000000000000088
210
0.0
220
1.0
230
-0.0000000000000002
  0
ARC
  5
529E
  8
0
  6
VERDECKT
 62
     1
 10
-820.3036944553819012
 20
15.0314876081628501
 30
0.0
 40
0.500000000000096
210
0.0
220
-0.0000000000000002
230
-1.0
 50
90.0
 51
177.9999999999739089
  0
ARC
  5
529F
  8
0
  6
VERDECKT
 62
     1
 10
-684.4280985860965529
 20
15.0314876081629993
 30
0.0
 40
0.5000000000001553
210
0.0
220
-0.0000000000000002
230
-1.0
 50
2.0000000000148499
 51
89.9999999999609344
  0
LINE
  5
52A0
  8
0
  6
VERDECKT
 62
     1
 10
688.3658965207389429
 20
-39.4685123918372227
 30
0.0000000000000088
 11
686.4452541986927372
 21
15.5314876081629407
 31
-0.0000000000000034
210
0.0
220
1.0
230
-0.0000000000000002
  0
LINE
  5
52A1
  8
0
  6
VERDECKT
 62
     1
 10
816.3658965207390565
 20
-39.4685123918373577
 30
0.0000000000000088
 11
818.2865388427853759
 21
15.5314876081628199
 31
-0.0000000000000034
210
0.0
220
1.0
230
-0.0000000000000002
  0
ARC
  5
52A2
  8
0
  6
VERDECKT
 62
     1
 10
-681.2684477187899574
 20
-32.4685123918370806
 30
0.0
 40
1.000000000000103
210
0.0
220
-0.0000000000000002
230
-1.0
 50
186.2178841740021937
 51
270.0
  0
ENDBLK
  5
52A4
  8
0
  0
ENDSEC
  0
SECTION
  2
ENTITIES
  0
INSERT
  5
260C
  8
ADSK_ASSOC_ENTITY_BACKUPS
  2
*S2
 10
0.0
 20
0.0
 30
0.0
  0
INSERT
  5
51AD
  8
ROHR
  2
A$C8194875C
 10
752.3658965207389429
 20
-221.1779029088804975
 30
101.2609333567348955
  0
INSERT
  5
52A5
  8
ROHR
  2
A$C1F4E1AFC
 10
752.3658965207389429
 20
358.3239280246090175
 30
101.2609333567351939
  0
VIEWPORT
  5
16A0
 67
     1
  8
0
 10
822.7640280998349454
 20
36.5636960721744018
 30
0.0
 40
769.2809658048421397
 41
423.0035756853396265
 68
     1
 69
     1
1001
ACAD
1000
MVIEW
1002
{
1070
    16
1010
0.0
1020
0.0
1030
0.0
1010
0.0
1020
0.0
1030
1.0
1040
0.0
1040
423.0035756853396265
1040
822.7640280998349454
1040
36.5636960721744018
1040
50.0
1040
0.0
1040
0.0
1070
     0
1070
  1500
1070
     1
1070
     1
1070
     0
1070
     0
1070
     0
1070
     0
1040
0.0
1040
0.0
1040
0.0
1040
10.0
1040
10.0
1040
10.0
1040
10.0
1070
     0
1002
{
1002
}
1002
}
  0
ENDSEC
  0
EOF
