  0
SECTION
  2
HEADER
  9
$ACADVER
  1
AC1009
  9
$INSBASE
 10
0.0
 20
0.0
 30
0.0
  9
$EXTMIN
 10
301.4958068848414996
 20
-253.0005027597057108
 30
-33.003413075404147
  9
$EXTMAX
 10
451.4958068848407038
 20
80.4066073496413338
 30
-33.0034130754040973
  9
$LIMMIN
 10
0.0
 20
0.0
  9
$LIMMAX
 10
210.0
 20
297.0
  9
$ORTHOMODE
 70
     1
  9
$REGENMODE
 70
     1
  9
$FILLMODE
 70
     1
  9
$QTEXTMODE
 70
     0
  9
$MIRRTEXT
 70
     1
  9
$DRAGMODE
 70
     2
  9
$LTSCALE
 40
10.0
  9
$OSMODE
 70
  2495
  9
$ATTMODE
 70
     1
  9
$TEXTSIZE
 40
3.5
  9
$TRACEWID
 40
0.5
  9
$TEXTSTYLE
  7
STANDARD
  9
$CLAYER
  8
STEMPEL
  9
$CELTYPE
  6
BYLAYER
  9
$CECOLOR
 62
   256
  9
$DIMSCALE
 40
1.0
  9
$DIMASZ
 40
3.5
  9
$DIMEXO
 40
1.0
  9
$DIMDLI
 40
7.0
  9
$DIMRND
 40
0.0
  9
$DIMDLE
 40
0.0
  9
$DIMEXE
 40
1.0
  9
$DIMTP
 40
0.0
  9
$DIMTM
 40
0.0
  9
$DIMTXT
 40
3.5
  9
$DIMCEN
 40
1.5
  9
$DIMTSZ
 40
0.0
  9
$DIMTOL
 70
     0
  9
$DIMLIM
 70
     0
  9
$DIMTIH
 70
     0
  9
$DIMTOH
 70
     0
  9
$DIMSE1
 70
     0
  9
$DIMSE2
 70
     0
  9
$DIMTAD
 70
     1
  9
$DIMZIN
 70
     8
  9
$DIMBLK
  1

  9
$DIMASO
 70
     1
  9
$DIMSHO
 70
     0
  9
$DIMPOST
  1

  9
$DIMAPOST
  1

  9
$DIMALT
 70
     0
  9
$DIMALTD
 70
     2
  9
$DIMALTF
 40
25.3999999999999986
  9
$DIMLFAC
 40
2.0
  9
$DIMTOFL
 70
     1
  9
$DIMTVP
 40
0.0
  9
$DIMTIX
 70
     0
  9
$DIMSOXD
 70
     0
  9
$DIMSAH
 70
     0
  9
$DIMBLK1
  1

  9
$DIMBLK2
  1

  9
$DIMSTYLE
  2
STANDARD
  9
$DIMCLRD
 70
     0
  9
$DIMCLRE
 70
     0
  9
$DIMCLRT
 70
     1
  9
$DIMTFAC
 40
0.5
  9
$DIMGAP
 40
1.5
  9
$LUNITS
 70
     2
  9
$LUPREC
 70
     2
  9
$SKETCHINC
 40
1.0
  9
$FILLETRAD
 40
15.0
  9
$AUNITS
 70
     0
  9
$AUPREC
 70
     0
  9
$MENU
  1
ACAD
  9
$ELEVATION
 40
0.0
  9
$PELEVATION
 40
0.0
  9
$THICKNESS
 40
0.0
  9
$LIMCHECK
 70
     0
  9
$BLIPMODE
 70
     0
  9
$CHAMFERA
 40
2.0
  9
$CHAMFERB
 40
2.0
  9
$SKPOLY
 70
     0
  9
$TDCREATE
 40
2455397.8646990740671754
  9
$TDUPDATE
 40
2459548.4312731479294598
  9
$TDINDWG
 40
0.1277587037
  9
$TDUSRTIMER
 40
0.1277587037
  9
$USRTIMER
 70
     1
  9
$ANGBASE
 50
0.0
  9
$ANGDIR
 70
     0
  9
$PDMODE
 70
     0
  9
$PDSIZE
 40
0.0
  9
$PLINEWID
 40
0.0
  9
$COORDS
 70
     1
  9
$SPLFRAME
 70
     0
  9
$SPLINETYPE
 70
     6
  9
$SPLINESEGS
 70
     8
  9
$ATTDIA
 70
     1
  9
$ATTREQ
 70
     1
  9
$HANDLING
 70
     1
  9
$HANDSEED
  5
1455
  9
$SURFTAB1
 70
     6
  9
$SURFTAB2
 70
     6
  9
$SURFTYPE
 70
     6
  9
$SURFU
 70
     6
  9
$SURFV
 70
     6
  9
$UCSNAME
  2

  9
$UCSORG
 10
0.0
 20
0.0
 30
0.0
  9
$UCSXDIR
 10
1.0
 20
0.0
 30
0.0
  9
$UCSYDIR
 10
0.0
 20
1.0
 30
0.0
  9
$PUCSNAME
  2

  9
$PUCSORG
 10
0.0
 20
0.0
 30
0.0
  9
$PUCSXDIR
 10
1.0
 20
0.0
 30
0.0
  9
$PUCSYDIR
 10
0.0
 20
1.0
 30
0.0
  9
$USERI1
 70
     0
  9
$USERI2
 70
     0
  9
$USERI3
 70
     0
  9
$USERI4
 70
     0
  9
$USERI5
 70
     0
  9
$USERR1
 40
0.0
  9
$USERR2
 40
0.0
  9
$USERR3
 40
0.0
  9
$USERR4
 40
0.0
  9
$USERR5
 40
0.0
  9
$WORLDVIEW
 70
     1
  9
$SHADEDGE
 70
     3
  9
$SHADEDIF
 70
    70
  9
$TILEMODE
 70
     1
  9
$MAXACTVP
 70
    16
  9
$PLIMCHECK
 70
     0
  9
$PEXTMIN
 10
1.0000000000000000E+20
 20
1.0000000000000000E+20
 30
1.0000000000000000E+20
  9
$PEXTMAX
 10
-1.0000000000000000E+20
 20
-1.0000000000000000E+20
 30
-1.0000000000000000E+20
  9
$PLIMMIN
 10
-0.0674642631973264
 20
-0.0511601294987543
  9
$PLIMMAX
 10
209.9325357368026914
 20
296.9488398705012742
  9
$UNITMODE
 70
     0
  9
$VISRETAIN
 70
     0
  9
$PLINEGEN
 70
     0
  9
$PSLTSCALE
 70
     0
  0
ENDSEC
  0
SECTION
  2
TABLES
  0
TABLE
  2
VPORT
 70
     1
  0
VPORT
  2
*ACTIVE
 70
     0
 10
0.0
 20
0.0
 11
1.0
 21
1.0
 12
0.5604472451098275
 22
-86.7035550546730462
 13
0.0
 23
0.0
 14
1.0
 24
1.0
 15
10.0
 25
10.0
 16
-0.0000000000001137
 26
0.0
 36
553.4145678916122506
 17
375.9353596397313027
 27
0.4066073496408649
 37
-16.5017065377020486
 40
335.7914279408798279
 41
1.7852028639618129
 42
50.0
 43
0.0
 44
0.0
 50
0.0
 51
0.0
 71
     0
 72
  1500
 73
     1
 74
     0
 75
     0
 76
     0
 77
     0
 78
     0
  0
ENDTAB
  0
TABLE
  2
LTYPE
 70
     6
  0
LTYPE
  2
CONTINUOUS
 70
     0
  3
Solid line
 72
    65
 73
     0
 40
0.0
  0
LTYPE
  2
PHANTOM2
 70
     0
  3
Phantom (.5x) ___ _ _ ___ _ _ ___ _ _ ___ _ _
 72
    65
 73
     6
 40
1.25
 49
0.625
 49
-0.125
 49
0.125
 49
-0.125
 49
0.125
 49
-0.125
  0
LTYPE
  2
VERDECKT
 70
     0
  3
Verdeckt __ __ __ __ __ __ __ __ __ __ __ __ __
 72
    65
 73
     2
 40
0.375
 49
0.25
 49
-0.125
  0
ENDTAB
  0
TABLE
  2
LAYER
 70
    14
  0
LAYER
  2
0
 70
     0
 62
     7
  6
CONTINUOUS
  0
LAYER
  2
VOLL
 70
     0
 62
     1
  6
CONTINUOUS
  0
LAYER
  2
STEMPEL
 70
     0
 62
     3
  6
CONTINUOUS
  0
LAYER
  2
DEFPOINTS
 70
     0
 62
     7
  6
CONTINUOUS
  0
LAYER
  2
ADSK_ASSOC_ENTITY_BACKUPS
 70
     1
 62
    -7
  6
CONTINUOUS
  0
ENDTAB
  0
TABLE
  2
STYLE
 70
     4
  0
STYLE
  2
STANDARD
 70
     0
 40
0.0
 41
0.8
 50
0.0
 71
     0
 42
3.5
  3
simplex.shx
  4

  0
STYLE
  2
GREEKS
 70
     0
 40
0.0
 41
0.8
 50
0.0
 71
     0
 42
2.5
  3
SIMPLEX.shx
  4

  0
ENDTAB
  0
TABLE
  2
VIEW
 70
     1
  0
ENDTAB
  0
TABLE
  2
UCS
 70
     0
  0
ENDTAB
  0
TABLE
  2
APPID
 70
    22
  0
APPID
  2
ACAD
 70
     0
  0
APPID
  2
ACAD_NAV_VCDISPLAY
 70
     0
  0
APPID
  2
ACAD_MLEADERVER
 70
     0
  0
APPID
  2
ACAD_EXEMPT_FROM_CAD_STANDARDS
 70
     0
  0
APPID
  2
ACAD_PSEXT
 70
     0
  0
APPID
  2
ACAECLAYERSTANDARD
 70
     0
  0
APPID
  2
ACAUTHENVIRON
 70
     0
  0
APPID
  2
ACCMTRANSPARENCY
 70
     0
  0
APPID
  2
ACAD_STEPID
 70
     0
  0
APPID
  2
ACSYNERGY
 70
     0
  0
APPID
  2
SYNERGY_BODY_TBR_ID
 70
     0
  0
APPID
  2
ACAD_VIEW_EDGE_ID
 70
     0
  0
APPID
  2
ACSYNERGYSKETCH
 70
     0
  0
APPID
  2
ACAD_MODELDOC_XFORM
 70
     0
  0
APPID
  2
ACAD_DSTYLE_DIMJAG
 70
     0
  0
APPID
  2
ACAD_DSTYLE_DIMTALN
 70
     0
  0
APPID
  2
ACADANNOMONITORALERTICONDI
 70
     0
  0
APPID
  2
ACAD_DIMASSOC_CALC_DIMLFAC
 70
     0
  0
APPID
  2
ACAD_DIMASSOC_DIMLFAC
 70
     0
  0
APPID
  2
ACAD_DIMASSOC_OVERRIDDEN_D
 70
     0
  0
APPID
  2
ACAD_DSTYLE_DIMRADIAL_EXTENSION
 70
     0
  0
APPID
  2
AcDbAttr
 70
     0
  0
ENDTAB
  0
TABLE
  2
DIMSTYLE
 70
     2
  0
DIMSTYLE
  2
STANDARD
 70
     0
  3

  4

  5

  6

  7

 40
1.0
 41
0.18
 42
0.0625
 43
0.38
 44
0.18
 45
0.0
 46
0.0
 47
0.0
 48
0.0
140
0.18
141
0.09
142
0.0
143
25.3999999999999986
144
1.0
145
0.0
146
1.0
147
0.09
 71
     0
 72
     0
 73
     1
 74
     1
 75
     0
 76
     0
 77
     0
 78
     0
170
     0
171
     2
172
     0
173
     0
174
     0
175
     0
176
     0
177
     0
178
     0
  0
ENDTAB
  0
ENDSEC
  0
SECTION
  2
BLOCKS
  0
BLOCK
  8
0
  2
$MODEL_SPACE
 70
     0
 10
0.0
 20
0.0
 30
0.0
  3
$MODEL_SPACE
  1

  0
ENDBLK
  5
36
  8
0
  0
BLOCK
 67
     1
  8
0
  2
$PAPER_SPACE
 70
     0
 10
0.0
 20
0.0
 30
0.0
  3
$PAPER_SPACE
  1

  0
ENDBLK
  5
34
 67
     1
  8
0
  0
BLOCK
  8
0
  2
*S2
 70
     1
 10
0.0
 20
0.0
 30
0.0
  3
*S2
  1

  0
ENDBLK
  5
B3A
  8
0
  0
BLOCK
  8
0
  2
A$CA81D0EC1
 70
     0
 10
0.0
 20
0.0
 30
0.0
  3
A$CA81D0EC1
  1

  0
CIRCLE
  5
13DB
  8
0
 10
204.0057794051386111
 20
-0.7845751667607362
 30
0.0000000000000426
 40
35.5
  0
CIRCLE
  5
13DC
  8
0
 10
204.0057794051384121
 20
-0.784575166760731
 30
0.0000000000000444
 40
47.5000000000002274
  0
CIRCLE
  5
13DD
  8
0
 10
204.0057794051382984
 20
-0.7845751667607274
 30
0.0000000000000426
 40
53.4999999999998792
  0
CIRCLE
  5
13DE
  8
0
 10
204.0057794051382132
 20
-0.7845751667607268
 30
0.0000000000000426
 40
64.9999999999997726
  0
CIRCLE
  5
13DF
  8
0
 10
204.0057794051382132
 20
-0.7845751667607268
 30
0.0000000000000426
 40
74.9999999999995453
  0
CIRCLE
  5
13E0
  8
0
  6
VERDECKT
 62
     1
 10
204.0057794051386111
 20
-0.7845751667607365
 30
0.0000000000000426
 40
42.5
  0
ENDBLK
  5
13E2
  8
0
  0
BLOCK
  8
0
  2
A$C842EF19E
 70
     0
 10
0.0
 20
0.0
 30
0.0
  3
A$C842EF19E
  1

  0
LINE
  5
13E6
  8
0
 10
141.8241330692410997
 20
-80.0000000000000142
 30
0.0000000000000178
 11
266.1874257410361793
 21
-79.9999999999997868
 31
0.0000000000000178
210
0.0
220
1.0
230
-0.0000000000000002
  0
LINE
  5
13E7
  8
0
 10
129.0057794051386111
 20
80.0000000000000711
 30
-0.0000000000000178
 11
279.0057794051376732
 21
80.0000000000003979
 31
-0.0000000000000178
210
0.0
220
1.0
230
-0.0000000000000002
  0
LINE
  5
13E8
  8
0
 10
138.8299753337923903
 20
-77.1871348584656545
 30
0.0000000000000171
 11
129.0057794051386111
 21
80.0000000000000142
 31
-0.0000000000000178
210
0.0
220
1.0
230
-0.0000000000000002
  0
LINE
  5
13E9
  8
0
 10
269.181583476484775
 20
-77.1871348584653134
 30
0.0000000000000171
 11
279.0057794051377869
 21
80.0000000000004547
 31
-0.0000000000000178
210
0.0
220
1.0
230
-0.0000000000000002
  0
ARC
  5
13EA
  8
0
 10
-141.8241330692409861
 20
-77.0000000000001279
 30
0.0
 40
2.9999999999999432
210
0.0
220
-0.0000000000000002
230
-1.0
 50
270.0
 51
356.423665625003423
  0
ARC
  5
13EB
  8
0
 10
-266.1874257410361793
 20
-76.9999999999997868
 30
0.0
 40
2.9999999999999289
210
0.0
220
-0.0000000000000002
230
-1.0
 50
183.5763343749970886
 51
270.00000000000108
  0
LINE
  5
13EC
  8
0
  6
VERDECKT
 62
     1
 10
161.5057794051386111
 20
-78.0000000000004121
 30
0.0000000000000173
 11
246.5057794051386111
 21
-78.0000000000001847
 31
0.0000000000000173
210
0.0
220
1.0
230
-0.0000000000000002
  0
LINE
  5
13ED
  8
0
  6
VERDECKT
 62
     1
 10
168.5057794051386111
 20
-73.0000000000002416
 30
0.0000000000000162
 11
239.5057794051386111
 21
-73.0000000000000142
 31
0.0000000000000162
210
0.0
220
1.0
230
-0.0000000000000002
  0
LINE
  5
13EE
  8
0
  6
VERDECKT
 62
     1
 10
156.5057794051386111
 20
-56.0000000000019966
 30
0.0000000000000124
 11
251.5057794051386111
 21
-56.0000000000017835
 31
0.0000000000000124
210
0.0
220
1.0
230
-0.0000000000000002
  0
LINE
  5
13EF
  8
0
  6
VERDECKT
 62
     1
 10
156.5057794051382132
 20
9.9999999999998881
 30
-0.0000000000000022
 11
251.5057794051386111
 21
10.0000000000001101
 31
-0.0000000000000022
210
0.0
220
1.0
230
-0.0000000000000002
  0
LINE
  5
13F0
  8
0
  6
VERDECKT
 62
     1
 10
150.5057794051384121
 20
15.9999999999997708
 30
-0.0000000000000036
 11
257.5057794051384121
 21
16.0
 31
-0.0000000000000036
210
0.0
220
1.0
230
-0.0000000000000002
  0
LINE
  5
13F1
  8
0
  6
VERDECKT
 62
     1
 10
150.5057794051384121
 20
70.0000000000000142
 30
-0.0000000000000155
 11
257.5057794051381848
 21
70.0000000000002416
 31
-0.0000000000000155
210
0.0
220
1.0
230
-0.0000000000000002
  0
LINE
  5
13F2
  8
0
  6
VERDECKT
 62
     1
 10
246.5057794051386111
 20
-78.0000000000001847
 30
0.0000000000000173
 11
246.5057794051386111
 21
-80.0000000000001137
 31
0.0000000000000178
210
0.0
220
1.0
230
-0.0000000000000002
  0
LINE
  5
13F3
  8
0
  6
VERDECKT
 62
     1
 10
161.5057794051386111
 20
-78.0000000000004121
 30
0.0000000000000173
 11
161.5057794051386111
 21
-80.0000000000003553
 31
0.0000000000000178
210
0.0
220
1.0
230
-0.0000000000000002
  0
LINE
  5
13F4
  8
0
  6
VERDECKT
 62
     1
 10
239.5057794051386111
 20
-73.0000000000000284
 30
0.0000000000000162
 11
239.5057794051386111
 21
-78.0000000000003126
 31
0.0000000000000173
210
0.0
220
1.0
230
-0.0000000000000002
  0
LINE
  5
13F5
  8
0
  6
VERDECKT
 62
     1
 10
168.5057794051386111
 20
-73.0000000000002416
 30
0.0000000000000162
 11
168.5057794051386111
 21
-78.0000000000005258
 31
0.0000000000000173
210
0.0
220
1.0
230
-0.0000000000000002
  0
LINE
  5
13F6
  8
0
  6
VERDECKT
 62
     1
 10
168.5057794051386111
 20
-73.0000000000002558
 30
0.0000000000000162
 11
156.5057794051386111
 21
-56.0000000000020108
 31
0.0000000000000124
210
0.0
220
1.0
230
-0.0000000000000002
  0
LINE
  5
13F7
  8
0
  6
VERDECKT
 62
     1
 10
239.5057794051386963
 20
-73.0000000000000711
 30
0.0000000000000162
 11
251.5057794051386111
 21
-56.0000000000017408
 31
0.0000000000000124
210
0.0
220
1.0
230
-0.0000000000000002
  0
LINE
  5
13F8
  8
0
  6
VERDECKT
 62
     1
 10
251.5057794051386111
 20
10.0000000000001297
 30
-0.0000000000000022
 11
251.5057794051386963
 21
-56.0000000000017621
 31
0.0000000000000124
210
0.0
220
1.0
230
-0.0000000000000002
  0
LINE
  5
13F9
  8
0
  6
VERDECKT
 62
     1
 10
156.5057794051382984
 20
9.9999999999998881
 30
-0.0000000000000022
 11
156.5057794051384974
 21
-56.0000000000019966
 31
0.0000000000000124
210
0.0
220
1.0
230
-0.0000000000000002
  0
LINE
  5
13FA
  8
0
  6
VERDECKT
 62
     1
 10
156.5057794051380995
 20
9.9999999999998632
 30
-0.0000000000000022
 11
150.5057794051384121
 21
15.9999999999996891
 31
-0.0000000000000036
210
0.0
220
1.0
230
-0.0000000000000002
  0
LINE
  5
13FB
  8
0
  6
VERDECKT
 62
     1
 10
251.5057794051386111
 20
10.0000000000000995
 30
-0.0000000000000022
 11
257.5057794051385258
 21
16.0
 31
-0.0000000000000036
210
0.0
220
1.0
230
-0.0000000000000002
  0
LINE
  5
13FC
  8
0
  6
VERDECKT
 62
     1
 10
257.5057794051381279
 20
70.00000000000027
 30
-0.0000000000000155
 11
257.5057794051382984
 21
16.0000000000000284
 31
-0.0000000000000036
210
0.0
220
1.0
230
-0.0000000000000002
  0
LINE
  5
13FD
  8
0
  6
VERDECKT
 62
     1
 10
150.5057794051382984
 20
70.0000000000000142
 30
-0.0000000000000155
 11
150.5057794051384974
 21
15.9999999999997193
 31
-0.0000000000000036
210
0.0
220
1.0
230
-0.0000000000000002
  0
LINE
  5
13FE
  8
0
  6
VERDECKT
 62
     1
 10
150.5057794051384121
 20
70.0000000000000284
 30
-0.0000000000000155
 11
139.0057794051384121
 21
80.0000000000000284
 31
-0.0000000000000178
210
0.0
220
1.0
230
-0.0000000000000002
  0
LINE
  5
13FF
  8
0
  6
VERDECKT
 62
     1
 10
257.5057794051381279
 20
70.0000000000003837
 30
-0.0000000000000155
 11
269.0057794051380142
 21
80.0000000000003837
 31
-0.0000000000000178
210
0.0
220
1.0
230
-0.0000000000000002
  0
ENDBLK
  5
1401
  8
0
  0
ENDSEC
  0
SECTION
  2
ENTITIES
  0
TEXT
  5
8F
  8
VOLL
 10
78.076754716981128
 20
31.025947764705851
 30
0.0
 40
1.8
  1

  7
GREEKS
  0
INSERT
  5
B3C
  8
ADSK_ASSOC_ENTITY_BACKUPS
  2
*S2
 10
0.0
 20
0.0
 30
0.0
  0
INSERT
  5
13E3
  8
STEMPEL
  2
A$CA81D0EC1
 10
172.4900274797028885
 20
-177.2159275929452917
 30
-33.0034130754041897
  0
INSERT
  5
1402
  8
STEMPEL
  2
A$C842EF19E
 10
172.4900274797028885
 20
0.4066073496408649
 30
-33.0034130754041328
  0
VIEWPORT
  5
928
 67
     1
  8
0
 10
104.9325357368027056
 20
148.4488398705011889
 30
0.0
 40
533.9969448798291296
 41
299.1239570917758783
 68
     1
 69
     1
1001
ACAD
1000
MVIEW
1002
{
1070
    16
1010
0.0
1020
0.0
1030
0.0
1010
0.0
1020
0.0
1030
1.0
1040
0.0
1040
299.1239570917758783
1040
104.9325357368027056
1040
148.4488398705011889
1040
50.0
1040
0.0
1040
0.0
1070
     0
1070
  1500
1070
     1
1070
     1
1070
     0
1070
     0
1070
     0
1070
     0
1040
0.0
1040
0.0
1040
0.0
1040
10.0
1040
10.0
1040
10.0
1040
10.0
1070
     0
1002
{
1002
}
1002
}
  0
ENDSEC
  0
EOF
